  0
SECTION
  2
HEADER
  9
$ACADVER
  1
AC1024
  9
$ACADMAINTVER
 70
     6
  9
$DWGCODEPAGE
  3
ANSI_932
  9
$LASTSAVEDBY
  1
kanatani
  9
$INSBASE
 10
0.0
 20
0.0
 30
0.0
  9
$EXTMIN
 10
-49.00010054010678
 20
-63.55756000376323
 30
0.0
  9
$EXTMAX
 10
65.49998474121096
 20
240.4723140459299
 30
0.0
  9
$LIMMIN
 10
0.0
 20
0.0
  9
$LIMMAX
 10
420.0
 20
297.0
  9
$ORTHOMODE
 70
     0
  9
$REGENMODE
 70
     1
  9
$FILLMODE
 70
     1
  9
$QTEXTMODE
 70
     0
  9
$MIRRTEXT
 70
     1
  9
$LTSCALE
 40
0.2
  9
$ATTMODE
 70
     1
  9
$TEXTSIZE
 40
2.5
  9
$TRACEWID
 40
1.0
  9
$TEXTSTYLE
  7
Standard
  9
$CLAYER
  8
0
  9
$CELTYPE
  6
ByLayer
  9
$CECOLOR
 62
   256
  9
$CELTSCALE
 40
1.0
  9
$DISPSILH
 70
     0
  9
$DIMSCALE
 40
1.0
  9
$DIMASZ
 40
2.5
  9
$DIMEXO
 40
0.625
  9
$DIMDLI
 40
3.75
  9
$DIMRND
 40
0.0
  9
$DIMDLE
 40
0.0
  9
$DIMEXE
 40
1.25
  9
$DIMTP
 40
0.0
  9
$DIMTM
 40
0.0
  9
$DIMTXT
 40
2.5
  9
$DIMCEN
 40
2.5
  9
$DIMTSZ
 40
0.0
  9
$DIMTOL
 70
     0
  9
$DIMLIM
 70
     0
  9
$DIMTIH
 70
     0
  9
$DIMTOH
 70
     0
  9
$DIMSE1
 70
     0
  9
$DIMSE2
 70
     0
  9
$DIMTAD
 70
     1
  9
$DIMZIN
 70
     8
  9
$DIMBLK
  1

  9
$DIMASO
 70
     1
  9
$DIMSHO
 70
     1
  9
$DIMPOST
  1

  9
$DIMAPOST
  1

  9
$DIMALT
 70
     0
  9
$DIMALTD
 70
     3
  9
$DIMALTF
 40
0.03937007874016
  9
$DIMLFAC
 40
1.0
  9
$DIMTOFL
 70
     1
  9
$DIMTVP
 40
0.0
  9
$DIMTIX
 70
     0
  9
$DIMSOXD
 70
     0
  9
$DIMSAH
 70
     0
  9
$DIMBLK1
  1

  9
$DIMBLK2
  1

  9
$DIMSTYLE
  2
ISO-25
  9
$DIMCLRD
 70
     0
  9
$DIMCLRE
 70
     0
  9
$DIMCLRT
 70
     0
  9
$DIMTFAC
 40
1.0
  9
$DIMGAP
 40
0.625
  9
$DIMJUST
 70
     0
  9
$DIMSD1
 70
     0
  9
$DIMSD2
 70
     0
  9
$DIMTOLJ
 70
     0
  9
$DIMTZIN
 70
     8
  9
$DIMALTZ
 70
     0
  9
$DIMALTTZ
 70
     0
  9
$DIMUPT
 70
     0
  9
$DIMDEC
 70
     2
  9
$DIMTDEC
 70
     2
  9
$DIMALTU
 70
     2
  9
$DIMALTTD
 70
     3
  9
$DIMTXSTY
  7
Standard
  9
$DIMAUNIT
 70
     0
  9
$DIMADEC
 70
     0
  9
$DIMALTRND
 40
0.0
  9
$DIMAZIN
 70
     0
  9
$DIMDSEP
 70
    44
  9
$DIMATFIT
 70
     3
  9
$DIMFRAC
 70
     0
  9
$DIMLDRBLK
  1

  9
$DIMLUNIT
 70
     2
  9
$DIMLWD
 70
    -2
  9
$DIMLWE
 70
    -2
  9
$DIMTMOVE
 70
     0
  9
$DIMFXL
 40
1.0
  9
$DIMFXLON
 70
     0
  9
$DIMJOGANG
 40
0.7853981633974483
  9
$DIMTFILL
 70
     0
  9
$DIMTFILLCLR
 70
     0
  9
$DIMARCSYM
 70
     0
  9
$DIMLTYPE
  6

  9
$DIMLTEX1
  6

  9
$DIMLTEX2
  6

  9
$DIMTXTDIRECTION
 70
     0
  9
$LUNITS
 70
     2
  9
$LUPREC
 70
     4
  9
$SKETCHINC
 40
1.0
  9
$FILLETRAD
 40
10.0
  9
$AUNITS
 70
     0
  9
$AUPREC
 70
     0
  9
$MENU
  1
.
  9
$ELEVATION
 40
0.0
  9
$PELEVATION
 40
0.0
  9
$THICKNESS
 40
0.0
  9
$LIMCHECK
 70
     0
  9
$CHAMFERA
 40
10.0
  9
$CHAMFERB
 40
10.0
  9
$CHAMFERC
 40
20.0
  9
$CHAMFERD
 40
0.0
  9
$SKPOLY
 70
     0
  9
$TDCREATE
 40
2456874.593217083
  9
$TDUCREATE
 40
2456874.218217083
  9
$TDUPDATE
 40
2456910.414166586
  9
$TDUUPDATE
 40
2456910.039166586
  9
$TDINDWG
 40
0.0180899653
  9
$TDUSRTIMER
 40
0.0180899537
  9
$USRTIMER
 70
     1
  9
$ANGBASE
 50
0.0
  9
$ANGDIR
 70
     0
  9
$PDMODE
 70
     0
  9
$PDSIZE
 40
0.0
  9
$PLINEWID
 40
0.0
  9
$SPLFRAME
 70
     0
  9
$SPLINETYPE
 70
     6
  9
$SPLINESEGS
 70
     8
  9
$HANDSEED
  5
39F
  9
$SURFTAB1
 70
     6
  9
$SURFTAB2
 70
     6
  9
$SURFTYPE
 70
     6
  9
$SURFU
 70
     6
  9
$SURFV
 70
     6
  9
$UCSBASE
  2

  9
$UCSNAME
  2

  9
$UCSORG
 10
0.0
 20
0.0
 30
0.0
  9
$UCSXDIR
 10
1.0
 20
0.0
 30
0.0
  9
$UCSYDIR
 10
0.0
 20
1.0
 30
0.0
  9
$UCSORTHOREF
  2

  9
$UCSORTHOVIEW
 70
     0
  9
$UCSORGTOP
 10
0.0
 20
0.0
 30
0.0
  9
$UCSORGBOTTOM
 10
0.0
 20
0.0
 30
0.0
  9
$UCSORGLEFT
 10
0.0
 20
0.0
 30
0.0
  9
$UCSORGRIGHT
 10
0.0
 20
0.0
 30
0.0
  9
$UCSORGFRONT
 10
0.0
 20
0.0
 30
0.0
  9
$UCSORGBACK
 10
0.0
 20
0.0
 30
0.0
  9
$PUCSBASE
  2

  9
$PUCSNAME
  2

  9
$PUCSORG
 10
0.0
 20
0.0
 30
0.0
  9
$PUCSXDIR
 10
1.0
 20
0.0
 30
0.0
  9
$PUCSYDIR
 10
0.0
 20
1.0
 30
0.0
  9
$PUCSORTHOREF
  2

  9
$PUCSORTHOVIEW
 70
     0
  9
$PUCSORGTOP
 10
0.0
 20
0.0
 30
0.0
  9
$PUCSORGBOTTOM
 10
0.0
 20
0.0
 30
0.0
  9
$PUCSORGLEFT
 10
0.0
 20
0.0
 30
0.0
  9
$PUCSORGRIGHT
 10
0.0
 20
0.0
 30
0.0
  9
$PUCSORGFRONT
 10
0.0
 20
0.0
 30
0.0
  9
$PUCSORGBACK
 10
0.0
 20
0.0
 30
0.0
  9
$USERI1
 70
     0
  9
$USERI2
 70
     0
  9
$USERI3
 70
     0
  9
$USERI4
 70
     0
  9
$USERI5
 70
     0
  9
$USERR1
 40
0.0
  9
$USERR2
 40
0.0
  9
$USERR3
 40
0.0
  9
$USERR4
 40
0.0
  9
$USERR5
 40
0.0
  9
$WORLDVIEW
 70
     1
  9
$SHADEDGE
 70
     3
  9
$SHADEDIF
 70
    70
  9
$TILEMODE
 70
     1
  9
$MAXACTVP
 70
    64
  9
$PINSBASE
 10
0.0
 20
0.0
 30
0.0
  9
$PLIMCHECK
 70
     0
  9
$PEXTMIN
 10
26.66076962115563
 20
20.31135699206658
 30
-0.0015258207003583
  9
$PEXTMAX
 10
240.039213369355
 20
182.8886381005154
 30
0.0000000349246037
  9
$PLIMMIN
 10
-6.350006103515625
 20
-6.349999904632568
  9
$PLIMMAX
 10
273.0499877929688
 20
209.5499939918518
  9
$UNITMODE
 70
     0
  9
$VISRETAIN
 70
     1
  9
$PLINEGEN
 70
     0
  9
$PSLTSCALE
 70
     1
  9
$TREEDEPTH
 70
  3020
  9
$CMLSTYLE
  2
Standard
  9
$CMLJUST
 70
     0
  9
$CMLSCALE
 40
20.0
  9
$PROXYGRAPHICS
 70
     1
  9
$MEASUREMENT
 70
     1
  9
$CELWEIGHT
370
    -1
  9
$ENDCAPS
280
     0
  9
$JOINSTYLE
280
     0
  9
$LWDISPLAY
290
     0
  9
$INSUNITS
 70
     4
  9
$HYPERLINKBASE
  1

  9
$STYLESHEET
  1

  9
$XEDIT
290
     1
  9
$CEPSNTYPE
380
     0
  9
$PSTYLEMODE
290
     1
  9
$FINGERPRINTGUID
  2
{FDEAD578-A652-11D2-9A35-0060089B3A3F}
  9
$VERSIONGUID
  2
{A9C7D231-37E6-43E9-AC1D-ACC4F7A69D42}
  9
$EXTNAMES
290
     1
  9
$PSVPSCALE
 40
0.0
  9
$OLESTARTUP
290
     0
  9
$SORTENTS
280
   127
  9
$INDEXCTL
280
     0
  9
$HIDETEXT
280
     1
  9
$XCLIPFRAME
280
     2
  9
$HALOGAP
280
     0
  9
$OBSCOLOR
 70
   257
  9
$OBSLTYPE
280
     0
  9
$INTERSECTIONDISPLAY
280
     0
  9
$INTERSECTIONCOLOR
 70
   257
  9
$DIMASSOC
280
     2
  9
$PROJECTNAME
  1

  9
$CAMERADISPLAY
290
     0
  9
$LENSLENGTH
 40
50.0
  9
$CAMERAHEIGHT
 40
0.0
  9
$STEPSPERSEC
 40
2.0
  9
$STEPSIZE
 40
6.0
  9
$3DDWFPREC
 40
2.0
  9
$PSOLWIDTH
 40
0.25
  9
$PSOLHEIGHT
 40
4.0
  9
$LOFTANG1
 40
1.570796326794896
  9
$LOFTANG2
 40
1.570796326794896
  9
$LOFTMAG1
 40
0.0
  9
$LOFTMAG2
 40
0.0
  9
$LOFTPARAM
 70
     7
  9
$LOFTNORMALS
280
     1
  9
$LATITUDE
 40
37.795
  9
$LONGITUDE
 40
-122.394
  9
$NORTHDIRECTION
 40
0.0
  9
$TIMEZONE
 70
 -8000
  9
$LIGHTGLYPHDISPLAY
280
     1
  9
$TILEMODELIGHTSYNCH
280
     1
  9
$CMATERIAL
347
34E
  9
$SOLIDHIST
280
     1
  9
$SHOWHIST
280
     1
  9
$DWFFRAME
280
     2
  9
$DGNFRAME
280
     0
  9
$REALWORLDSCALE
290
     1
  9
$INTERFERECOLOR
 62
     1
  9
$INTERFEREOBJVS
345
370
  9
$INTERFEREVPVS
346
36D
  9
$CSHADOW
280
     0
  9
$SHADOWPLANELOCATION
 40
0.0
  0
ENDSEC
  0
SECTION
  2
CLASSES
  0
CLASS
  1
ACDBDICTIONARYWDFLT
  2
AcDbDictionaryWithDefault
  3
ObjectDBX Classes
 90
        0
 91
        1
280
     0
281
     0
  0
CLASS
  1
DICTIONARYVAR
  2
AcDbDictionaryVar
  3
ObjectDBX Classes
 90
        0
 91
        9
280
     0
281
     0
  0
CLASS
  1
MATERIAL
  2
AcDbMaterial
  3
ObjectDBX Classes
 90
     1153
 91
        3
280
     0
281
     0
  0
CLASS
  1
VISUALSTYLE
  2
AcDbVisualStyle
  3
ObjectDBX Classes
 90
     4095
 91
       19
280
     0
281
     0
  0
CLASS
  1
TABLESTYLE
  2
AcDbTableStyle
  3
ObjectDBX Classes
 90
     4095
 91
        1
280
     0
281
     0
  0
CLASS
  1
SCALE
  2
AcDbScale
  3
ObjectDBX Classes
 90
     1153
 91
       17
280
     0
281
     0
  0
CLASS
  1
MLEADERSTYLE
  2
AcDbMLeaderStyle
  3
ACDB_MLEADERSTYLE_CLASS
 90
     4095
 91
        1
280
     0
281
     0
  0
CLASS
  1
CELLSTYLEMAP
  2
AcDbCellStyleMap
  3
ObjectDBX Classes
 90
     1152
 91
        1
280
     0
281
     0
  0
ENDSEC
  0
SECTION
  2
TABLES
  0
TABLE
  2
VPORT
  5
8
330
0
100
AcDbSymbolTable
 70
     1
  0
VPORT
  5
34B
330
8
100
AcDbSymbolTableRecord
100
AcDbViewportTableRecord
  2
*Active
 70
     0
 10
0.0
 20
0.0
 11
1.0
 21
1.0
 12
8.25350697703493
 22
96.38602497475819
 13
0.0
 23
0.0
 14
10.0
 24
10.0
 15
10.0
 25
10.0
 16
0.0
 26
0.0
 36
1.0
 17
0.0
 27
0.0
 37
0.0
 40
321.8282687723611
 41
1.857142857142857
 42
50.0
 43
0.0
 44
0.0
 50
0.0
 51
0.0
 71
     0
 72
   100
 73
     1
 74
     3
 75
     0
 76
     0
 77
     0
 78
     0
281
     0
 65
     1
110
0.0
120
0.0
130
0.0
111
1.0
121
0.0
131
0.0
112
0.0
122
1.0
132
0.0
 79
     0
146
0.0
348
36C
 60
     3
 61
     5
292
     1
282
     1
141
0.0
142
0.0
 63
   250
421
  3355443
  0
ENDTAB
  0
TABLE
  2
LTYPE
  5
5
330
0
100
AcDbSymbolTable
 70
     3
  0
LTYPE
  5
14
330
5
100
AcDbSymbolTableRecord
100
AcDbLinetypeTableRecord
  2
ByBlock
 70
     0
  3

 72
    65
 73
     0
 40
0.0
  0
LTYPE
  5
15
330
5
100
AcDbSymbolTableRecord
100
AcDbLinetypeTableRecord
  2
ByLayer
 70
     0
  3

 72
    65
 73
     0
 40
0.0
  0
LTYPE
  5
16
330
5
100
AcDbSymbolTableRecord
100
AcDbLinetypeTableRecord
  2
Continuous
 70
     0
  3
Solid line
 72
    65
 73
     0
 40
0.0
  0
LTYPE
  5
8D
330
5
100
AcDbSymbolTableRecord
100
AcDbLinetypeTableRecord
  2
CENTER
 70
     0
  3
Center ____ _ ____ _ ____ _ ____ _ ____ _ ____
 72
    65
 73
     4
 40
50.8
 49
31.75
 74
     0
 49
-6.349999999999999
 74
     0
 49
6.349999999999999
 74
     0
 49
-6.349999999999999
 74
     0
  0
LTYPE
  5
8E
330
5
100
AcDbSymbolTableRecord
100
AcDbLinetypeTableRecord
  2
PHANTOM
 70
     0
  3
Phantom ______  __  __  ______  __  __  ______
 72
    65
 73
     6
 40
63.5
 49
31.75
 74
     0
 49
-6.349999999999999
 74
     0
 49
6.349999999999999
 74
     0
 49
-6.349999999999999
 74
     0
 49
6.349999999999999
 74
     0
 49
-6.349999999999999
 74
     0
  0
ENDTAB
  0
TABLE
  2
LAYER
  5
2
102
{ACAD_XDICTIONARY
360
97
102
}
330
0
100
AcDbSymbolTable
 70
     3
  0
LAYER
  5
10
102
{ACAD_XDICTIONARY
360
393
102
}
330
2
100
AcDbSymbolTableRecord
100
AcDbLayerTableRecord
  2
0
 70
     0
 62
     7
  6
Continuous
370
    -3
390
F
347
35E
  0
LAYER
  5
8F
102
{ACAD_XDICTIONARY
360
90
102
}
330
2
100
AcDbSymbolTableRecord
100
AcDbLayerTableRecord
  2
2
 70
     0
 62
     2
  6
PHANTOM
370
    -3
390
F
347
35E
1001
AcAecLayerStandard
1000

1000

1001
ACCMTRANSPARENCY
1071
        0
  0
LAYER
  5
92
102
{ACAD_XDICTIONARY
360
93
102
}
330
2
100
AcDbSymbolTableRecord
100
AcDbLayerTableRecord
  2
1
 70
     0
 62
     5
  6
CENTER
370
    -3
390
F
347
35E
1001
AcAecLayerStandard
1000

1000

1001
ACCMTRANSPARENCY
1071
        0
  0
ENDTAB
  0
TABLE
  2
STYLE
  5
3
330
0
100
AcDbSymbolTable
 70
     1
  0
STYLE
  5
11
330
3
100
AcDbSymbolTableRecord
100
AcDbTextStyleTableRecord
  2
Standard
 70
     0
 40
0.0
 41
1.0
 50
0.0
 71
     0
 42
2.5
  3
txt
  4

  0
ENDTAB
  0
TABLE
  2
VIEW
  5
6
330
0
100
AcDbSymbolTable
 70
     0
  0
ENDTAB
  0
TABLE
  2
UCS
  5
7
330
0
100
AcDbSymbolTable
 70
     0
  0
ENDTAB
  0
TABLE
  2
APPID
  5
9
330
0
100
AcDbSymbolTable
 70
     3
  0
APPID
  5
12
330
9
100
AcDbSymbolTableRecord
100
AcDbRegAppTableRecord
  2
ACAD
 70
     0
  0
APPID
  5
95
330
9
100
AcDbSymbolTableRecord
100
AcDbRegAppTableRecord
  2
AcAecLayerStandard
 70
     0
  0
APPID
  5
96
330
9
100
AcDbSymbolTableRecord
100
AcDbRegAppTableRecord
  2
ACCMTRANSPARENCY
 70
     0
  0
ENDTAB
  0
TABLE
  2
DIMSTYLE
  5
A
330
0
100
AcDbSymbolTable
 70
     1
100
AcDbDimStyleTable
 71
     0
  0
DIMSTYLE
105
27
330
A
100
AcDbSymbolTableRecord
100
AcDbDimStyleTableRecord
  2
ISO-25
 70
     0
 41
2.5
 42
0.625
 43
3.75
 44
1.25
 73
     0
 74
     0
 77
     1
 78
     8
140
2.5
141
2.5
143
0.03937007874016
147
0.625
171
     3
172
     1
271
     2
272
     2
274
     3
278
    44
283
     0
284
     8
340
11
  0
ENDTAB
  0
TABLE
  2
BLOCK_RECORD
  5
1
330
0
100
AcDbSymbolTable
 70
     1
  0
BLOCK_RECORD
  5
1F
330
1
100
AcDbSymbolTableRecord
100
AcDbBlockTableRecord
  2
*Model_Space
340
22
 70
     0
280
     1
281
     0
  0
BLOCK_RECORD
  5
55
330
1
100
AcDbSymbolTableRecord
100
AcDbBlockTableRecord
  2
*Paper_Space
340
56
 70
     0
280
     1
281
     0
  0
BLOCK_RECORD
  5
50
330
1
100
AcDbSymbolTableRecord
100
AcDbBlockTableRecord
  2
*Paper_Space0
340
51
 70
     0
280
     1
281
     0
  0
ENDTAB
  0
ENDSEC
  0
SECTION
  2
BLOCKS
  0
BLOCK
  5
20
330
1F
100
AcDbEntity
  8
0
100
AcDbBlockBegin
  2
*Model_Space
 70
     0
 10
0.0
 20
0.0
 30
0.0
  3
*Model_Space
  1

  0
ENDBLK
  5
21
330
1F
100
AcDbEntity
  8
0
100
AcDbBlockEnd
  0
BLOCK
  5
57
330
55
100
AcDbEntity
 67
     1
  8
0
100
AcDbBlockBegin
  2
*Paper_Space
 70
     0
 10
0.0
 20
0.0
 30
0.0
  3
*Paper_Space
  1

  0
ENDBLK
  5
58
330
55
100
AcDbEntity
 67
     1
  8
0
100
AcDbBlockEnd
  0
BLOCK
  5
52
330
50
100
AcDbEntity
 67
     1
  8
0
100
AcDbBlockBegin
  2
*Paper_Space0
 70
     0
 10
0.0
 20
0.0
 30
0.0
  3
*Paper_Space0
  1

  0
VIEWPORT
  5
6B
330
50
100
AcDbEntity
 67
     1
  8
0
100
AcDbViewport
 10
133.3499908447266
 20
101.5999970436096
 30
0.0
 40
381.3957395593835
 41
218.2856291881582
 68
     0
 69
     0
 12
133.3499908447266
 22
101.5999970436096
 13
0.0
 23
0.0
 14
10.0
 24
10.0
 15
10.0
 25
10.0
 16
0.0
 26
0.0
 36
1.0
 17
0.0
 27
0.0
 37
0.0
 42
50.0
 43
0.0
 44
0.0
 45
218.2856291881582
 50
0.0
 51
0.0
 72
   100
 90
    32800
  1

281
     0
 71
     1
 74
     0
110
0.0
120
0.0
130
0.0
111
1.0
121
0.0
131
0.0
112
0.0
122
1.0
132
0.0
 79
     0
146
0.0
170
     0
 61
     5
348
36C
292
     1
282
     1
141
0.0
142
0.0
 63
   250
421
  3355443
  0
VIEWPORT
  5
6D
330
50
100
AcDbEntity
 67
     1
  8
0
100
AcDbViewport
 10
133.3499939441681
 20
101.5999939441681
 30
0.0
 40
213.3599903106689
 41
162.5599903106689
 68
     0
 69
     0
 12
210.0
 22
148.5
 13
0.0
 23
0.0
 14
10.0
 24
10.0
 15
10.0
 25
10.0
 16
0.0
 26
0.0
 36
1.0
 17
0.0
 27
0.0
 37
0.0
 42
50.0
 43
0.0
 44
0.0
 45
324.0677920111345
 50
0.0
 51
0.0
 72
   100
 90
    32864
  1

281
     0
 71
     1
 74
     0
110
0.0
120
0.0
130
0.0
111
1.0
121
0.0
131
0.0
112
0.0
122
1.0
132
0.0
 79
     0
146
0.0
170
     0
 61
     5
348
36C
292
     1
282
     1
141
0.0
142
0.0
 63
   250
421
  3355443
  0
ENDBLK
  5
53
330
50
100
AcDbEntity
 67
     1
  8
0
100
AcDbBlockEnd
  0
ENDSEC
  0
SECTION
  2
ENTITIES
  0
LINE
  5
1EF
330
1F
100
AcDbEntity
  8
1
100
AcDbLine
 10
0.0000000000000284
 20
29.5
 30
0.0
 11
0.0000000000000284
 21
-63.55756000376323
 31
0.0
  0
LINE
  5
1F0
330
1F
100
AcDbEntity
  8
2
100
AcDbLine
 10
-37.99999999999997
 20
0.27349853515625
 30
0.0
 11
-37.99999999999997
 21
-59.27349853515625
 31
0.0
  0
LINE
  5
1F1
330
1F
100
AcDbEntity
  8
2
100
AcDbLine
 10
54.49998474121096
 20
0.27349853515625
 30
0.0
 11
54.49998474121096
 21
-59.27349853515625
 31
0.0
  0
LINE
  5
1F2
330
1F
100
AcDbEntity
  8
2
100
AcDbLine
 10
50.99998474121097
 20
0.0
 30
0.0
 11
50.99998474121097
 21
-59.0
 31
0.0
  0
LINE
  5
1F3
330
1F
100
AcDbEntity
  8
2
100
AcDbLine
 10
54.49998474121096
 20
0.0
 30
0.0
 11
-37.99999999999997
 21
0.0
 31
0.0
  0
LINE
  5
1F4
330
1F
100
AcDbEntity
  8
2
100
AcDbLine
 10
-34.49999999999997
 20
0.0
 30
0.0
 11
-34.49999999999997
 21
-59.0
 31
0.0
  0
LINE
  5
1F5
330
1F
100
AcDbEntity
  8
2
100
AcDbLine
 10
-42.19573974609372
 20
-11.72650146484375
 30
0.0
 11
-39.70428466796872
 21
-11.72650146484375
 31
0.0
  0
LINE
  5
1F6
330
1F
100
AcDbEntity
  8
2
100
AcDbLine
 10
-42.19567871093746
 20
-14.61325073242187
 30
0.0
 11
-39.70434570312497
 21
-14.61325073242187
 31
0.0
  0
LINE
  5
1F7
330
1F
100
AcDbEntity
  8
2
100
AcDbLine
 10
-42.70001220703122
 20
-21.83013916015625
 30
0.0
 11
-42.70001220703122
 21
-13.16989135742187
 31
0.0
  0
LINE
  5
1F8
330
1F
100
AcDbEntity
  8
2
100
AcDbLine
 10
-42.19577026367185
 20
-20.38677978515625
 30
0.0
 11
-39.70434570312497
 21
-20.38677978515625
 31
0.0
  0
LINE
  5
1F9
330
1F
100
AcDbEntity
  8
2
100
AcDbLine
 10
48.99998474121097
 20
-20.0
 30
0.0
 11
-32.49999999999997
 21
-20.0
 31
0.0
  0
LINE
  5
1FA
330
1F
100
AcDbEntity
  8
2
100
AcDbLine
 10
48.99998474121097
 20
-39.0
 30
0.0
 11
-32.49999999999997
 21
-39.0
 31
0.0
  0
LINE
  5
1FB
330
1F
100
AcDbEntity
  8
2
100
AcDbLine
 10
-42.49999999999997
 20
-9.830123901367187
 30
0.0
 11
-42.49999999999997
 21
-1.169876098632812
 31
0.0
  0
LINE
  5
1FC
330
1F
100
AcDbEntity
  8
2
100
AcDbLine
 10
-41.99566650390622
 20
-11.27349853515625
 30
0.0
 11
-37.99999999999997
 21
-11.27349853515625
 31
0.0
  0
LINE
  5
1FD
330
1F
100
AcDbEntity
  8
2
100
AcDbLine
 10
-41.99566650390622
 20
0.27349853515625
 30
0.0
 11
-37.99999999999997
 21
0.27349853515625
 31
0.0
  0
LINE
  5
1FE
330
1F
100
AcDbEntity
  8
2
100
AcDbLine
 10
-41.99566650390622
 20
-2.613250732421875
 30
0.0
 11
-38.49999999999997
 21
-2.613250732421875
 31
0.0
  0
LINE
  5
1FF
330
1F
100
AcDbEntity
  8
2
100
AcDbLine
 10
-38.49999999999997
 20
0.27349853515625
 30
0.0
 11
-38.49999999999997
 21
-11.27349853515625
 31
0.0
  0
LINE
  5
200
330
1F
100
AcDbEntity
  8
2
100
AcDbLine
 10
58.99998474121097
 20
-9.830123901367187
 30
0.0
 11
58.99998474121097
 21
-1.169876098632812
 31
0.0
  0
LINE
  5
201
330
1F
100
AcDbEntity
  8
2
100
AcDbLine
 10
-41.99566650390622
 20
-8.386749267578125
 30
0.0
 11
-38.49999999999997
 21
-8.386749267578125
 31
0.0
  0
LINE
  5
202
330
1F
100
AcDbEntity
  8
2
100
AcDbLine
 10
58.49565124511721
 20
-11.27349853515625
 30
0.0
 11
54.49998474121096
 21
-11.27349853515625
 31
0.0
  0
LINE
  5
203
330
1F
100
AcDbEntity
  8
2
100
AcDbLine
 10
58.49565124511721
 20
-8.386749267578125
 30
0.0
 11
54.99998474121096
 21
-8.386749267578125
 31
0.0
  0
LINE
  5
204
330
1F
100
AcDbEntity
  8
2
100
AcDbLine
 10
58.49565124511721
 20
-2.613250732421875
 30
0.0
 11
54.99998474121096
 21
-2.613250732421875
 31
0.0
  0
LINE
  5
205
330
1F
100
AcDbEntity
  8
2
100
AcDbLine
 10
-42.19567871093746
 20
-23.27352905273437
 30
0.0
 11
-39.70434570312497
 21
-23.27352905273437
 31
0.0
  0
LINE
  5
206
330
1F
100
AcDbEntity
  8
2
100
AcDbLine
 10
54.99998474121096
 20
0.27349853515625
 30
0.0
 11
54.99998474121096
 21
-11.27349853515625
 31
0.0
  0
LINE
  5
207
330
1F
100
AcDbEntity
  8
2
100
AcDbLine
 10
58.49565124511721
 20
0.27349853515625
 30
0.0
 11
54.49998474121096
 21
0.27349853515625
 31
0.0
  0
LINE
  5
208
330
1F
100
AcDbEntity
  8
2
100
AcDbLine
 10
58.49565124511721
 20
-47.72650146484375
 30
0.0
 11
54.49998474121096
 21
-47.72650146484375
 31
0.0
  0
LINE
  5
209
330
1F
100
AcDbEntity
  8
2
100
AcDbLine
 10
58.49565124511721
 20
-59.27349853515625
 30
0.0
 11
54.49998474121096
 21
-59.27349853515625
 31
0.0
  0
LINE
  5
20A
330
1F
100
AcDbEntity
  8
2
100
AcDbLine
 10
58.49565124511721
 20
-50.61325073242187
 30
0.0
 11
54.99998474121096
 21
-50.61325073242187
 31
0.0
  0
LINE
  5
20B
330
1F
100
AcDbEntity
  8
2
100
AcDbLine
 10
58.99998474121097
 20
-49.16987609863281
 30
0.0
 11
58.99998474121097
 21
-57.83012390136718
 31
0.0
  0
LINE
  5
20C
330
1F
100
AcDbEntity
  8
2
100
AcDbLine
 10
54.49998474121096
 20
-59.0
 30
0.0
 11
-37.99999999999997
 21
-59.0
 31
0.0
  0
LINE
  5
20D
330
1F
100
AcDbEntity
  8
2
100
AcDbLine
 10
42.49998474121096
 20
-54.0
 30
0.0
 11
24.49998474121097
 21
-54.0
 31
0.0
  0
LINE
  5
20E
330
1F
100
AcDbEntity
  8
2
100
AcDbLine
 10
23.49998474121097
 20
-44.0
 30
0.0
 11
23.49998474121097
 21
-53.0
 31
0.0
  0
LINE
  5
20F
330
1F
100
AcDbEntity
  8
2
100
AcDbLine
 10
42.49998474121096
 20
-43.0
 30
0.0
 11
24.49998474121097
 21
-43.0
 31
0.0
  0
LINE
  5
210
330
1F
100
AcDbEntity
  8
1
100
AcDbLine
 10
62.34989030461978
 20
201.7005550127267
 30
0.0
 11
-45.85010664362241
 21
201.7005550127267
 31
0.0
  0
LINE
  5
211
330
1F
100
AcDbEntity
  8
1
100
AcDbLine
 10
-0.0001005401067857
 20
161.7005550127267
 30
0.0
 11
-0.0001005401067857
 21
240.4723140459299
 31
0.0
  0
LINE
  5
212
330
1F
100
AcDbEntity
  8
2
100
AcDbLine
 10
43.49998474121096
 20
-44.0
 30
0.0
 11
43.49998474121096
 21
-53.0
 31
0.0
  0
LINE
  5
213
330
1F
100
AcDbEntity
  8
2
100
AcDbLine
 10
-48.99999999999997
 20
-20.0137939453125
 30
0.0
 11
-42.70001220703122
 21
-20.0137939453125
 31
0.0
  0
LINE
  5
214
330
1F
100
AcDbEntity
  8
2
100
AcDbLine
 10
-48.99999999999997
 20
-15.09678649902344
 30
0.0
 11
-42.70001220703122
 21
-15.09678649902344
 31
0.0
  0
LINE
  5
215
330
1F
100
AcDbEntity
  8
2
100
AcDbLine
 10
58.69566345214846
 20
-23.27352905273437
 30
0.0
 11
56.20433044433596
 21
-23.27352905273437
 31
0.0
  0
LINE
  5
216
330
1F
100
AcDbEntity
  8
2
100
AcDbLine
 10
65.49998474121096
 20
-20.5
 30
0.0
 11
65.49998474121096
 21
-14.5
 31
0.0
  0
LINE
  5
217
330
1F
100
AcDbEntity
  8
2
100
AcDbLine
 10
55.69999694824222
 20
-23.80528259277344
 30
0.0
 11
55.69999694824222
 21
-11.30528259277344
 31
0.0
  0
LINE
  5
218
330
1F
100
AcDbEntity
  8
2
100
AcDbLine
 10
65.49998474121096
 20
-14.5
 30
0.0
 11
59.19999694824221
 21
-14.5
 31
0.0
  0
LINE
  5
219
330
1F
100
AcDbEntity
  8
2
100
AcDbLine
 10
65.49998474121096
 20
-20.5
 30
0.0
 11
59.19999694824221
 21
-20.5
 31
0.0
  0
LINE
  5
21A
330
1F
100
AcDbEntity
  8
2
100
AcDbLine
 10
58.49565124511721
 20
-56.38674926757812
 30
0.0
 11
54.99998474121096
 21
-56.38674926757812
 31
0.0
  0
LINE
  5
21B
330
1F
100
AcDbEntity
  8
2
100
AcDbLine
 10
-42.49999999999997
 20
-49.16987609863281
 30
0.0
 11
-42.49999999999997
 21
-57.83012390136718
 31
0.0
  0
LINE
  5
21C
330
1F
100
AcDbEntity
  8
2
100
AcDbLine
 10
-41.99566650390622
 20
-47.72650146484375
 30
0.0
 11
-37.99999999999997
 21
-47.72650146484375
 31
0.0
  0
LINE
  5
21D
330
1F
100
AcDbEntity
  8
2
100
AcDbLine
 10
-41.99566650390622
 20
-59.27349853515625
 30
0.0
 11
-37.99999999999997
 21
-59.27349853515625
 31
0.0
  0
LINE
  5
21E
330
1F
100
AcDbEntity
  8
2
100
AcDbLine
 10
54.99998474121096
 20
-59.27349853515625
 30
0.0
 11
54.99998474121096
 21
-47.72650146484375
 31
0.0
  0
LINE
  5
21F
330
1F
100
AcDbEntity
  8
2
100
AcDbLine
 10
-48.99999999999997
 20
-20.5
 30
0.0
 11
-42.70001220703122
 21
-20.5
 31
0.0
  0
LINE
  5
220
330
1F
100
AcDbEntity
  8
2
100
AcDbLine
 10
-48.99999999999997
 20
-14.5
 30
0.0
 11
-42.70001220703122
 21
-14.5
 31
0.0
  0
LINE
  5
221
330
1F
100
AcDbEntity
  8
2
100
AcDbLine
 10
-39.20001220703122
 20
-23.80528259277344
 30
0.0
 11
-39.20001220703122
 21
-11.30528259277344
 31
0.0
  0
LINE
  5
222
330
1F
100
AcDbEntity
  8
2
100
AcDbLine
 10
-48.99999999999997
 20
-20.5
 30
0.0
 11
-48.99999999999997
 21
-14.5
 31
0.0
  0
LINE
  5
223
330
1F
100
AcDbEntity
  8
2
100
AcDbLine
 10
55.69999694824222
 20
-11.30528259277344
 30
0.0
 11
54.49998474121096
 21
-11.30528259277344
 31
0.0
  0
LINE
  5
224
330
1F
100
AcDbEntity
  8
2
100
AcDbLine
 10
58.69573974609378
 20
-20.38677978515625
 30
0.0
 11
56.20433044433596
 21
-20.38677978515625
 31
0.0
  0
LINE
  5
225
330
1F
100
AcDbEntity
  8
2
100
AcDbLine
 10
59.19999694824221
 20
-21.83013916015625
 30
0.0
 11
59.19999694824221
 21
-13.16989135742187
 31
0.0
  0
LINE
  5
226
330
1F
100
AcDbEntity
  8
2
100
AcDbLine
 10
58.69566345214846
 20
-14.61325073242187
 30
0.0
 11
56.20433044433596
 21
-14.61325073242187
 31
0.0
  0
LINE
  5
227
330
1F
100
AcDbEntity
  8
2
100
AcDbLine
 10
55.69999694824222
 20
-23.80528259277344
 30
0.0
 11
54.49998474121096
 21
-23.80528259277344
 31
0.0
  0
LINE
  5
228
330
1F
100
AcDbEntity
  8
2
100
AcDbLine
 10
58.69572448730472
 20
-11.72650146484375
 30
0.0
 11
56.20426940917972
 21
-11.72650146484375
 31
0.0
  0
LINE
  5
229
330
1F
100
AcDbEntity
  8
2
100
AcDbLine
 10
65.49998474121096
 20
-15.09678649902344
 30
0.0
 11
59.19999694824221
 21
-15.09678649902344
 31
0.0
  0
LINE
  5
22A
330
1F
100
AcDbEntity
  8
2
100
AcDbLine
 10
65.49998474121096
 20
-20.0137939453125
 30
0.0
 11
59.19999694824221
 21
-20.0137939453125
 31
0.0
  0
LINE
  5
22B
330
1F
100
AcDbEntity
  8
2
100
AcDbLine
 10
-39.20001220703122
 20
-11.30528259277344
 30
0.0
 11
-37.99999999999997
 21
-11.30528259277344
 31
0.0
  0
LINE
  5
22C
330
1F
100
AcDbEntity
  8
2
100
AcDbLine
 10
-39.20001220703122
 20
-23.80528259277344
 30
0.0
 11
-37.99999999999997
 21
-23.80528259277344
 31
0.0
  0
LINE
  5
22D
330
1F
100
AcDbEntity
  8
2
100
AcDbLine
 10
-38.49999999999997
 20
-59.27349853515625
 30
0.0
 11
-38.49999999999997
 21
-47.72650146484375
 31
0.0
  0
LINE
  5
22E
330
1F
100
AcDbEntity
  8
2
100
AcDbLine
 10
-41.99566650390622
 20
-56.38674926757812
 30
0.0
 11
-38.49999999999997
 21
-56.38674926757812
 31
0.0
  0
LINE
  5
22F
330
1F
100
AcDbEntity
  8
2
100
AcDbLine
 10
-41.99566650390622
 20
-50.61325073242187
 30
0.0
 11
-38.49999999999997
 21
-50.61325073242187
 31
0.0
  0
LINE
  5
230
330
1F
100
AcDbEntity
  8
0
100
AcDbLine
 10
-31.00008528131772
 20
189.7005550127267
 30
0.0
 11
-0.0001005401067857
 21
189.7005550127267
 31
0.0
  0
LINE
  5
231
330
1F
100
AcDbEntity
  8
2
100
AcDbLine
 10
54.49988420110415
 20
227.2005550127267
 30
0.0
 11
11.99989945989321
 21
227.200555012727
 31
0.0
  0
LINE
  5
232
330
1F
100
AcDbEntity
  8
2
100
AcDbLine
 10
9.999899459893214
 20
227.2005550127267
 30
0.0
 11
-38.00010054010679
 21
227.2005550127267
 31
0.0
  0
LINE
  5
233
330
1F
100
AcDbEntity
  8
2
100
AcDbLine
 10
54.49988420110415
 20
176.2005550127267
 30
0.0
 11
36.99989945989325
 21
176.2005550127267
 31
0.0
  0
LINE
  5
234
330
1F
100
AcDbEntity
  8
2
100
AcDbLine
 10
12.16806057219568
 20
176.2005550127267
 30
0.0
 11
-12.16826765745489
 21
176.2005550127267
 31
0.0
  0
LINE
  5
235
330
1F
100
AcDbEntity
  8
2
100
AcDbLine
 10
54.49988420110415
 20
174.7005550127267
 30
0.0
 11
36.99989945989325
 21
174.7005550127267
 31
0.0
  0
LINE
  5
236
330
1F
100
AcDbEntity
  8
2
100
AcDbLine
 10
12.71401594314474
 20
174.7005550127267
 30
0.0
 11
-12.71422302840398
 21
174.7005550127269
 31
0.0
  0
LINE
  5
237
330
1F
100
AcDbEntity
  8
0
100
AcDbLine
 10
-37.00010054010679
 20
174.7005550127269
 30
0.0
 11
-38.00010054010679
 21
174.7005550127267
 31
0.0
  0
LINE
  5
238
330
1F
100
AcDbEntity
  8
2
100
AcDbLine
 10
54.49988420110415
 20
228.7005550127267
 30
0.0
 11
54.49988420110415
 21
174.7005550127267
 31
0.0
  0
LINE
  5
239
330
1F
100
AcDbEntity
  8
2
100
AcDbLine
 10
-34.50010054010679
 20
228.7005550127267
 30
0.0
 11
-34.50010054010679
 21
186.2567524219801
 31
0.0
  0
LINE
  5
23A
330
1F
100
AcDbEntity
  8
2
100
AcDbLine
 10
50.99988420110415
 20
228.7005550127267
 30
0.0
 11
50.99988420110415
 21
174.7005550127267
 31
0.0
  0
LINE
  5
23B
330
1F
100
AcDbEntity
  8
2
100
AcDbLine
 10
-38.00010054010679
 20
228.7005550127267
 30
0.0
 11
-38.00010054010679
 21
174.7005550127267
 31
0.0
  0
LINE
  5
23C
330
1F
100
AcDbEntity
  8
2
100
AcDbLine
 10
-38.50010054010679
 20
187.474053547883
 30
0.0
 11
-38.00010054010679
 21
187.474053547883
 31
0.0
  0
LINE
  5
23D
330
1F
100
AcDbEntity
  8
2
100
AcDbLine
 10
-38.50010054010679
 20
175.9270564775705
 30
0.0
 11
-38.00010054010679
 21
175.9270564775705
 31
0.0
  0
LINE
  5
23E
330
1F
100
AcDbEntity
  8
2
100
AcDbLine
 10
-38.50010054010679
 20
181.7005550127267
 30
0.0
 11
-41.99580409697296
 21
181.7005550127267
 31
0.0
  0
LINE
  5
23F
330
1F
100
AcDbEntity
  8
2
100
AcDbLine
 10
-39.70443853569495
 20
213.7005550127268
 30
0.0
 11
-42.19578666551837
 21
213.7005550127268
 31
0.0
  0
LINE
  5
240
330
1F
100
AcDbEntity
  8
2
100
AcDbLine
 10
-38.50010054010679
 20
221.7005550127268
 30
0.0
 11
-41.99580409697296
 21
221.7005550127268
 31
0.0
  0
LINE
  5
241
330
1F
100
AcDbEntity
  8
2
100
AcDbLine
 10
-38.50010054010679
 20
187.474053547883
 30
0.0
 11
-38.50010054010679
 21
175.9270564775705
 31
0.0
  0
LINE
  5
242
330
1F
100
AcDbEntity
  8
2
100
AcDbLine
 10
-38.50010054010679
 20
227.474053547883
 30
0.0
 11
-38.00010054010679
 21
227.474053547883
 31
0.0
  0
LINE
  5
243
330
1F
100
AcDbEntity
  8
2
100
AcDbLine
 10
-38.50010054010679
 20
215.9270564775705
 30
0.0
 11
-38.00010054010679
 21
215.9270564775705
 31
0.0
  0
LINE
  5
244
330
1F
100
AcDbEntity
  8
2
100
AcDbLine
 10
-38.50010054010679
 20
227.474053547883
 30
0.0
 11
-38.50010054010679
 21
215.9270564775705
 31
0.0
  0
LINE
  5
245
330
1F
100
AcDbEntity
  8
2
100
AcDbLine
 10
55.6998964081354
 20
207.3952876787424
 30
0.0
 11
54.49988420110415
 21
207.3952876787424
 31
0.0
  0
LINE
  5
246
330
1F
100
AcDbEntity
  8
2
100
AcDbLine
 10
58.69557817083071
 20
208.7005550127267
 30
0.0
 11
56.20419938665103
 21
208.7005550127267
 31
0.0
  0
LINE
  5
247
330
1F
100
AcDbEntity
  8
2
100
AcDbLine
 10
59.1998964081354
 20
211.2005550127267
 30
0.0
 11
59.1998964081354
 21
216.2005550127267
 31
0.0
  0
LINE
  5
248
330
1F
100
AcDbEntity
  8
2
100
AcDbLine
 10
65.49988420110415
 20
210.7005550127267
 30
0.0
 11
59.1998964081354
 21
210.7005550127267
 31
0.0
  0
LINE
  5
249
330
1F
100
AcDbEntity
  8
2
100
AcDbLine
 10
65.49988420110415
 20
216.7005550127267
 30
0.0
 11
59.1998964081354
 21
216.7005550127267
 31
0.0
  0
LINE
  5
24A
330
1F
100
AcDbEntity
  8
2
100
AcDbLine
 10
65.49988420110415
 20
210.7005550127267
 30
0.0
 11
65.49988420110415
 21
216.7005550127267
 31
0.0
  0
LINE
  5
24B
330
1F
100
AcDbEntity
  8
2
100
AcDbLine
 10
65.49988420110415
 20
216.1037837724923
 30
0.0
 11
59.1998964081354
 21
216.1037837724923
 31
0.0
  0
LINE
  5
24C
330
1F
100
AcDbEntity
  8
2
100
AcDbLine
 10
65.49988420110415
 20
211.1867915849924
 30
0.0
 11
59.1998964081354
 21
211.1867915849924
 31
0.0
  0
LINE
  5
24D
330
1F
100
AcDbEntity
  8
2
100
AcDbLine
 10
-41.99579756159116
 20
216.7005550127267
 30
0.0
 11
-38.50010054010679
 21
216.7005550127267
 31
0.0
  0
LINE
  5
24E
330
1F
100
AcDbEntity
  8
2
100
AcDbLine
 10
58.49556596379946
 20
186.7005550127267
 30
0.0
 11
54.99988420110415
 21
186.7005550127267
 31
0.0
  0
LINE
  5
24F
330
1F
100
AcDbEntity
  8
2
100
AcDbLine
 10
-42.50010054010679
 20
219.2005550127267
 30
0.0
 11
-42.50010054010679
 21
224.2005550127267
 31
0.0
  0
LINE
  5
250
330
1F
100
AcDbEntity
  8
2
100
AcDbLine
 10
-41.99579756159116
 20
226.7005550127267
 30
0.0
 11
-38.50010054010679
 21
226.7005550127267
 31
0.0
  0
LINE
  5
251
330
1F
100
AcDbEntity
  8
2
100
AcDbLine
 10
-39.20011274713804
 20
207.3952876787424
 30
0.0
 11
-39.20011274713804
 21
216.2005550127267
 31
0.0
  0
LINE
  5
252
330
1F
100
AcDbEntity
  8
2
100
AcDbLine
 10
-41.99579756159116
 20
176.7005550127267
 30
0.0
 11
-38.50010054010679
 21
176.7005550127267
 31
0.0
  0
LINE
  5
253
330
1F
100
AcDbEntity
  8
2
100
AcDbLine
 10
-42.50010054010679
 20
179.2005550127267
 30
0.0
 11
-42.50010054010679
 21
184.2005550127267
 31
0.0
  0
LINE
  5
254
330
1F
100
AcDbEntity
  8
2
100
AcDbLine
 10
-41.99579756159116
 20
186.7005550127267
 30
0.0
 11
-38.50010054010679
 21
186.7005550127267
 31
0.0
  0
LINE
  5
255
330
1F
100
AcDbEntity
  8
2
100
AcDbLine
 10
-39.20011274713804
 20
207.3952876787424
 30
0.0
 11
-38.00010054010679
 21
207.3952876787424
 31
0.0
  0
LINE
  5
256
330
1F
100
AcDbEntity
  8
2
100
AcDbLine
 10
58.99988420110415
 20
179.2005550127267
 30
0.0
 11
58.99988420110415
 21
184.2005550127267
 31
0.0
  0
LINE
  5
257
330
1F
100
AcDbEntity
  8
2
100
AcDbLine
 10
58.49556596379946
 20
176.7005550127267
 30
0.0
 11
54.99988420110415
 21
176.7005550127267
 31
0.0
  0
LINE
  5
258
330
1F
100
AcDbEntity
  8
2
100
AcDbLine
 10
55.6998964081354
 20
207.3952876787424
 30
0.0
 11
55.6998964081354
 21
216.2005550127267
 31
0.0
  0
LINE
  5
259
330
1F
100
AcDbEntity
  8
2
100
AcDbLine
 10
54.99988420110415
 20
227.474053547883
 30
0.0
 11
54.49988420110415
 21
227.474053547883
 31
0.0
  0
LINE
  5
25A
330
1F
100
AcDbEntity
  8
2
100
AcDbLine
 10
58.49556596379946
 20
226.7005550127267
 30
0.0
 11
54.99988420110415
 21
226.7005550127267
 31
0.0
  0
LINE
  5
25B
330
1F
100
AcDbEntity
  8
2
100
AcDbLine
 10
58.99988420110415
 20
219.2005550127267
 30
0.0
 11
58.99988420110415
 21
224.2005550127267
 31
0.0
  0
LINE
  5
25C
330
1F
100
AcDbEntity
  8
2
100
AcDbLine
 10
58.49556596379946
 20
216.7005550127267
 30
0.0
 11
54.99988420110415
 21
216.7005550127267
 31
0.0
  0
LINE
  5
25D
330
1F
100
AcDbEntity
  8
2
100
AcDbLine
 10
54.99988420110415
 20
227.474053547883
 30
0.0
 11
54.99988420110415
 21
215.9270564775705
 31
0.0
  0
LINE
  5
25E
330
1F
100
AcDbEntity
  8
2
100
AcDbLine
 10
54.99988420110415
 20
215.9270564775705
 30
0.0
 11
54.49988420110415
 21
215.9270564775705
 31
0.0
  0
LINE
  5
25F
330
1F
100
AcDbEntity
  8
2
100
AcDbLine
 10
54.99988420110415
 20
221.7005550127268
 30
0.0
 11
58.49557249422085
 21
221.7005550127268
 31
0.0
  0
LINE
  5
260
330
1F
100
AcDbEntity
  8
2
100
AcDbLine
 10
-49.00010054010678
 20
211.1867915849924
 30
0.0
 11
-42.70011274713803
 21
211.1867915849924
 31
0.0
  0
LINE
  5
261
330
1F
100
AcDbEntity
  8
2
100
AcDbLine
 10
-49.00010054010678
 20
216.1037837724923
 30
0.0
 11
-42.70011274713803
 21
216.1037837724923
 31
0.0
  0
LINE
  5
262
330
1F
100
AcDbEntity
  8
2
100
AcDbLine
 10
-49.00010054010678
 20
210.7005550127267
 30
0.0
 11
-49.00010054010678
 21
216.7005550127267
 31
0.0
  0
LINE
  5
263
330
1F
100
AcDbEntity
  8
2
100
AcDbLine
 10
-49.00010054010678
 20
216.7005550127267
 30
0.0
 11
-42.70011274713803
 21
216.7005550127267
 31
0.0
  0
LINE
  5
264
330
1F
100
AcDbEntity
  8
2
100
AcDbLine
 10
-49.00010054010678
 20
210.7005550127267
 30
0.0
 11
-42.70011274713803
 21
210.7005550127267
 31
0.0
  0
LINE
  5
265
330
1F
100
AcDbEntity
  8
2
100
AcDbLine
 10
56.20420679385211
 20
213.7005550127268
 30
0.0
 11
58.69557047056694
 21
213.7005550127268
 31
0.0
  0
LINE
  5
266
330
1F
100
AcDbEntity
  8
2
100
AcDbLine
 10
-42.70011274713803
 20
211.2005550127267
 30
0.0
 11
-42.70011274713803
 21
216.2005550127267
 31
0.0
  0
LINE
  5
267
330
1F
100
AcDbEntity
  8
2
100
AcDbLine
 10
-42.19577925104428
 20
208.7005550127267
 30
0.0
 11
-39.70441572565366
 21
208.7005550127267
 31
0.0
  0
LINE
  5
268
330
1F
100
AcDbEntity
  8
2
100
AcDbLine
 10
54.99988420110415
 20
187.474053547883
 30
0.0
 11
54.99988420110415
 21
175.9270564775705
 31
0.0
  0
LINE
  5
269
330
1F
100
AcDbEntity
  8
2
100
AcDbLine
 10
54.99988420110415
 20
175.9270564775705
 30
0.0
 11
54.49988420110415
 21
175.9270564775705
 31
0.0
  0
LINE
  5
26A
330
1F
100
AcDbEntity
  8
2
100
AcDbLine
 10
54.99988420110415
 20
187.474053547883
 30
0.0
 11
54.49988420110415
 21
187.474053547883
 31
0.0
  0
LINE
  5
26B
330
1F
100
AcDbEntity
  8
2
100
AcDbLine
 10
54.99988420110415
 20
181.7005550127267
 30
0.0
 11
58.49557264323241
 21
181.7005550127267
 31
0.0
  0
LINE
  5
26C
330
1F
100
AcDbEntity
  8
2
100
AcDbLine
 10
54.49988420110415
 20
228.7005550127267
 30
0.0
 11
11.99989945989321
 21
228.700555012727
 31
0.0
  0
LINE
  5
26D
330
1F
100
AcDbEntity
  8
2
100
AcDbLine
 10
9.999899459893214
 20
228.7005550127267
 30
0.0
 11
-38.00010054010679
 21
228.7005550127267
 31
0.0
  0
LINE
  5
26E
330
1F
100
AcDbEntity
  8
0
100
AcDbLine
 10
11.99989945989321
 20
232.7005550127267
 30
0.0
 11
11.99989945989321
 21
201.7005550127267
 31
0.0
  0
LINE
  5
26F
330
1F
100
AcDbEntity
  8
0
100
AcDbLine
 10
9.999899459893214
 20
233.7005550127267
 30
0.0
 11
10.99989945989321
 21
233.7005550127267
 31
0.0
  0
LINE
  5
270
330
1F
100
AcDbEntity
  8
0
100
AcDbLine
 10
-0.0001005401067857
 20
213.7005550127268
 30
0.0
 11
7.999899459893214
 21
213.7005550127268
 31
0.0
  0
LINE
  5
271
330
1F
100
AcDbEntity
  8
0
100
AcDbLine
 10
9.999899459893214
 20
233.7005550127267
 30
0.0
 11
9.999899459893214
 21
215.7005550127268
 31
0.0
  0
LINE
  5
272
330
1F
100
AcDbEntity
  8
0
100
AcDbLine
 10
-12.00008528131772
 20
201.7005550127267
 30
0.0
 11
-12.00008528131772
 21
193.7005550127267
 31
0.0
  0
LINE
  5
273
330
1F
100
AcDbEntity
  8
0
100
AcDbLine
 10
-32.00008528131772
 20
191.7005550127267
 30
0.0
 11
-32.00008528131772
 21
190.7005550127267
 31
0.0
  0
LINE
  5
274
330
1F
100
AcDbEntity
  8
0
100
AcDbLine
 10
-32.00008528131772
 20
191.7005550127267
 30
0.0
 11
-14.00008528131772
 21
191.7005550127267
 31
0.0
  0
LINE
  5
275
330
1F
100
AcDbEntity
  8
0
100
AcDbLine
 10
3.999818762543924
 20
200.4504475807737
 30
0.0
 11
-4.000181237191412
 21
200.4505126474435
 31
0.0
  0
LINE
  5
276
330
1F
100
AcDbEntity
  8
0
100
AcDbLine
 10
3.999847024682964
 20
199.9684339100034
 30
0.0
 11
6.999869579300906
 21
201.7004650775714
 31
0.0
  0
LINE
  5
277
330
1F
100
AcDbEntity
  8
0
100
AcDbLine
 10
3.999814842320773
 20
199.9684529518834
 30
0.0
 11
3.999818762543924
 21
200.4504475807737
 31
0.0
  0
LINE
  5
278
330
1F
100
AcDbEntity
  8
0
100
AcDbLine
 10
3.999839096126464
 20
202.9504780982691
 30
0.0
 11
-4.000160903608929
 21
202.9505431649389
 31
0.0
  0
LINE
  5
279
330
1F
100
AcDbEntity
  8
0
100
AcDbLine
 10
-7.000134158588565
 20
201.7005672034307
 30
0.0
 11
-4.000116695353341
 21
199.968473811565
 31
0.0
  0
LINE
  5
27A
330
1F
100
AcDbEntity
  8
0
100
AcDbLine
 10
3.999920765424036
 20
203.4325050460178
 30
0.0
 11
6.999918407003832
 21
201.7004230984049
 31
0.0
  0
LINE
  5
27B
330
1F
100
AcDbEntity
  8
0
100
AcDbLine
 10
3.999839096126464
 20
202.9504780982691
 30
0.0
 11
3.999843016846028
 21
203.4325337623157
 31
0.0
  0
LINE
  5
27C
330
1F
100
AcDbEntity
  8
0
100
AcDbLine
 10
-4.000160903608929
 20
202.9505431649389
 30
0.0
 11
-4.000156982889365
 21
203.4325988289855
 31
0.0
  0
LINE
  5
27D
330
1F
100
AcDbEntity
  8
0
100
AcDbLine
 10
-7.000085073428266
 20
201.7005956377894
 30
0.0
 11
-4.000062615131326
 21
203.4326269721935
 31
0.0
  0
LINE
  5
27E
330
1F
100
AcDbEntity
  8
0
100
AcDbLine
 10
-4.00018515741462
 20
199.9685180185532
 30
0.0
 11
-4.000181237191412
 21
200.4505126474435
 31
0.0
  0
LINE
  5
27F
330
1F
100
AcDbEntity
  8
0
100
AcDbLine
 10
9.999899459893214
 20
217.7005550127268
 30
0.0
 11
11.99989945989321
 21
217.7005550127268
 31
0.0
  0
LINE
  5
280
330
1F
100
AcDbEntity
  8
0
100
AcDbLine
 10
-16.00008528131772
 20
191.7005550127267
 30
0.0
 11
-16.00008528131772
 21
189.7005550127267
 31
0.0
  0
ARC
  5
281
330
1F
100
AcDbEntity
  8
2
100
AcDbCircle
 10
-41.51763916015622
 20
-21.83010864257813
 30
0.0
 40
2.317657947540283
100
AcDbArc
 50
321.4810491379633
 51
38.51894403183342
  0
ARC
  5
282
330
1F
100
AcDbEntity
  8
2
100
AcDbCircle
 10
-47.71417236328121
 20
-17.5
 30
0.0
 40
8.514156341552734
100
AcDbArc
 50
340.1807939815961
 51
19.81919577312618
  0
ARC
  5
283
330
1F
100
AcDbEntity
  8
2
100
AcDbCircle
 10
-40.18231201171872
 20
-49.16987609863281
 30
0.0
 40
2.317657947540283
100
AcDbArc
 50
141.4810575620227
 51
218.5189387955188
  0
ARC
  5
284
330
1F
100
AcDbEntity
  8
2
100
AcDbCircle
 10
-33.98583984374997
 20
-53.5
 30
0.0
 40
8.514156341552734
100
AcDbArc
 50
160.1808041131974
 51
199.8191922443338
  0
ARC
  5
285
330
1F
100
AcDbEntity
  8
2
100
AcDbCircle
 10
-40.18231201171872
 20
-57.83012390136718
 30
0.0
 40
2.317657947540283
100
AcDbArc
 50
141.4810575620227
 51
218.5189387955188
  0
ARC
  5
286
330
1F
100
AcDbEntity
  8
2
100
AcDbCircle
 10
-40.38238525390622
 20
-21.83010864257813
 30
0.0
 40
2.317657947540283
100
AcDbArc
 50
141.4810575620227
 51
218.5189524558928
  0
ARC
  5
287
330
1F
100
AcDbEntity
  8
2
100
AcDbCircle
 10
56.68229675292971
 20
-49.16987609863281
 30
0.0
 40
2.317657947540283
100
AcDbArc
 50
321.4810627983536
 51
38.51894403183342
  0
ARC
  5
288
330
1F
100
AcDbEntity
  8
2
100
AcDbCircle
 10
50.48582458496096
 20
-53.5
 30
0.0
 40
8.514156341552734
100
AcDbArc
 50
340.1808076419753
 51
19.81919577312618
  0
ARC
  5
289
330
1F
100
AcDbEntity
  8
2
100
AcDbCircle
 10
56.68229675292971
 20
-57.83012390136718
 30
0.0
 40
2.317657947540283
100
AcDbArc
 50
321.4810627983536
 51
38.51894403183342
  0
ARC
  5
28A
330
1F
100
AcDbEntity
  8
2
100
AcDbCircle
 10
56.68229675292971
 20
-9.830123901367187
 30
0.0
 40
2.317657947540283
100
AcDbArc
 50
321.4810491379633
 51
38.51894403183342
  0
ARC
  5
28B
330
1F
100
AcDbEntity
  8
2
100
AcDbCircle
 10
50.48582458496096
 20
-5.5
 30
0.0
 40
8.514156341552734
100
AcDbArc
 50
340.1808076419753
 51
19.81919577312618
  0
ARC
  5
28C
330
1F
100
AcDbEntity
  8
2
100
AcDbCircle
 10
56.88236999511722
 20
-21.83010864257813
 30
0.0
 40
2.317657947540283
100
AcDbArc
 50
321.4810491379633
 51
38.51894403183342
  0
ARC
  5
28D
330
1F
100
AcDbEntity
  8
2
100
AcDbCircle
 10
50.68583679199221
 20
-17.5
 30
0.0
 40
8.514156341552734
100
AcDbArc
 50
340.1807939815961
 51
19.81919577312618
  0
ARC
  5
28E
330
1F
100
AcDbEntity
  8
2
100
AcDbCircle
 10
56.68229675292971
 20
-1.169876098632812
 30
0.0
 40
2.317657947540283
100
AcDbArc
 50
321.4810491379633
 51
38.51894403183342
  0
ARC
  5
28F
330
1F
100
AcDbEntity
  8
2
100
AcDbCircle
 10
-40.18231201171872
 20
-9.830123901367187
 30
0.0
 40
2.317657947540283
100
AcDbArc
 50
141.4810575620227
 51
218.5189524558928
  0
ARC
  5
290
330
1F
100
AcDbEntity
  8
2
100
AcDbCircle
 10
-33.98583984374997
 20
-5.5
 30
0.0
 40
8.514156341552734
100
AcDbArc
 50
160.1808041131974
 51
199.8192059047136
  0
ARC
  5
291
330
1F
100
AcDbEntity
  8
2
100
AcDbCircle
 10
-40.18231201171872
 20
-1.169876098632812
 30
0.0
 40
2.317657947540283
100
AcDbArc
 50
141.4810575620227
 51
218.5189524558928
  0
ARC
  5
292
330
1F
100
AcDbEntity
  8
2
100
AcDbCircle
 10
42.49998474121096
 20
-53.0
 30
0.0
 40
1.0
100
AcDbArc
 50
269.9999974955215
 51
0.0
  0
ARC
  5
293
330
1F
100
AcDbEntity
  8
2
100
AcDbCircle
 10
52.75122697454165
 20
211.2005550127267
 30
0.0
 40
6.448660373687744
100
AcDbArc
 50
337.189939521419
 51
22.81005706348739
  0
ARC
  5
294
330
1F
100
AcDbEntity
  8
2
100
AcDbCircle
 10
-41.51763916015622
 20
-13.16984558105469
 30
0.0
 40
2.317657947540283
100
AcDbArc
 50
321.4810491379633
 51
38.51894403183342
  0
ARC
  5
295
330
1F
100
AcDbEntity
  8
2
100
AcDbCircle
 10
52.75122697454165
 20
216.2005550127267
 30
0.0
 40
6.448660373687744
100
AcDbArc
 50
337.189939521419
 51
7.275611418994543
  0
ARC
  5
296
330
1F
100
AcDbEntity
  8
2
100
AcDbCircle
 10
-34.18585205078122
 20
-17.5
 30
0.0
 40
8.514156341552734
100
AcDbArc
 50
160.1808041131974
 51
199.8192059047136
  0
ARC
  5
297
330
1F
100
AcDbEntity
  8
2
100
AcDbCircle
 10
-40.38238525390622
 20
-13.16984558105469
 30
0.0
 40
2.317657947540283
100
AcDbArc
 50
141.4810575620227
 51
218.5189524558928
  0
ARC
  5
298
330
1F
100
AcDbEntity
  8
2
100
AcDbCircle
 10
58.01762390136722
 20
-13.16984558105469
 30
0.0
 40
2.317657947540283
100
AcDbArc
 50
141.4810575620227
 51
218.5189524558928
  0
ARC
  5
299
330
1F
100
AcDbEntity
  8
2
100
AcDbCircle
 10
58.01762390136722
 20
-21.83010864257813
 30
0.0
 40
2.317657947540283
100
AcDbArc
 50
141.4810575620227
 51
218.5189524558928
  0
ARC
  5
29A
330
1F
100
AcDbEntity
  8
2
100
AcDbCircle
 10
-36.05146162409116
 20
184.2005550127267
 30
0.0
 40
6.448659420013427
100
AcDbArc
 50
157.1899325775325
 51
202.8100637799906
  0
ARC
  5
29B
330
1F
100
AcDbEntity
  8
2
100
AcDbCircle
 10
64.21415710449221
 20
-17.5
 30
0.0
 40
8.514156341552734
100
AcDbArc
 50
160.1808041131974
 51
199.8192059047136
  0
ARC
  5
29C
330
1F
100
AcDbEntity
  8
2
100
AcDbCircle
 10
56.88236999511722
 20
-13.16984558105469
 30
0.0
 40
2.317657947540283
100
AcDbArc
 50
321.4810491379633
 51
38.51894403183342
  0
ARC
  5
29D
330
1F
100
AcDbEntity
  8
2
100
AcDbCircle
 10
24.49998474121097
 20
-44.0
 30
0.0
 40
1.0
100
AcDbArc
 50
90.00000250447845
 51
180.0000050089504
  0
ARC
  5
29E
330
1F
100
AcDbEntity
  8
2
100
AcDbCircle
 10
42.49998474121096
 20
-44.0
 30
0.0
 40
1.0
100
AcDbArc
 50
0.0
 51
90.00000250447845
  0
ARC
  5
29F
330
1F
100
AcDbEntity
  8
2
100
AcDbCircle
 10
24.49998474121097
 20
-53.0
 30
0.0
 40
1.0
100
AcDbArc
 50
179.9999949910495
 51
269.9999974955215
  0
ARC
  5
2A0
330
1F
100
AcDbEntity
  8
2
100
AcDbCircle
 10
-36.25144331354429
 20
211.2005550127267
 30
0.0
 40
6.448660373687744
100
AcDbArc
 50
157.1899462379221
 51
202.8100637799906
  0
ARC
  5
2A1
330
1F
100
AcDbEntity
  8
2
100
AcDbCircle
 10
62.14855058294009
 20
216.2005550127267
 30
0.0
 40
6.448660373687744
100
AcDbArc
 50
179.9999949910495
 51
202.8100537620778
  0
ARC
  5
2A2
330
1F
100
AcDbEntity
  8
2
100
AcDbCircle
 10
62.14855058294009
 20
211.2005550127267
 30
0.0
 40
6.448660373687744
100
AcDbArc
 50
157.1899325775325
 51
202.8100501196155
  0
ARC
  5
2A3
330
1F
100
AcDbEntity
  8
2
100
AcDbCircle
 10
-36.25144331354429
 20
216.2005550127267
 30
0.0
 40
6.448660373687744
100
AcDbArc
 50
172.7243918824138
 51
202.8100637799906
  0
ARC
  5
2A4
330
1F
100
AcDbEntity
  8
2
100
AcDbCircle
 10
-36.05146162409116
 20
219.2005550127267
 30
0.0
 40
6.448659420013427
100
AcDbArc
 50
157.1899325775325
 51
202.8100637799906
  0
ARC
  5
2A5
330
1F
100
AcDbEntity
  8
2
100
AcDbCircle
 10
-45.64878218073178
 20
216.2005550127267
 30
0.0
 40
6.448660373687744
100
AcDbArc
 50
337.1899429365126
 51
0.0
  0
ARC
  5
2A6
330
1F
100
AcDbEntity
  8
2
100
AcDbCircle
 10
-36.05146162409116
 20
224.2005550127267
 30
0.0
 40
6.448659420013427
100
AcDbArc
 50
157.1899325775325
 51
202.8100637799906
  0
ARC
  5
2A7
330
1F
100
AcDbEntity
  8
2
100
AcDbCircle
 10
-36.05146162409116
 20
179.2005550127267
 30
0.0
 40
6.448659420013427
100
AcDbArc
 50
157.1899325775325
 51
202.8100637799906
  0
ARC
  5
2A8
330
1F
100
AcDbEntity
  8
2
100
AcDbCircle
 10
52.55123002629947
 20
184.2005550127267
 30
0.0
 40
6.448659420013427
100
AcDbArc
 50
337.189939521419
 51
22.8100638936746
  0
ARC
  5
2A9
330
1F
100
AcDbEntity
  8
2
100
AcDbCircle
 10
52.55123002629947
 20
179.2005550127267
 30
0.0
 40
6.448659420013427
100
AcDbArc
 50
337.189939521419
 51
22.8100638936746
  0
ARC
  5
2AA
330
1F
100
AcDbEntity
  8
0
100
AcDbCircle
 10
-14.00008528131772
 20
193.7005550127267
 30
0.0
 40
2.0
100
AcDbArc
 50
269.9999993167538
 51
0.0000086514279086
  0
ARC
  5
2AB
330
1F
100
AcDbEntity
  8
2
100
AcDbCircle
 10
52.55123002629947
 20
224.2005550127267
 30
0.0
 40
6.448659420013427
100
AcDbArc
 50
337.189939521419
 51
22.8100638936746
  0
ARC
  5
2AC
330
1F
100
AcDbEntity
  8
2
100
AcDbCircle
 10
52.55123002629947
 20
219.2005550127267
 30
0.0
 40
6.448659420013427
100
AcDbArc
 50
337.189939521419
 51
22.8100638936746
  0
ARC
  5
2AD
330
1F
100
AcDbEntity
  8
2
100
AcDbCircle
 10
-45.64878218073178
 20
211.2005550127267
 30
0.0
 40
6.448660373687744
100
AcDbArc
 50
337.1899429365126
 51
22.810060478581
  0
CIRCLE
  5
2AE
330
1F
100
AcDbEntity
  8
0
100
AcDbCircle
 10
-0.0001005401067857
 20
201.7005550127267
 30
0.0
 40
8.0
  0
CIRCLE
  5
2AF
330
1F
100
AcDbEntity
  8
0
100
AcDbCircle
 10
-0.0001005401067857
 20
201.7005550127267
 30
0.0
 40
7.0
  0
ARC
  5
2B0
330
1F
100
AcDbEntity
  8
0
100
AcDbCircle
 10
-31.00008528131772
 20
190.7005550127267
 30
0.0
 40
1.0
100
AcDbArc
 50
179.9999974955182
 51
270.0000025044785
  0
ARC
  5
2B1
330
1F
100
AcDbEntity
  8
0
100
AcDbCircle
 10
10.99989945989321
 20
232.7005550127267
 30
0.0
 40
1.0
100
AcDbArc
 50
0.0000086514279086
 51
90.00000432571068
  0
ARC
  5
2B2
330
1F
100
AcDbEntity
  8
0
100
AcDbCircle
 10
7.999899459893214
 20
215.7005550127268
 30
0.0
 40
2.0
100
AcDbArc
 50
269.9999993167538
 51
0.0000086514279086
  0
CIRCLE
  5
2B3
330
1F
100
AcDbEntity
  8
0
100
AcDbCircle
 10
-0.0001005401067857
 20
201.7005550127267
 30
0.0
 40
12.0
  0
LINE
  5
2B4
330
1F
100
AcDbEntity
  8
0
100
AcDbLine
 10
-19.54335809820972
 20
191.7005508728323
 30
0.0
 11
-14.61493300546132
 21
193.4943509726363
 31
0.0
  0
LINE
  5
2B5
330
1F
100
AcDbEntity
  8
0
100
AcDbLine
 10
14.53557263072733
 20
169.6958858232735
 30
0.0
 11
8.206162836239656
 21
187.0857956893997
 31
0.0
  0
LINE
  5
2B6
330
1F
100
AcDbEntity
  8
0
100
AcDbLine
 10
35.02596417522537
 20
186.0652805174453
 30
0.0
 11
14.61472770279752
 21
193.4943633040007
 31
0.0
  0
LINE
  5
2B7
330
1F
100
AcDbEntity
  8
1
100
AcDbLine
 10
22.99989945989322
 20
193.4983670748609
 30
0.0
 11
22.99989945989322
 21
142.2681617342839
 31
0.0
  0
LINE
  5
2B8
330
1F
100
AcDbEntity
  8
0
100
AcDbLine
 10
36.99989945989325
 20
166.6958858232736
 30
0.0
 11
-37.00010054010679
 21
166.6958858232736
 31
0.0
  0
LINE
  5
2B9
330
1F
100
AcDbEntity
  8
0
100
AcDbLine
 10
-35.02616186052307
 20
186.0652709585755
 30
0.0
 11
-25.03830014792422
 21
189.700555456102
 31
0.0
  0
LINE
  5
2BA
330
1F
100
AcDbEntity
  8
0
100
AcDbLine
 10
-14.53576770589532
 20
169.6958858232735
 30
0.0
 11
-8.206360363386437
 21
187.0857889526428
 31
0.0
  0
LINE
  5
2BB
330
1F
100
AcDbEntity
  8
0
100
AcDbLine
 10
36.99989945989325
 20
183.2462093096017
 30
0.0
 11
36.99989945989325
 21
166.6958858232736
 31
0.0
  0
LINE
  5
2BC
330
1F
100
AcDbEntity
  8
0
100
AcDbLine
 10
-37.00010054010679
 20
169.6958858232736
 30
0.0
 11
36.99989945989325
 21
169.6958858232736
 31
0.0
  0
LINE
  5
2BD
330
1F
100
AcDbEntity
  8
0
100
AcDbLine
 10
-37.00010054010679
 20
183.2462093096017
 30
0.0
 11
-37.00010054010679
 21
166.6958858232736
 31
0.0
  0
ARC
  5
2BE
330
1F
100
AcDbEntity
  8
0
100
AcDbCircle
 10
-12.90482466120053
 20
188.7958919267892
 30
0.0
 40
5.0
100
AcDbArc
 50
339.9999989879515
 51
10.42409309853882
  0
ARC
  5
2BF
330
1F
100
AcDbEntity
  8
0
100
AcDbCircle
 10
-12.90482466120053
 20
188.7958919267892
 30
0.0
 40
5.0
100
AcDbArc
 50
79.57520270873672
 51
110.0000003288021
  0
ARC
  5
2C0
330
1F
100
AcDbEntity
  8
0
100
AcDbCircle
 10
33.99989945989324
 20
183.2462093096017
 30
0.0
 40
3.0
100
AcDbArc
 50
0.0
 51
69.99999967119632
  0
ARC
  5
2C1
330
1F
100
AcDbEntity
  8
0
100
AcDbCircle
 10
-34.00010054010679
 20
183.2462093096017
 30
0.0
 40
3.0
100
AcDbArc
 50
109.9999985075681
 51
180.0000050089504
  0
ARC
  5
2C2
330
1F
100
AcDbEntity
  8
0
100
AcDbCircle
 10
12.90462358098696
 20
188.7958919267892
 30
0.0
 40
5.0
100
AcDbArc
 50
69.99998100186424
 51
199.9999994181886
  0
CIRCLE
  5
2C3
330
1F
100
AcDbEntity
  8
0
100
AcDbCircle
 10
12.90462358098696
 20
188.7958919267892
 30
0.0
 40
3.0
  0
ARC
  5
2C4
330
1F
100
AcDbEntity
  8
0
100
AcDbCircle
 10
-12.90482466120053
 20
188.7958919267892
 30
0.0
 40
3.0
100
AcDbArc
 50
162.4490143522886
 51
17.55098564771135
  0
LINE
  5
2C5
330
1F
100
AcDbEntity
  8
1
100
AcDbLine
 10
-23.00010054010678
 20
193.498367074861
 30
0.0
 11
-23.00010054010678
 21
142.2681617342839
 31
0.0
  0
LINE
  5
2C6
330
1F
100
AcDbEntity
  8
0
100
AcDbLine
 10
-36.00010435480408
 20
169.7005550127267
 30
0.0
 11
-33.71024839777283
 21
169.7005550127267
 31
0.0
  0
LINE
  5
2C7
330
1F
100
AcDbEntity
  8
0
100
AcDbLine
 10
12.00000000000003
 20
10.00000000000023
 30
0.0
 11
12.00000000000003
 21
2.999993130630855
 31
0.0
  0
LINE
  5
2C8
330
1F
100
AcDbEntity
  8
0
100
AcDbLine
 10
37.0
 20
37.00000000000023
 30
0.0
 11
37.0
 21
0.0
 31
0.0
  0
LINE
  5
2C9
330
1F
100
AcDbEntity
  8
0
100
AcDbLine
 10
-7.904768961433148
 20
2.0
 30
0.0
 11
7.904768961433177
 21
2.000000000000227
 31
0.0
  0
LINE
  5
2CA
330
1F
100
AcDbEntity
  8
0
100
AcDbLine
 10
-11.99999999999997
 20
9.958038330078352
 30
0.0
 11
-11.99999999999997
 21
2.999993130630855
 31
0.0
  0
LINE
  5
2CB
330
1F
100
AcDbEntity
  8
0
100
AcDbLine
 10
14.5
 20
7.000000000000227
 30
0.0
 11
14.5
 21
0.0
 31
0.0
  0
LINE
  5
2CC
330
1F
100
AcDbEntity
  8
0
100
AcDbLine
 10
7.000000000000028
 20
0.0
 30
0.0
 11
7.000000000000028
 21
2.0
 31
0.0
  0
LINE
  5
2CD
330
1F
100
AcDbEntity
  8
0
100
AcDbLine
 10
-37.0
 20
0.0
 30
0.0
 11
37.0
 21
0.0
 31
0.0
  0
LINE
  5
2CE
330
1F
100
AcDbEntity
  8
0
100
AcDbLine
 10
-6.999999999999971
 20
0.0
 30
0.0
 11
-6.999999999999971
 21
2.0
 31
0.0
  0
LINE
  5
2CF
330
1F
100
AcDbEntity
  8
0
100
AcDbLine
 10
-14.49999999999994
 20
3.0
 30
0.0
 11
-7.904768961433092
 21
3.0
 31
0.0
  0
LINE
  5
2D0
330
1F
100
AcDbEntity
  8
0
100
AcDbLine
 10
-34.0
 20
40.00000000000023
 30
0.0
 11
34.0
 21
40.00000000000023
 31
0.0
  0
LINE
  5
2D1
330
1F
100
AcDbEntity
  8
0
100
AcDbLine
 10
-37.0
 20
37.00000000000023
 30
0.0
 11
-37.0
 21
0.0
 31
0.0
  0
LINE
  5
2D2
330
1F
100
AcDbEntity
  8
0
100
AcDbLine
 10
-11.49999999999997
 20
10.00000000000023
 30
0.0
 11
11.50000000000003
 21
10.00000000000023
 31
0.0
  0
LINE
  5
2D3
330
1F
100
AcDbEntity
  8
0
100
AcDbLine
 10
-14.49999999999997
 20
7.000000000000227
 30
0.0
 11
-14.49999999999997
 21
0.0
 31
0.0
  0
LINE
  5
2D4
330
1F
100
AcDbEntity
  8
1
100
AcDbLine
 10
22.99998474121094
 20
38.66459281504342
 30
0.0
 11
22.99998474121094
 21
13.33540718495715
 31
0.0
  0
ARC
  5
2D5
330
1F
100
AcDbEntity
  8
0
100
AcDbCircle
 10
11.50000000000003
 20
7.000000000000227
 30
0.0
 40
3.0
100
AcDbArc
 50
0.0
 51
90.00000250447845
  0
ARC
  5
2D6
330
1F
100
AcDbEntity
  8
0
100
AcDbCircle
 10
34.0
 20
37.00000000000023
 30
0.0
 40
3.0
100
AcDbArc
 50
0.0
 51
90.00000250447845
  0
ARC
  5
2D7
330
1F
100
AcDbEntity
  8
0
100
AcDbCircle
 10
-34.0
 20
37.00000000000023
 30
0.0
 40
3.0
100
AcDbArc
 50
90.00000250447845
 51
180.0000050089504
  0
ARC
  5
2D8
330
1F
100
AcDbEntity
  8
0
100
AcDbCircle
 10
-11.49999999999997
 20
7.000000000000227
 30
0.0
 40
3.0
100
AcDbArc
 50
90.00000250447845
 51
180.0000050089504
  0
LINE
  5
2D9
330
1F
100
AcDbEntity
  8
0
100
AcDbLine
 10
-7.904768961433148
 20
3.0
 30
0.0
 11
-7.904768961433148
 21
0.0
 31
0.0
  0
LINE
  5
2DA
330
1F
100
AcDbEntity
  8
0
100
AcDbLine
 10
-8.285982235743659
 20
2.999982925447056
 30
0.0
 11
-14.49999999999997
 21
3.0
 31
0.0
  0
LINE
  5
2DB
330
1F
100
AcDbEntity
  8
0
100
AcDbLine
 10
7.904768961433177
 20
2.999981877969275
 30
0.0
 11
7.904768961433177
 21
0.0
 31
0.0
  0
LINE
  5
2DC
330
1F
100
AcDbEntity
  8
0
100
AcDbLine
 10
7.904768961433177
 20
2.999981877969275
 30
0.0
 11
14.5
 21
3.0
 31
0.0
  0
LINE
  5
2DD
330
1F
100
AcDbEntity
  8
1
100
AcDbLine
 10
-17.39152358913921
 20
219.0920271895044
 30
0.0
 11
-25.03503523449351
 21
226.7355388348587
 31
0.0
  0
ARC
  5
2DE
330
1F
100
AcDbEntity
  8
1
100
AcDbCircle
 10
-0.0001005401067857
 20
201.7005550127267
 30
0.0
 40
30.0
100
AcDbArc
 50
115.8419344367528
 51
244.1580619207702
  0
CIRCLE
  5
2DF
330
1F
100
AcDbEntity
  8
2
100
AcDbCircle
 10
-21.21333448786069
 20
222.9136897783517
 30
0.0
 40
2.599999904632568
  0
CIRCLE
  5
2E0
330
1F
100
AcDbEntity
  8
2
100
AcDbCircle
 10
-21.21333448786069
 20
222.9136897783517
 30
0.0
 40
3.0
  0
CIRCLE
  5
2E1
330
1F
100
AcDbEntity
  8
2
100
AcDbCircle
 10
21.21313340764712
 20
222.9136897783517
 30
0.0
 40
2.599999904632568
  0
CIRCLE
  5
2E2
330
1F
100
AcDbEntity
  8
2
100
AcDbCircle
 10
21.21313340764712
 20
222.9136897783517
 30
0.0
 40
3.0
  0
ARC
  5
2E3
330
1F
100
AcDbEntity
  8
1
100
AcDbCircle
 10
-0.0001005401067857
 20
201.7005550127267
 30
0.0
 40
30.0
100
AcDbArc
 50
295.8419294277988
 51
64.15807057220122
  0
CIRCLE
  5
2E6
330
1F
100
AcDbEntity
  8
0
100
AcDbCircle
 10
22.99998474121094
 20
26.00000000000023
 30
0.0
 40
9.25
  0
CIRCLE
  5
2E7
330
1F
100
AcDbEntity
  8
0
100
AcDbCircle
 10
-22.99999999999997
 20
26.00000000000023
 30
0.0
 40
9.25
  0
LINE
  5
2E8
330
1F
100
AcDbEntity
  8
1
100
AcDbLine
 10
10.33539192616777
 20
26.00000000000023
 30
0.0
 11
35.66457755625405
 21
26.00000000000023
 31
0.0
  0
LINE
  5
2E9
330
1F
100
AcDbEntity
  8
1
100
AcDbLine
 10
-22.99999999999997
 20
38.66459281504342
 30
0.0
 11
-22.99999999999997
 21
13.33540718495715
 31
0.0
  0
LINE
  5
2EA
330
1F
100
AcDbEntity
  8
1
100
AcDbLine
 10
-35.66459281504317
 20
26.00000000000023
 30
0.0
 11
-10.33540718495689
 21
26.00000000000023
 31
0.0
  0
LINE
  5
2EB
330
1F
100
AcDbEntity
  8
2
100
AcDbLine
 10
31.99986692336589
 20
162.6958858232736
 30
0.0
 11
31.99986692336589
 21
144.6958858232736
 31
0.0
  0
LINE
  5
2EC
330
1F
100
AcDbEntity
  8
2
100
AcDbLine
 10
13.99986692336588
 20
162.6958858232736
 30
0.0
 11
13.99986692336588
 21
144.6958858232736
 31
0.0
  0
LINE
  5
2ED
330
1F
100
AcDbEntity
  8
2
100
AcDbLine
 10
13.99986692336588
 20
186.6957942705392
 30
0.0
 11
31.99986692336589
 21
186.6957942705392
 31
0.0
  0
LINE
  5
2EE
330
1F
100
AcDbEntity
  8
2
100
AcDbLine
 10
13.99986692336588
 20
186.6957942705392
 30
0.0
 11
13.99986692336588
 21
173.6958858232736
 31
0.0
  0
LINE
  5
2EF
330
1F
100
AcDbEntity
  8
2
100
AcDbLine
 10
31.99986692336589
 20
186.6957942705392
 30
0.0
 11
31.99986692336589
 21
173.6958858232736
 31
0.0
  0
LINE
  5
2F0
330
1F
100
AcDbEntity
  8
2
100
AcDbLine
 10
13.99986692336588
 20
144.6958858232736
 30
0.0
 11
31.99986692336589
 21
144.6958858232736
 31
0.0
  0
LINE
  5
2F1
330
1F
100
AcDbEntity
  8
2
100
AcDbLine
 10
11.49989285621237
 20
173.6958858232736
 30
0.0
 11
34.49989285621237
 21
173.6958858232736
 31
0.0
  0
ARC
  5
2F2
330
1F
100
AcDbEntity
  8
2
100
AcDbCircle
 10
16.99989285621237
 20
156.0769305193185
 30
0.0
 40
17.33028030395508
100
AcDbArc
 50
69.74444580078131
 51
110.2555541992187
  0
ARC
  5
2F3
330
1F
100
AcDbEntity
  8
2
100
AcDbCircle
 10
28.99989285621237
 20
156.0769305193185
 30
0.0
 40
17.33028030395508
100
AcDbArc
 50
69.74444580078131
 51
110.2555541992187
  0
LINE
  5
2F4
330
1F
100
AcDbEntity
  8
2
100
AcDbLine
 10
34.99989285621237
 20
169.6958858232736
 30
0.0
 11
34.99989285621237
 21
173.4072108232736
 31
0.0
  0
LINE
  5
2F5
330
1F
100
AcDbEntity
  8
2
100
AcDbLine
 10
34.99989285621237
 20
173.4072108232736
 30
0.0
 11
34.49989285621237
 21
173.6958858232736
 31
0.0
  0
LINE
  5
2F6
330
1F
100
AcDbEntity
  8
2
100
AcDbLine
 10
22.99989285621237
 20
169.6958858232736
 30
0.0
 11
22.99989285621237
 21
172.3354182832737
 31
0.0
  0
LINE
  5
2F7
330
1F
100
AcDbEntity
  8
2
100
AcDbLine
 10
10.99989285621237
 20
169.6958858232736
 30
0.0
 11
10.99989285621237
 21
173.4072108232736
 31
0.0
  0
LINE
  5
2F8
330
1F
100
AcDbEntity
  8
2
100
AcDbLine
 10
10.99989285621237
 20
173.4072108232736
 30
0.0
 11
11.49989285621237
 21
173.6958858232736
 31
0.0
  0
LINE
  5
2F9
330
1F
100
AcDbEntity
  8
2
100
AcDbLine
 10
11.49989945989315
 20
162.6958858232736
 30
0.0
 11
34.49989945989316
 21
162.6958858232736
 31
0.0
  0
ARC
  5
2FA
330
1F
100
AcDbEntity
  8
2
100
AcDbCircle
 10
16.99989945989321
 20
180.3148411272287
 30
0.0
 40
17.33028030395508
100
AcDbArc
 50
249.7444458007813
 51
290.2559709787841
  0
ARC
  5
2FB
330
1F
100
AcDbEntity
  8
2
100
AcDbCircle
 10
28.99989945989322
 20
180.3148411272287
 30
0.0
 40
17.33028030395508
100
AcDbArc
 50
249.7440290212158
 51
290.2555541992187
  0
LINE
  5
2FC
330
1F
100
AcDbEntity
  8
2
100
AcDbLine
 10
34.99989945989322
 20
162.9845608232736
 30
0.0
 11
34.99989945989322
 21
166.6958858232736
 31
0.0
  0
LINE
  5
2FD
330
1F
100
AcDbEntity
  8
2
100
AcDbLine
 10
34.99989945989316
 20
162.9845608232736
 30
0.0
 11
34.49989945989316
 21
162.6958858232736
 31
0.0
  0
LINE
  5
2FE
330
1F
100
AcDbEntity
  8
2
100
AcDbLine
 10
22.99989945989322
 20
164.0563474880981
 30
0.0
 11
22.99989945989322
 21
166.6958858232736
 31
0.0
  0
LINE
  5
2FF
330
1F
100
AcDbEntity
  8
2
100
AcDbLine
 10
10.99989945989321
 20
162.9845608232736
 30
0.0
 11
10.99989945989321
 21
166.6958858232736
 31
0.0
  0
LINE
  5
300
330
1F
100
AcDbEntity
  8
2
100
AcDbLine
 10
10.99989945989316
 20
162.9845608232736
 30
0.0
 11
11.49989945989315
 21
162.6958858232736
 31
0.0
  0
LINE
  5
301
330
1F
100
AcDbEntity
  8
2
100
AcDbLine
 10
19.99978485923273
 20
144.6959183598009
 30
0.0
 11
19.99978485923273
 21
138.9484565567508
 31
0.0
  0
LINE
  5
302
330
1F
100
AcDbEntity
  8
2
100
AcDbLine
 10
25.99978485923273
 20
144.6959183598009
 30
0.0
 11
25.99978485923273
 21
138.9484565567508
 31
0.0
  0
LINE
  5
303
330
1F
100
AcDbEntity
  8
2
100
AcDbLine
 10
-14.00013307663411
 20
162.6958858232736
 30
0.0
 11
-14.00013307663411
 21
144.6958858232736
 31
0.0
  0
LINE
  5
304
330
1F
100
AcDbEntity
  8
2
100
AcDbLine
 10
-32.00013307663411
 20
162.6958858232736
 30
0.0
 11
-32.00013307663411
 21
144.6958858232736
 31
0.0
  0
LINE
  5
305
330
1F
100
AcDbEntity
  8
2
100
AcDbLine
 10
-32.00013307663411
 20
186.6957942705392
 30
0.0
 11
-14.00013307663411
 21
186.6957942705392
 31
0.0
  0
LINE
  5
306
330
1F
100
AcDbEntity
  8
2
100
AcDbLine
 10
-32.00013307663411
 20
186.6957942705392
 30
0.0
 11
-32.00013307663411
 21
173.6958858232736
 31
0.0
  0
LINE
  5
307
330
1F
100
AcDbEntity
  8
2
100
AcDbLine
 10
-14.00013307663411
 20
186.6957942705392
 30
0.0
 11
-14.00013307663411
 21
173.6958858232736
 31
0.0
  0
LINE
  5
308
330
1F
100
AcDbEntity
  8
2
100
AcDbLine
 10
-32.00013307663411
 20
144.6958858232736
 30
0.0
 11
-14.00013307663411
 21
144.6958858232736
 31
0.0
  0
LINE
  5
309
330
1F
100
AcDbEntity
  8
2
100
AcDbLine
 10
-34.50010714378763
 20
173.6958858232736
 30
0.0
 11
-11.50010714378763
 21
173.6958858232736
 31
0.0
  0
ARC
  5
30A
330
1F
100
AcDbEntity
  8
2
100
AcDbCircle
 10
-29.00010714378763
 20
156.0769305193185
 30
0.0
 40
17.33028030395508
100
AcDbArc
 50
69.74444580078131
 51
110.2555541992187
  0
ARC
  5
30B
330
1F
100
AcDbEntity
  8
2
100
AcDbCircle
 10
-17.00010714378763
 20
156.0769305193185
 30
0.0
 40
17.33028030395508
100
AcDbArc
 50
69.74444580078131
 51
110.2555541992187
  0
LINE
  5
30C
330
1F
100
AcDbEntity
  8
2
100
AcDbLine
 10
-11.00010714378763
 20
169.6958858232736
 30
0.0
 11
-11.00010714378763
 21
173.4072108232736
 31
0.0
  0
LINE
  5
30D
330
1F
100
AcDbEntity
  8
2
100
AcDbLine
 10
-11.00010714378763
 20
173.4072108232736
 30
0.0
 11
-11.50010714378763
 21
173.6958858232736
 31
0.0
  0
LINE
  5
30E
330
1F
100
AcDbEntity
  8
2
100
AcDbLine
 10
-23.00010714378763
 20
169.6958858232736
 30
0.0
 11
-23.00010714378763
 21
172.3354182832737
 31
0.0
  0
LINE
  5
30F
330
1F
100
AcDbEntity
  8
2
100
AcDbLine
 10
-35.00010714378763
 20
169.6958858232736
 30
0.0
 11
-35.00010714378763
 21
173.4072108232736
 31
0.0
  0
LINE
  5
310
330
1F
100
AcDbEntity
  8
2
100
AcDbLine
 10
-35.00010714378763
 20
173.4072108232736
 30
0.0
 11
-34.50010714378763
 21
173.6958858232736
 31
0.0
  0
LINE
  5
311
330
1F
100
AcDbEntity
  8
2
100
AcDbLine
 10
-34.50010054010685
 20
162.6958858232736
 30
0.0
 11
-11.50010054010684
 21
162.6958858232736
 31
0.0
  0
ARC
  5
312
330
1F
100
AcDbEntity
  8
2
100
AcDbCircle
 10
-29.00010054010678
 20
180.3148411272287
 30
0.0
 40
17.33028030395508
100
AcDbArc
 50
249.7444458007813
 51
290.2559709787841
  0
ARC
  5
313
330
1F
100
AcDbEntity
  8
2
100
AcDbCircle
 10
-17.00010054010678
 20
180.3148411272287
 30
0.0
 40
17.33028030395508
100
AcDbArc
 50
249.7440290212158
 51
290.2555541992187
  0
LINE
  5
314
330
1F
100
AcDbEntity
  8
2
100
AcDbLine
 10
-11.00010054010678
 20
162.9845608232736
 30
0.0
 11
-11.00010054010678
 21
166.6958858232736
 31
0.0
  0
LINE
  5
315
330
1F
100
AcDbEntity
  8
2
100
AcDbLine
 10
-11.00010054010684
 20
162.9845608232736
 30
0.0
 11
-11.50010054010684
 21
162.6958858232736
 31
0.0
  0
LINE
  5
316
330
1F
100
AcDbEntity
  8
2
100
AcDbLine
 10
-23.00010054010678
 20
164.0563474880981
 30
0.0
 11
-23.00010054010678
 21
166.6958858232736
 31
0.0
  0
LINE
  5
317
330
1F
100
AcDbEntity
  8
2
100
AcDbLine
 10
-35.00010054010679
 20
162.9845608232736
 30
0.0
 11
-35.00010054010679
 21
166.6958858232736
 31
0.0
  0
LINE
  5
318
330
1F
100
AcDbEntity
  8
2
100
AcDbLine
 10
-35.00010054010684
 20
162.9845608232736
 30
0.0
 11
-34.50010054010685
 21
162.6958858232736
 31
0.0
  0
LINE
  5
319
330
1F
100
AcDbEntity
  8
2
100
AcDbLine
 10
-26.00021514076727
 20
144.6959183598009
 30
0.0
 11
-26.00021514076727
 21
138.9484565567508
 31
0.0
  0
LINE
  5
31A
330
1F
100
AcDbEntity
  8
2
100
AcDbLine
 10
-20.00021514076727
 20
144.6959183598009
 30
0.0
 11
-20.00021514076727
 21
138.9484565567508
 31
0.0
  0
LINE
  5
31B
330
1F
100
AcDbEntity
  8
1
100
AcDbLine
 10
17.39132250892564
 20
219.0920271895044
 30
0.0
 11
25.03483415427993
 21
226.7355388348587
 31
0.0
  0
LINE
  5
31C
330
1F
100
AcDbEntity
  8
1
100
AcDbLine
 10
-17.39152358913921
 20
184.3090828359491
 30
0.0
 11
-25.03503523449351
 21
176.6655711905947
 31
0.0
  0
LINE
  5
31D
330
1F
100
AcDbEntity
  8
1
100
AcDbLine
 10
17.39132250892564
 20
184.3090828359491
 30
0.0
 11
25.03483415427993
 21
176.6655711905947
 31
0.0
  0
LINE
  5
31E
330
1F
100
AcDbEntity
  8
2
100
AcDbLine
 10
-33.50001456545698
 20
19.93783326642313
 30
0.0
 11
-22.99996913082944
 21
13.87566000003971
 31
0.0
  0
LINE
  5
31F
330
1F
100
AcDbEntity
  8
2
100
AcDbLine
 10
-23.00003086929783
 20
38.12438999996084
 30
0.0
 11
-33.50001543465308
 21
32.06218326646024
 31
0.0
  0
LINE
  5
320
330
1F
100
AcDbEntity
  8
2
100
AcDbLine
 10
-12.49998456547419
 20
19.93786673354032
 30
0.0
 11
-12.50001543461928
 21
32.06219673350086
 31
0.0
  0
LINE
  5
321
330
1F
100
AcDbEntity
  8
2
100
AcDbLine
 10
-22.99996913088035
 20
13.87568000003944
 30
0.0
 11
-12.49997456552515
 21
19.93788673356573
 31
0.0
  0
LINE
  5
322
330
1F
100
AcDbEntity
  8
2
100
AcDbLine
 10
-33.50001543455122
 20
32.06214326646011
 30
0.0
 11
-33.49998456540615
 21
19.93781326649946
 31
0.0
  0
LINE
  5
323
330
1F
100
AcDbEntity
  8
2
100
AcDbLine
 10
-12.50003543469538
 20
32.06222673345019
 30
0.0
 11
-22.99998086914519
 21
38.12433000008809
 31
0.0
  0
CIRCLE
  5
324
330
1F
100
AcDbEntity
  8
2
100
AcDbCircle
 10
-22.9999999999236
 20
25.99997000000008
 30
0.0
 40
8.0
  0
CIRCLE
  5
325
330
1F
100
AcDbEntity
  8
2
100
AcDbCircle
 10
-22.9999999999236
 20
25.99997000000008
 30
0.0
 40
10.5
  0
LINE
  5
326
330
1F
100
AcDbEntity
  8
2
100
AcDbLine
 10
12.49997017575393
 20
19.93783326642313
 30
0.0
 11
23.00001561038147
 21
13.87566000003971
 31
0.0
  0
LINE
  5
327
330
1F
100
AcDbEntity
  8
2
100
AcDbLine
 10
22.99995387191305
 20
38.12438999996084
 30
0.0
 11
12.49996930655783
 21
32.06218326646024
 31
0.0
  0
LINE
  5
328
330
1F
100
AcDbEntity
  8
2
100
AcDbLine
 10
33.50000017573669
 20
19.93786673354032
 30
0.0
 11
33.49996930659163
 21
32.06219673350086
 31
0.0
  0
LINE
  5
329
330
1F
100
AcDbEntity
  8
2
100
AcDbLine
 10
23.00001561033054
 20
13.87568000003944
 30
0.0
 11
33.50001017568576
 21
19.93788673356573
 31
0.0
  0
LINE
  5
32A
330
1F
100
AcDbEntity
  8
2
100
AcDbLine
 10
12.49996930665966
 20
32.06214326646011
 30
0.0
 11
12.50000017580475
 21
19.93781326649946
 31
0.0
  0
LINE
  5
32B
330
1F
100
AcDbEntity
  8
2
100
AcDbLine
 10
33.49994930651551
 20
32.06222673345019
 30
0.0
 11
23.00000387206569
 21
38.12433000008809
 31
0.0
  0
CIRCLE
  5
32C
330
1F
100
AcDbEntity
  8
2
100
AcDbCircle
 10
22.99998474128731
 20
25.99997000000008
 30
0.0
 40
8.0
  0
CIRCLE
  5
32D
330
1F
100
AcDbEntity
  8
2
100
AcDbCircle
 10
22.99998474128731
 20
25.99997000000008
 30
0.0
 40
10.5
  0
LINE
  5
32F
330
1F
100
AcDbEntity
  8
0
100
AcDbLine
 10
24.09987745934805
 20
185.4873738097666
 30
0.0
 11
18.32637745934809
 21
185.4873738097666
 31
0.0
  0
LINE
  5
330
330
1F
100
AcDbEntity
  8
0
100
AcDbLine
 10
18.32637745934809
 20
175.4873784722678
 30
0.0
 11
24.09987745934805
 21
175.4873784722678
 31
0.0
  0
CIRCLE
  5
331
330
1F
100
AcDbEntity
  8
0
100
AcDbCircle
 10
21.2131274593481
 20
180.4873761410172
 30
0.0
 40
4.899999999999998
  0
LINE
  5
332
330
1F
100
AcDbEntity
  8
0
100
AcDbLine
 10
18.32637745934809
 20
185.4873738097666
 30
0.0
 11
15.43962745934809
 21
180.4873761410172
 31
0.0
  0
LINE
  5
333
330
1F
100
AcDbEntity
  8
0
100
AcDbLine
 10
15.43962745934809
 20
180.4873761410172
 30
0.0
 11
18.32637745934809
 21
175.4873784722678
 31
0.0
  0
LINE
  5
334
330
1F
100
AcDbEntity
  8
0
100
AcDbLine
 10
26.98662745934811
 20
180.4873761410172
 30
0.0
 11
24.09987745934805
 21
185.4873738097666
 31
0.0
  0
LINE
  5
335
330
1F
100
AcDbEntity
  8
0
100
AcDbLine
 10
24.09987745934805
 20
175.4873784722678
 30
0.0
 11
26.98662745934811
 21
180.4873761410172
 31
0.0
  0
CIRCLE
  5
336
330
1F
100
AcDbEntity
  8
0
100
AcDbCircle
 10
21.2131274593481
 20
180.4873761410172
 30
0.0
 40
6.099999999999999
  0
LINE
  5
337
330
1F
100
AcDbEntity
  8
0
100
AcDbLine
 10
-18.32650370559011
 20
185.4872989758857
 30
0.0
 11
-24.10000370559007
 21
185.4872989758857
 31
0.0
  0
LINE
  5
338
330
1F
100
AcDbEntity
  8
0
100
AcDbLine
 10
-24.10000370559007
 20
175.4873036383869
 30
0.0
 11
-18.32650370559011
 21
175.4873036383869
 31
0.0
  0
CIRCLE
  5
339
330
1F
100
AcDbEntity
  8
0
100
AcDbCircle
 10
-21.21325370559006
 20
180.4873013071362
 30
0.0
 40
4.899999999999998
  0
LINE
  5
33A
330
1F
100
AcDbEntity
  8
0
100
AcDbLine
 10
-24.10000370559007
 20
185.4872989758857
 30
0.0
 11
-26.98675370559008
 21
180.4873013071362
 31
0.0
  0
LINE
  5
33B
330
1F
100
AcDbEntity
  8
0
100
AcDbLine
 10
-26.98675370559008
 20
180.4873013071362
 30
0.0
 11
-24.10000370559007
 21
175.4873036383869
 31
0.0
  0
LINE
  5
33C
330
1F
100
AcDbEntity
  8
0
100
AcDbLine
 10
-15.43975370559005
 20
180.4873013071362
 30
0.0
 11
-18.32650370559011
 21
185.4872989758857
 31
0.0
  0
LINE
  5
33D
330
1F
100
AcDbEntity
  8
0
100
AcDbLine
 10
-18.32650370559011
 20
175.4873036383869
 30
0.0
 11
-15.43975370559005
 21
180.4873013071362
 31
0.0
  0
CIRCLE
  5
33E
330
1F
100
AcDbEntity
  8
0
100
AcDbCircle
 10
-21.21325370559006
 20
180.4873013071362
 30
0.0
 40
6.099999999999999
  0
CIRCLE
  5
33F
330
1F
100
AcDbEntity
  8
2
100
AcDbCircle
 10
-23.00010054010682
 20
26.00000000000023
 30
0.0
 40
3.000114600836915
  0
CIRCLE
  5
340
330
1F
100
AcDbEntity
  8
2
100
AcDbCircle
 10
22.99988420110409
 20
26.00000000000023
 30
0.0
 40
3.000114600836915
  0
VIEWPORT
  5
71
330
55
100
AcDbEntity
 67
     1
  8
0
100
AcDbViewport
 10
133.3499908447266
 20
101.5999970436096
 30
0.0
 40
381.3957395593835
 41
218.2856291881582
 68
     1
 69
     1
 12
133.3499908447266
 22
101.5999970436096
 13
0.0
 23
0.0
 14
10.0
 24
10.0
 15
10.0
 25
10.0
 16
0.0
 26
0.0
 36
1.0
 17
0.0
 27
0.0
 37
0.0
 42
50.0
 43
0.0
 44
0.0
 45
218.2856291881582
 50
0.0
 51
0.0
 72
   100
 90
    32800
  1

281
     0
 71
     1
 74
     0
110
0.0
120
0.0
130
0.0
111
1.0
121
0.0
131
0.0
112
0.0
122
1.0
132
0.0
 79
     0
146
0.0
170
     0
 61
     5
348
36C
292
     1
282
     1
141
0.0
142
0.0
 63
   250
421
  3355443
  0
VIEWPORT
  5
73
330
55
100
AcDbEntity
 67
     1
  8
0
100
AcDbViewport
 10
133.3499939441681
 20
101.5999939441681
 30
0.0
 40
213.3599903106689
 41
162.5599903106689
 68
     2
 69
     2
 12
210.0
 22
148.5
 13
0.0
 23
0.0
 14
10.0
 24
10.0
 15
10.0
 25
10.0
 16
0.0
 26
0.0
 36
1.0
 17
0.0
 27
0.0
 37
0.0
 42
50.0
 43
0.0
 44
0.0
 45
324.0677920111345
 50
0.0
 51
0.0
 72
   100
 90
    32864
  1

281
     0
 71
     1
 74
     0
110
0.0
120
0.0
130
0.0
111
1.0
121
0.0
131
0.0
112
0.0
122
1.0
132
0.0
 79
     0
146
0.0
170
     0
 61
     5
348
36C
292
     1
282
     1
141
0.0
142
0.0
 63
   250
421
  3355443
  0
ENDSEC
  0
SECTION
  2
OBJECTS
  0
DICTIONARY
  5
C
330
0
100
AcDbDictionary
281
     1
  3
ACAD_COLOR
350
37A
  3
ACAD_GROUP
350
D
  3
ACAD_LAYOUT
350
1A
  3
ACAD_MATERIAL
350
34D
  3
ACAD_MLEADERSTYLE
350
38F
  3
ACAD_MLINESTYLE
350
17
  3
ACAD_PLOTSETTINGS
350
19
  3
ACAD_PLOTSTYLENAME
350
E
  3
ACAD_SCALELIST
350
37D
  3
ACAD_TABLESTYLE
350
37B
  3
ACAD_VISUALSTYLE
350
366
  3
ACDB_RECOMPOSE_DATA
350
39E
  3
AcDbVariableDictionary
350
5E
  0
DICTIONARY
  5
97
330
2
100
AcDbDictionary
280
     1
281
     1
  3
ACAD_LAYERSTATES
360
98
  0
DICTIONARY
  5
393
330
10
100
AcDbDictionary
280
     1
281
     1
  3
ADSK_XREC_LAYER_RECONCILED
360
394
  0
DICTIONARY
  5
90
330
8F
100
AcDbDictionary
280
     1
281
     1
  3
ADSK_XREC_LAYER_RECONCILED
360
91
  0
DICTIONARY
  5
93
330
92
100
AcDbDictionary
280
     1
281
     1
  3
ADSK_XREC_LAYER_RECONCILED
360
94
  0
DICTIONARY
  5
37A
102
{ACAD_REACTORS
330
C
102
}
330
C
100
AcDbDictionary
281
     1
  0
DICTIONARY
  5
D
102
{ACAD_REACTORS
330
C
102
}
330
C
100
AcDbDictionary
281
     1
  0
DICTIONARY
  5
1A
102
{ACAD_REACTORS
330
C
102
}
330
C
100
AcDbDictionary
281
     1
  3
Model
350
22
  3
ﾚｲｱｳﾄ1
350
51
  3
ﾚｲｱｳﾄ2
350
56
  0
DICTIONARY
  5
34D
102
{ACAD_REACTORS
330
C
102
}
330
C
100
AcDbDictionary
281
     1
  3
ByBlock
350
356
  3
ByLayer
350
34E
  3
Global
350
35E
  0
DICTIONARY
  5
38F
102
{ACAD_REACTORS
330
C
102
}
330
C
100
AcDbDictionary
281
     1
  3
Standard
350
390
  0
DICTIONARY
  5
17
102
{ACAD_REACTORS
330
C
102
}
330
C
100
AcDbDictionary
281
     1
  3
Standard
350
18
  0
DICTIONARY
  5
19
102
{ACAD_REACTORS
330
C
102
}
330
C
100
AcDbDictionary
281
     1
  0
ACDBDICTIONARYWDFLT
  5
E
102
{ACAD_REACTORS
330
C
102
}
330
C
100
AcDbDictionary
281
     1
  3
Normal
350
F
100
AcDbDictionaryWithDefault
340
F
  0
DICTIONARY
  5
37D
102
{ACAD_REACTORS
330
C
102
}
330
C
100
AcDbDictionary
281
     1
  3
A0
350
37E
  3
A1
350
37F
  3
A2
350
380
  3
A3
350
381
  3
A4
350
382
  3
A5
350
383
  3
A6
350
384
  3
A7
350
385
  3
A8
350
386
  3
A9
350
387
  3
B0
350
388
  3
B1
350
389
  3
B2
350
38A
  3
B3
350
38B
  3
B4
350
38C
  3
B5
350
38D
  3
B6
350
38E
  0
DICTIONARY
  5
37B
102
{ACAD_REACTORS
330
C
102
}
330
C
100
AcDbDictionary
281
     1
  3
Standard
350
37C
  0
DICTIONARY
  5
366
102
{ACAD_REACTORS
330
C
102
}
330
C
100
AcDbDictionary
281
     1
  3
2dWireframe
350
36C
  3
3D Hidden
350
36E
  3
3dWireframe
350
36D
  3
Basic
350
36B
  3
Brighten
350
372
  3
ColorChange
350
376
  3
Conceptual
350
36F
  3
Dim
350
371
  3
EdgeColorOff
350
379
  3
Facepattern
350
375
  3
Flat
350
367
  3
FlatWithEdges
350
368
  3
Gouraud
350
369
  3
GouraudWithEdges
350
36A
  3
JitterOff
350
377
  3
Linepattern
350
374
  3
OverhangOff
350
378
  3
Realistic
350
370
  3
Thicken
350
373
  0
XRECORD
  5
39E
102
{ACAD_REACTORS
330
C
102
}
330
C
100
AcDbXrecord
280
     1
 90
        1
330
37C
  0
DICTIONARY
  5
5E
102
{ACAD_REACTORS
330
C
102
}
330
C
100
AcDbDictionary
281
     1
  3
CANNOSCALE
350
398
  3
CMLEADERSTYLE
350
396
  3
CTABLESTYLE
350
395
  3
DIMASSOC
350
5F
  3
HIDETEXT
350
63
  3
LAYEREVAL
350
39A
  3
LAYERNOTIFY
350
39B
  3
LIGHTINGUNITS
350
399
  3
MSLTSCALE
350
397
  0
DICTIONARY
  5
98
102
{ACAD_REACTORS
330
97
102
}
330
97
100
AcDbDictionary
281
     1
  0
XRECORD
  5
394
102
{ACAD_REACTORS
330
393
102
}
330
393
100
AcDbXrecord
280
     1
290
     1
  0
XRECORD
  5
91
102
{ACAD_REACTORS
330
90
102
}
330
90
100
AcDbXrecord
280
     1
290
     1
  0
XRECORD
  5
94
102
{ACAD_REACTORS
330
93
102
}
330
93
100
AcDbXrecord
280
     1
290
     1
  0
LAYOUT
  5
22
102
{ACAD_REACTORS
330
1A
102
}
330
1A
100
AcDbPlotSettings
  1

  2
none_device
  4
ANSI_A_(8.50_x_11.00_Inches)
  6

 40
6.349999904632568
 41
19.04999923706055
 42
6.350006103515625
 43
19.04998779296875
 44
215.8999938964844
 45
279.3999938964844
 46
0.0
 47
0.0
 48
0.0
 49
0.0
140
0.0
141
0.0
142
1.0
143
78.436453180766
 70
 11952
 72
     0
 73
     1
 74
     0
  7

 75
     0
147
0.0127491741332998
 76
     0
 77
     2
 78
   300
148
0.0
149
0.0
100
AcDbLayout
  1
Model
 70
     1
 71
     0
 10
0.0
 20
0.0
 11
12.0
 21
9.0
 12
0.0
 22
0.0
 32
0.0
 14
0.0
 24
0.0
 34
0.0
 15
0.0
 25
0.0
 35
0.0
146
0.0
 13
0.0
 23
0.0
 33
0.0
 16
1.0
 26
0.0
 36
0.0
 17
0.0
 27
1.0
 37
0.0
 76
     0
330
1F
331
34B
  0
LAYOUT
  5
51
102
{ACAD_REACTORS
330
1A
102
}
330
1A
100
AcDbPlotSettings
  1

  2
none_device
  4
Letter_(8.50_x_11.00_Inches)
  6

 40
6.349999904632568
 41
6.349999904632568
 42
6.350006103515625
 43
6.350006103515625
 44
215.8999938964844
 45
279.3999938964844
 46
0.0
 47
0.0
 48
0.0
 49
0.0
140
0.0
141
0.0
142
1.0
143
1.0
 70
   688
 72
     1
 73
     1
 74
     5
  7

 75
    16
147
1.0
 76
     0
 77
     2
 78
   300
148
0.0
149
0.0
100
AcDbLayout
  1
ﾚｲｱｳﾄ1
 70
     1
 71
     1
 10
-6.350006103515625
 20
-6.349999904632568
 11
273.0499877929688
 21
209.5499939918518
 12
0.0
 22
0.0
 32
0.0
 14
26.66076962115563
 24
20.31135699206658
 34
-0.0015258207003583
 15
240.039213369355
 25
182.8886381005154
 35
0.0000000349246037
146
0.0
 13
0.0
 23
0.0
 33
0.0
 16
1.0
 26
0.0
 36
0.0
 17
0.0
 27
1.0
 37
0.0
 76
     0
330
50
331
6B
  0
LAYOUT
  5
56
102
{ACAD_REACTORS
330
1A
102
}
330
1A
100
AcDbPlotSettings
  1

  2
none_device
  4
Letter_(8.50_x_11.00_Inches)
  6

 40
6.349999904632568
 41
6.349999904632568
 42
6.350006103515625
 43
6.350006103515625
 44
215.8999938964844
 45
279.3999938964844
 46
0.0
 47
0.0
 48
0.0
 49
0.0
140
0.0
141
0.0
142
1.0
143
1.0
 70
   688
 72
     1
 73
     1
 74
     5
  7

 75
    16
147
1.0
 76
     0
 77
     2
 78
   300
148
0.0
149
0.0
100
AcDbLayout
  1
ﾚｲｱｳﾄ2
 70
     1
 71
     2
 10
-6.350006103515625
 20
-6.349999904632568
 11
273.0499877929688
 21
209.5499939918518
 12
0.0
 22
0.0
 32
0.0
 14
26.66076962115563
 24
20.31135699206658
 34
-0.0015258207003583
 15
240.039213369355
 25
182.8886381005154
 35
0.0000000349246037
146
0.0
 13
0.0
 23
0.0
 33
0.0
 16
1.0
 26
0.0
 36
0.0
 17
0.0
 27
1.0
 37
0.0
 76
     0
330
55
331
71
  0
MATERIAL
  5
356
102
{ACAD_XDICTIONARY
360
357
102
}
102
{ACAD_REACTORS
330
34D
102
}
330
34D
100
AcDbMaterial
  1
ByBlock
 72
     0
 43
0.0008202099737533
 43
0.0
 43
0.0
 43
0.0
 43
0.0
 43
0.0008202099737533
 43
0.0
 43
0.0
 43
0.0
 43
0.0
 43
1.0
 43
0.0
 43
0.0
 43
0.0
 43
0.0
 43
1.0
 77
     0
 47
0.0008202099737533
 47
0.0
 47
0.0
 47
0.0
 47
0.0
 47
0.0008202099737533
 47
0.0
 47
0.0
 47
0.0
 47
0.0
 47
1.0
 47
0.0
 47
0.0
 47
0.0
 47
0.0
 47
1.0
171
     0
 49
0.0008202099737533
 49
0.0
 49
0.0
 49
0.0
 49
0.0
 49
0.0008202099737533
 49
0.0
 49
0.0
 49
0.0
 49
0.0
 49
1.0
 49
0.0
 49
0.0
 49
0.0
 49
0.0
 49
1.0
175
     0
142
0.0008202099737533
142
0.0
142
0.0
142
0.0
142
0.0
142
0.0008202099737533
142
0.0
142
0.0
142
0.0
142
0.0
142
1.0
142
0.0
142
0.0
142
0.0
142
0.0
142
1.0
179
     0
144
0.0008202099737533
144
0.0
144
0.0
144
0.0
144
0.0
144
0.0008202099737533
144
0.0
144
0.0
144
0.0
144
0.0
144
1.0
144
0.0
144
0.0
144
0.0
144
0.0
144
1.0
147
0.0008202099737533
147
0.0
147
0.0
147
0.0
147
0.0
147
0.0008202099737533
147
0.0
147
0.0
147
0.0
147
0.0
147
1.0
147
0.0
147
0.0
147
0.0
147
0.0
147
1.0
  0
MATERIAL
  5
34E
102
{ACAD_XDICTIONARY
360
34F
102
}
102
{ACAD_REACTORS
330
34D
102
}
330
34D
100
AcDbMaterial
  1
ByLayer
 72
     0
 43
0.0008202099737533
 43
0.0
 43
0.0
 43
0.0
 43
0.0
 43
0.0008202099737533
 43
0.0
 43
0.0
 43
0.0
 43
0.0
 43
1.0
 43
0.0
 43
0.0
 43
0.0
 43
0.0
 43
1.0
 77
     0
 47
0.0008202099737533
 47
0.0
 47
0.0
 47
0.0
 47
0.0
 47
0.0008202099737533
 47
0.0
 47
0.0
 47
0.0
 47
0.0
 47
1.0
 47
0.0
 47
0.0
 47
0.0
 47
0.0
 47
1.0
171
     0
 49
0.0008202099737533
 49
0.0
 49
0.0
 49
0.0
 49
0.0
 49
0.0008202099737533
 49
0.0
 49
0.0
 49
0.0
 49
0.0
 49
1.0
 49
0.0
 49
0.0
 49
0.0
 49
0.0
 49
1.0
175
     0
142
0.0008202099737533
142
0.0
142
0.0
142
0.0
142
0.0
142
0.0008202099737533
142
0.0
142
0.0
142
0.0
142
0.0
142
1.0
142
0.0
142
0.0
142
0.0
142
0.0
142
1.0
179
     0
144
0.0008202099737533
144
0.0
144
0.0
144
0.0
144
0.0
144
0.0008202099737533
144
0.0
144
0.0
144
0.0
144
0.0
144
1.0
144
0.0
144
0.0
144
0.0
144
0.0
144
1.0
147
0.0008202099737533
147
0.0
147
0.0
147
0.0
147
0.0
147
0.0008202099737533
147
0.0
147
0.0
147
0.0
147
0.0
147
1.0
147
0.0
147
0.0
147
0.0
147
0.0
147
1.0
  0
MATERIAL
  5
35E
102
{ACAD_XDICTIONARY
360
35F
102
}
102
{ACAD_REACTORS
330
34D
102
}
330
34D
100
AcDbMaterial
  1
Global
 72
     0
 43
0.0008202099737533
 43
0.0
 43
0.0
 43
0.0
 43
0.0
 43
0.0008202099737533
 43
0.0
 43
0.0
 43
0.0
 43
0.0
 43
1.0
 43
0.0
 43
0.0
 43
0.0
 43
0.0
 43
1.0
 77
     0
 47
0.0008202099737533
 47
0.0
 47
0.0
 47
0.0
 47
0.0
 47
0.0008202099737533
 47
0.0
 47
0.0
 47
0.0
 47
0.0
 47
1.0
 47
0.0
 47
0.0
 47
0.0
 47
0.0
 47
1.0
171
     0
 49
0.0008202099737533
 49
0.0
 49
0.0
 49
0.0
 49
0.0
 49
0.0008202099737533
 49
0.0
 49
0.0
 49
0.0
 49
0.0
 49
1.0
 49
0.0
 49
0.0
 49
0.0
 49
0.0
 49
1.0
175
     0
142
0.0008202099737533
142
0.0
142
0.0
142
0.0
142
0.0
142
0.0008202099737533
142
0.0
142
0.0
142
0.0
142
0.0
142
1.0
142
0.0
142
0.0
142
0.0
142
0.0
142
1.0
179
     0
144
0.0008202099737533
144
0.0
144
0.0
144
0.0
144
0.0
144
0.0008202099737533
144
0.0
144
0.0
144
0.0
144
0.0
144
1.0
144
0.0
144
0.0
144
0.0
144
0.0
144
1.0
147
0.0008202099737533
147
0.0
147
0.0
147
0.0
147
0.0
147
0.0008202099737533
147
0.0
147
0.0
147
0.0
147
0.0
147
1.0
147
0.0
147
0.0
147
0.0
147
0.0
147
1.0
  0
MLEADERSTYLE
  5
390
102
{ACAD_REACTORS
330
38F
102
}
330
38F
100
AcDbMLeaderStyle
179
     2
170
     2
171
     1
172
     0
 90
        2
 40
0.0
 41
0.0
173
     1
 91
-1056964608
340
14
 92
       -2
290
     1
 42
2.0
291
     1
 43
0.36
  3
Standard
 44
4.0
300

342
11
174
     1
178
     6
175
     1
176
     0
 93
-1056964608
 45
4.0
292
     0
297
     0
 46
4.0
 94
-1056964608
 47
1.0
 49
1.0
140
1.0
293
     1
141
0.0
294
     1
177
     0
142
1.0
295
     1
296
     0
143
0.125
271
     0
272
     9
273
     9
  0
MLINESTYLE
  5
18
102
{ACAD_REACTORS
330
17
102
}
330
17
100
AcDbMlineStyle
  2
STANDARD
 70
     0
  3

 62
   256
 51
90.0
 52
90.0
 71
     2
 49
0.5
 62
   256
  6
BYLAYER
 49
-0.5
 62
   256
  6
BYLAYER
  0
ACDBPLACEHOLDER
  5
F
102
{ACAD_REACTORS
330
E
102
}
330
E
  0
SCALE
  5
37E
102
{ACAD_REACTORS
330
37D
102
}
330
37D
100
AcDbScale
 70
     0
300
1:1
140
1.0
141
1.0
290
     1
  0
SCALE
  5
37F
102
{ACAD_REACTORS
330
37D
102
}
330
37D
100
AcDbScale
 70
     0
300
1:2
140
1.0
141
2.0
290
     0
  0
SCALE
  5
380
102
{ACAD_REACTORS
330
37D
102
}
330
37D
100
AcDbScale
 70
     0
300
1:4
140
1.0
141
4.0
290
     0
  0
SCALE
  5
381
102
{ACAD_REACTORS
330
37D
102
}
330
37D
100
AcDbScale
 70
     0
300
1:5
140
1.0
141
5.0
290
     0
  0
SCALE
  5
382
102
{ACAD_REACTORS
330
37D
102
}
330
37D
100
AcDbScale
 70
     0
300
1:8
140
1.0
141
8.0
290
     0
  0
SCALE
  5
383
102
{ACAD_REACTORS
330
37D
102
}
330
37D
100
AcDbScale
 70
     0
300
1:10
140
1.0
141
10.0
290
     0
  0
SCALE
  5
384
102
{ACAD_REACTORS
330
37D
102
}
330
37D
100
AcDbScale
 70
     0
300
1:16
140
1.0
141
16.0
290
     0
  0
SCALE
  5
385
102
{ACAD_REACTORS
330
37D
102
}
330
37D
100
AcDbScale
 70
     0
300
1:20
140
1.0
141
20.0
290
     0
  0
SCALE
  5
386
102
{ACAD_REACTORS
330
37D
102
}
330
37D
100
AcDbScale
 70
     0
300
1:30
140
1.0
141
30.0
290
     0
  0
SCALE
  5
387
102
{ACAD_REACTORS
330
37D
102
}
330
37D
100
AcDbScale
 70
     0
300
1:40
140
1.0
141
40.0
290
     0
  0
SCALE
  5
388
102
{ACAD_REACTORS
330
37D
102
}
330
37D
100
AcDbScale
 70
     0
300
1:50
140
1.0
141
50.0
290
     0
  0
SCALE
  5
389
102
{ACAD_REACTORS
330
37D
102
}
330
37D
100
AcDbScale
 70
     0
300
1:100
140
1.0
141
100.0
290
     0
  0
SCALE
  5
38A
102
{ACAD_REACTORS
330
37D
102
}
330
37D
100
AcDbScale
 70
     0
300
2:1
140
2.0
141
1.0
290
     0
  0
SCALE
  5
38B
102
{ACAD_REACTORS
330
37D
102
}
330
37D
100
AcDbScale
 70
     0
300
4:1
140
4.0
141
1.0
290
     0
  0
SCALE
  5
38C
102
{ACAD_REACTORS
330
37D
102
}
330
37D
100
AcDbScale
 70
     0
300
8:1
140
8.0
141
1.0
290
     0
  0
SCALE
  5
38D
102
{ACAD_REACTORS
330
37D
102
}
330
37D
100
AcDbScale
 70
     0
300
10:1
140
10.0
141
1.0
290
     0
  0
SCALE
  5
38E
102
{ACAD_REACTORS
330
37D
102
}
330
37D
100
AcDbScale
 70
     0
300
100:1
140
100.0
141
1.0
290
     0
  0
TABLESTYLE
  5
37C
102
{ACAD_XDICTIONARY
360
39C
102
}
102
{ACAD_REACTORS
330
37B
102
}
330
37B
100
AcDbTableStyle
280
     0
  3
Standard
 70
     0
 71
     0
 40
1.5
 41
1.5
280
     0
281
     0
  7
Standard
140
4.5
170
     2
 62
     0
 63
     7
283
     0
 90
      512
 91
        0
  1

274
    -2
284
     1
 64
     0
275
    -2
285
     1
 65
     0
276
    -2
286
     1
 66
     0
277
    -2
287
     1
 67
     0
278
    -2
288
     1
 68
     0
279
    -2
289
     1
 69
     0
  7
Standard
140
6.0
170
     5
 62
     0
 63
     7
283
     0
 90
      512
 91
        0
  1

274
    -2
284
     1
 64
     0
275
    -2
285
     1
 65
     0
276
    -2
286
     1
 66
     0
277
    -2
287
     1
 67
     0
278
    -2
288
     1
 68
     0
279
    -2
289
     1
 69
     0
  7
Standard
140
4.5
170
     5
 62
     0
 63
     7
283
     0
 90
      512
 91
        0
  1

274
    -2
284
     1
 64
     0
275
    -2
285
     1
 65
     0
276
    -2
286
     1
 66
     0
277
    -2
287
     1
 67
     0
278
    -2
288
     1
 68
     0
279
    -2
289
     1
 69
     0
  0
VISUALSTYLE
  5
36C
102
{ACAD_REACTORS
330
366
102
}
330
366
100
AcDbVisualStyle
  2
2dWireframe
 70
     4
177
     2
291
     0
 71
     0
176
     1
 72
     2
176
     1
 73
     0
176
     1
 90
        0
176
     1
 40
0.6
176
     1
 41
30.0
176
     1
 63
     7
421
 16777215
176
     1
 74
     1
176
     1
 91
        4
176
     1
 64
     7
176
     1
 65
   257
176
     1
 75
     1
176
     1
175
     1
176
     1
 42
1.0
176
     1
 92
        0
176
     1
 66
   257
176
     1
 43
1.0
176
     1
 76
     1
176
     1
 77
     6
176
     1
 78
     2
176
     1
 67
     7
176
     1
 79
     5
176
     1
170
     0
176
     1
171
     0
176
     1
290
     0
176
     1
 93
        1
176
     1
 44
0.0
176
     1
173
     0
176
     1
  0
VISUALSTYLE
  5
36E
102
{ACAD_REACTORS
330
366
102
}
330
366
100
AcDbVisualStyle
  2
3D Hidden
 70
     6
177
     2
291
     0
 71
     1
176
     1
 72
     2
176
     1
 73
     2
176
     1
 90
        0
176
     1
 40
0.6
176
     1
 41
30.0
176
     1
 63
     7
421
 16777215
176
     1
 74
     2
176
     1
 91
        2
176
     1
 64
     7
176
     1
 65
   257
176
     1
 75
     2
176
     1
175
     1
176
     1
 42
179.0
176
     1
 92
        0
176
     1
 66
   257
176
     1
 43
1.0
176
     1
 76
     1
176
     1
 77
     6
176
     1
 78
     2
176
     1
 67
     7
176
     1
 79
     3
176
     1
170
     0
176
     1
171
     0
176
     1
290
     0
176
     1
 93
        1
176
     1
 44
0.0
176
     1
173
     0
176
     1
  0
VISUALSTYLE
  5
36D
102
{ACAD_REACTORS
330
366
102
}
330
366
100
AcDbVisualStyle
  2
3dWireframe
 70
     5
177
     2
291
     0
 71
     0
176
     1
 72
     2
176
     1
 73
     0
176
     1
 90
        0
176
     1
 40
0.6
176
     1
 41
30.0
176
     1
 63
     7
421
 16777215
176
     1
 74
     1
176
     1
 91
        4
176
     1
 64
     7
176
     1
 65
   257
176
     1
 75
     1
176
     1
175
     1
176
     1
 42
1.0
176
     1
 92
        0
176
     1
 66
   257
176
     1
 43
1.0
176
     1
 76
     1
176
     1
 77
     6
176
     1
 78
     2
176
     1
 67
     7
176
     1
 79
     5
176
     1
170
     0
176
     1
171
     0
176
     1
290
     0
176
     1
 93
        1
176
     1
 44
0.0
176
     1
173
     0
176
     1
  0
VISUALSTYLE
  5
36B
102
{ACAD_REACTORS
330
366
102
}
330
366
100
AcDbVisualStyle
  2
Basic
 70
     7
177
     2
291
     1
 71
     1
176
     1
 72
     0
176
     1
 73
     1
176
     1
 90
        0
176
     1
 40
0.6
176
     1
 41
30.0
176
     1
 63
     7
421
 16777215
176
     1
 74
     0
176
     1
 91
        4
176
     1
 64
     7
176
     1
 65
   257
176
     1
 75
     1
176
     1
175
     1
176
     1
 42
1.0
176
     1
 92
        8
176
     1
 66
     7
176
     1
 43
1.0
176
     1
 76
     1
176
     1
 77
     6
176
     1
 78
     2
176
     1
 67
     7
176
     1
 79
     5
176
     1
170
     0
176
     1
171
     0
176
     1
290
     0
176
     1
 93
        1
176
     1
 44
0.0
176
     1
173
     0
176
     1
  0
VISUALSTYLE
  5
372
102
{ACAD_REACTORS
330
366
102
}
330
366
100
AcDbVisualStyle
  2
Brighten
 70
    12
177
     2
291
     1
 71
     2
176
     1
 72
     2
176
     1
 73
     0
176
     1
 90
        0
176
     1
 40
0.6
176
     1
 41
30.0
176
     1
 63
     7
421
 16777215
176
     1
 74
     1
176
     1
 91
        4
176
     1
 64
     7
176
     1
 65
   257
176
     1
 75
     1
176
     1
175
     1
176
     1
 42
1.0
176
     1
 92
        8
176
     1
 66
     7
176
     1
 43
1.0
176
     1
 76
     1
176
     1
 77
     6
176
     1
 78
     2
176
     1
 67
     7
176
     1
 79
     5
176
     1
170
     0
176
     1
171
     0
176
     1
290
     0
176
     1
 93
        1
176
     1
 44
50.0
176
     1
173
     0
176
     1
  0
VISUALSTYLE
  5
376
102
{ACAD_REACTORS
330
366
102
}
330
366
100
AcDbVisualStyle
  2
ColorChange
 70
    16
177
     2
291
     1
 71
     2
176
     1
 72
     2
176
     1
 73
     3
176
     1
 90
        0
176
     1
 40
0.6
176
     1
 41
30.0
176
     1
 63
     8
421
  8421504
176
     1
 74
     1
176
     1
 91
        4
176
     1
 64
     7
176
     1
 65
   257
176
     1
 75
     1
176
     1
175
     1
176
     1
 42
1.0
176
     1
 92
        8
176
     1
 66
     8
424
  8421504
176
     1
 43
1.0
176
     1
 76
     1
176
     1
 77
     6
176
     1
 78
     2
176
     1
 67
     7
176
     1
 79
     5
176
     1
170
     0
176
     1
171
     0
176
     1
290
     0
176
     1
 93
        1
176
     1
 44
0.0
176
     1
173
     0
176
     1
  0
VISUALSTYLE
  5
36F
102
{ACAD_REACTORS
330
366
102
}
330
366
100
AcDbVisualStyle
  2
Conceptual
 70
     9
177
     2
291
     0
 71
     3
176
     1
 72
     2
176
     1
 73
     0
176
     1
 90
        0
176
     1
 40
0.6
176
     1
 41
30.0
176
     1
 63
     7
421
 16777215
176
     1
 74
     2
176
     1
 91
        2
176
     1
 64
     7
176
     1
 65
   257
176
     1
 75
     1
176
     1
175
     1
176
     1
 42
179.0
176
     1
 92
        8
176
     1
 66
     7
176
     1
 43
1.0
176
     1
 76
     1
176
     1
 77
     6
176
     1
 78
     2
176
     1
 67
     7
176
     1
 79
     3
176
     1
170
     0
176
     1
171
     0
176
     1
290
     0
176
     1
 93
        1
176
     1
 44
0.0
176
     1
173
     0
176
     1
  0
VISUALSTYLE
  5
371
102
{ACAD_REACTORS
330
366
102
}
330
366
100
AcDbVisualStyle
  2
Dim
 70
    11
177
     2
291
     1
 71
     2
176
     1
 72
     2
176
     1
 73
     0
176
     1
 90
        0
176
     1
 40
0.6
176
     1
 41
30.0
176
     1
 63
     7
421
 16777215
176
     1
 74
     1
176
     1
 91
        4
176
     1
 64
     7
176
     1
 65
   257
176
     1
 75
     1
176
     1
175
     1
176
     1
 42
1.0
176
     1
 92
        8
176
     1
 66
     7
176
     1
 43
1.0
176
     1
 76
     1
176
     1
 77
     6
176
     1
 78
     2
176
     1
 67
     7
176
     1
 79
     5
176
     1
170
     0
176
     1
171
     0
176
     1
290
     0
176
     1
 93
        1
176
     1
 44
-50.0
176
     1
173
     0
176
     1
  0
VISUALSTYLE
  5
379
102
{ACAD_REACTORS
330
366
102
}
330
366
100
AcDbVisualStyle
  2
EdgeColorOff
 70
    22
177
     2
291
     1
 71
     2
176
     0
 72
     2
176
     0
 73
     0
176
     0
 90
        0
176
     0
 40
0.6
176
     0
 41
30.0
176
     0
 63
     7
421
 16777215
176
     0
 74
     1
176
     0
 91
        4
176
     0
 64
     7
176
     0
 65
   257
176
     0
 75
     1
176
     0
175
     1
176
     0
 42
1.0
176
     0
 92
        8
176
     2
 66
     7
176
     0
 43
1.0
176
     0
 76
     1
176
     0
 77
     6
176
     0
 78
     2
176
     0
 67
     7
176
     0
 79
     5
176
     0
170
     0
176
     0
171
     0
176
     0
290
     0
176
     0
 93
        1
176
     0
 44
0.0
176
     0
173
     0
176
     0
  0
VISUALSTYLE
  5
375
102
{ACAD_REACTORS
330
366
102
}
330
366
100
AcDbVisualStyle
  2
Facepattern
 70
    15
177
     2
291
     1
 71
     2
176
     1
 72
     2
176
     1
 73
     0
176
     1
 90
        0
176
     1
 40
0.6
176
     1
 41
30.0
176
     1
 63
     7
421
 16777215
176
     1
 74
     1
176
     1
 91
        4
176
     1
 64
     7
176
     1
 65
   257
176
     1
 75
     1
176
     1
175
     1
176
     1
 42
1.0
176
     1
 92
        8
176
     1
 66
     7
176
     1
 43
1.0
176
     1
 76
     1
176
     1
 77
     6
176
     1
 78
     2
176
     1
 67
     7
176
     1
 79
     5
176
     1
170
     0
176
     1
171
     0
176
     1
290
     0
176
     1
 93
        1
176
     1
 44
0.0
176
     1
173
     0
176
     1
  0
VISUALSTYLE
  5
367
102
{ACAD_REACTORS
330
366
102
}
330
366
100
AcDbVisualStyle
  2
Flat
 70
     0
177
     2
291
     1
 71
     2
176
     1
 72
     1
176
     1
 73
     1
176
     1
 90
        2
176
     1
 40
0.6
176
     1
 41
30.0
176
     1
 63
     7
421
 16777215
176
     1
 74
     0
176
     1
 91
        4
176
     1
 64
     7
176
     1
 65
   257
176
     1
 75
     1
176
     1
175
     1
176
     1
 42
1.0
176
     1
 92
        8
176
     1
 66
     7
176
     1
 43
1.0
176
     1
 76
     1
176
     1
 77
     6
176
     1
 78
     2
176
     1
 67
     7
176
     1
 79
     5
176
     1
170
     0
176
     1
171
     0
176
     1
290
     0
176
     1
 93
       13
176
     1
 44
0.0
176
     1
173
     0
176
     1
  0
VISUALSTYLE
  5
368
102
{ACAD_REACTORS
330
366
102
}
330
366
100
AcDbVisualStyle
  2
FlatWithEdges
 70
     1
177
     2
291
     1
 71
     2
176
     1
 72
     1
176
     1
 73
     1
176
     1
 90
        2
176
     1
 40
0.6
176
     1
 41
30.0
176
     1
 63
     7
421
 16777215
176
     1
 74
     1
176
     1
 91
        4
176
     1
 64
     7
176
     1
 65
   257
176
     1
 75
     1
176
     1
175
     1
176
     1
 42
1.0
176
     1
 92
        0
176
     1
 66
   257
176
     1
 43
1.0
176
     1
 76
     1
176
     1
 77
     6
176
     1
 78
     2
176
     1
 67
     7
176
     1
 79
     5
176
     1
170
     0
176
     1
171
     0
176
     1
290
     0
176
     1
 93
       13
176
     1
 44
0.0
176
     1
173
     0
176
     1
  0
VISUALSTYLE
  5
369
102
{ACAD_REACTORS
330
366
102
}
330
366
100
AcDbVisualStyle
  2
Gouraud
 70
     2
177
     2
291
     1
 71
     2
176
     1
 72
     2
176
     1
 73
     1
176
     1
 90
        2
176
     1
 40
0.6
176
     1
 41
30.0
176
     1
 63
     7
421
 16777215
176
     1
 74
     0
176
     1
 91
        4
176
     1
 64
     7
176
     1
 65
   257
176
     1
 75
     1
176
     1
175
     1
176
     1
 42
1.0
176
     1
 92
        0
176
     1
 66
     7
176
     1
 43
1.0
176
     1
 76
     1
176
     1
 77
     6
176
     1
 78
     2
176
     1
 67
     7
176
     1
 79
     5
176
     1
170
     0
176
     1
171
     0
176
     1
290
     0
176
     1
 93
       13
176
     1
 44
0.0
176
     1
173
     0
176
     1
  0
VISUALSTYLE
  5
36A
102
{ACAD_REACTORS
330
366
102
}
330
366
100
AcDbVisualStyle
  2
GouraudWithEdges
 70
     3
177
     2
291
     1
 71
     2
176
     1
 72
     2
176
     1
 73
     1
176
     1
 90
        2
176
     1
 40
0.6
176
     1
 41
30.0
176
     1
 63
     7
421
 16777215
176
     1
 74
     1
176
     1
 91
        4
176
     1
 64
     7
176
     1
 65
   257
176
     1
 75
     1
176
     1
175
     1
176
     1
 42
1.0
176
     1
 92
        0
176
     1
 66
   257
176
     1
 43
1.0
176
     1
 76
     1
176
     1
 77
     6
176
     1
 78
     2
176
     1
 67
     7
176
     1
 79
     5
176
     1
170
     0
176
     1
171
     0
176
     1
290
     0
176
     1
 93
       13
176
     1
 44
0.0
176
     1
173
     0
176
     1
  0
VISUALSTYLE
  5
377
102
{ACAD_REACTORS
330
366
102
}
330
366
100
AcDbVisualStyle
  2
JitterOff
 70
    20
177
     2
291
     1
 71
     2
176
     0
 72
     2
176
     0
 73
     0
176
     0
 90
        0
176
     0
 40
0.6
176
     0
 41
30.0
176
     0
 63
     7
421
 16777215
176
     0
 74
     1
176
     0
 91
        4
176
     0
 64
     7
176
     0
 65
   257
176
     0
 75
     1
176
     0
175
     1
176
     0
 42
1.0
176
     0
 92
       10
176
     2
 66
     7
176
     0
 43
1.0
176
     0
 76
     1
176
     0
 77
     6
176
     0
 78
     2
176
     0
 67
     7
176
     0
 79
     5
176
     0
170
     0
176
     0
171
     0
176
     0
290
     0
176
     0
 93
        1
176
     0
 44
0.0
176
     0
173
     0
176
     0
  0
VISUALSTYLE
  5
374
102
{ACAD_REACTORS
330
366
102
}
330
366
100
AcDbVisualStyle
  2
Linepattern
 70
    14
177
     2
291
     1
 71
     2
176
     1
 72
     2
176
     1
 73
     0
176
     1
 90
        0
176
     1
 40
0.6
176
     1
 41
30.0
176
     1
 63
     7
421
 16777215
176
     1
 74
     1
176
     1
 91
        4
176
     1
 64
     7
176
     1
 65
   257
176
     1
 75
     7
176
     1
175
     7
176
     1
 42
1.0
176
     1
 92
        8
176
     1
 66
     7
176
     1
 43
1.0
176
     1
 76
     1
176
     1
 77
     6
176
     1
 78
     2
176
     1
 67
     7
176
     1
 79
     5
176
     1
170
     0
176
     1
171
     0
176
     1
290
     0
176
     1
 93
        1
176
     1
 44
0.0
176
     1
173
     0
176
     1
  0
VISUALSTYLE
  5
378
102
{ACAD_REACTORS
330
366
102
}
330
366
100
AcDbVisualStyle
  2
OverhangOff
 70
    21
177
     2
291
     1
 71
     2
176
     0
 72
     2
176
     0
 73
     0
176
     0
 90
        0
176
     0
 40
0.6
176
     0
 41
30.0
176
     0
 63
     7
421
 16777215
176
     0
 74
     1
176
     0
 91
        4
176
     0
 64
     7
176
     0
 65
   257
176
     0
 75
     1
176
     0
175
     1
176
     0
 42
1.0
176
     0
 92
        9
176
     2
 66
     7
176
     0
 43
1.0
176
     0
 76
     1
176
     0
 77
     6
176
     0
 78
     2
176
     0
 67
     7
176
     0
 79
     5
176
     0
170
     0
176
     0
171
     0
176
     0
290
     0
176
     0
 93
        1
176
     0
 44
0.0
176
     0
173
     0
176
     0
  0
VISUALSTYLE
  5
370
102
{ACAD_REACTORS
330
366
102
}
330
366
100
AcDbVisualStyle
  2
Realistic
 70
     8
177
     2
291
     0
 71
     2
176
     1
 72
     2
176
     1
 73
     0
176
     1
 90
        0
176
     1
 40
0.6
176
     1
 41
30.0
176
     1
 63
     7
421
 16777215
176
     1
 74
     1
176
     1
 91
        0
176
     1
 64
     7
176
     1
 65
   257
176
     1
 75
     1
176
     1
175
     1
176
     1
 42
1.0
176
     1
 92
        8
176
     1
 66
     8
424
  7895160
176
     1
 43
1.0
176
     1
 76
     1
176
     1
 77
     6
176
     1
 78
     2
176
     1
 67
     7
176
     1
 79
     5
176
     1
170
     0
176
     1
171
     0
176
     1
290
     0
176
     1
 93
       13
176
     1
 44
0.0
176
     1
173
     0
176
     1
  0
VISUALSTYLE
  5
373
102
{ACAD_REACTORS
330
366
102
}
330
366
100
AcDbVisualStyle
  2
Thicken
 70
    13
177
     2
291
     1
 71
     2
176
     1
 72
     2
176
     1
 73
     0
176
     1
 90
        0
176
     1
 40
0.6
176
     1
 41
30.0
176
     1
 63
     7
421
 16777215
176
     1
 74
     1
176
     1
 91
        4
176
     1
 64
     7
176
     1
 65
   257
176
     1
 75
     1
176
     1
175
     1
176
     1
 42
1.0
176
     1
 92
       12
176
     1
 66
     7
176
     1
 43
1.0
176
     1
 76
     1
176
     1
 77
     6
176
     1
 78
     2
176
     1
 67
     7
176
     1
 79
     5
176
     1
170
     0
176
     1
171
     0
176
     1
290
     0
176
     1
 93
        1
176
     1
 44
0.0
176
     1
173
     0
176
     1
  0
DICTIONARYVAR
  5
398
102
{ACAD_REACTORS
330
5E
102
}
330
5E
100
DictionaryVariables
280
     0
  1
1:1
  0
DICTIONARYVAR
  5
396
102
{ACAD_REACTORS
330
5E
102
}
330
5E
100
DictionaryVariables
280
     0
  1
STANDARD
  0
DICTIONARYVAR
  5
395
102
{ACAD_REACTORS
330
5E
102
}
330
5E
100
DictionaryVariables
280
     0
  1
STANDARD
  0
DICTIONARYVAR
  5
5F
102
{ACAD_REACTORS
330
5E
102
}
330
5E
100
DictionaryVariables
280
     0
  1
2
  0
DICTIONARYVAR
  5
63
102
{ACAD_REACTORS
330
5E
102
}
330
5E
100
DictionaryVariables
280
     0
  1
1
  0
DICTIONARYVAR
  5
39A
102
{ACAD_REACTORS
330
5E
102
}
330
5E
100
DictionaryVariables
280
     0
  1
1
  0
DICTIONARYVAR
  5
39B
102
{ACAD_REACTORS
330
5E
102
}
330
5E
100
DictionaryVariables
280
     0
  1
15
  0
DICTIONARYVAR
  5
399
102
{ACAD_REACTORS
330
5E
102
}
330
5E
100
DictionaryVariables
280
     0
  1
0
  0
DICTIONARYVAR
  5
397
102
{ACAD_REACTORS
330
5E
102
}
330
5E
100
DictionaryVariables
280
     0
  1
0
  0
DICTIONARY
  5
357
330
356
100
AcDbDictionary
280
     1
281
     1
  3
BUMPTILE
360
359
  3
DIFFUSETILE
360
358
  3
OPACITYTILE
360
35C
  3
REFLECTIONTILE
360
35B
  3
REFRACTIONTILE
360
35D
  3
SPECULARTILE
360
35A
  0
DICTIONARY
  5
34F
330
34E
100
AcDbDictionary
280
     1
281
     1
  3
BUMPTILE
360
351
  3
DIFFUSETILE
360
350
  3
OPACITYTILE
360
354
  3
REFLECTIONTILE
360
353
  3
REFRACTIONTILE
360
355
  3
SPECULARTILE
360
352
  0
DICTIONARY
  5
35F
330
35E
100
AcDbDictionary
280
     1
281
     1
  3
BUMPTILE
360
361
  3
DIFFUSETILE
360
360
  3
OPACITYTILE
360
364
  3
REFLECTIONTILE
360
363
  3
REFRACTIONTILE
360
365
  3
SPECULARTILE
360
362
  0
DICTIONARY
  5
39C
330
37C
100
AcDbDictionary
280
     1
281
     1
  3
ACAD_ROUNDTRIP_2008_TABLESTYLE_CELLSTYLEMAP
360
39D
  0
XRECORD
  5
359
102
{ACAD_REACTORS
330
357
102
}
330
357
100
AcDbXrecord
280
     1
270
     1
271
     1
  0
XRECORD
  5
358
102
{ACAD_REACTORS
330
357
102
}
330
357
100
AcDbXrecord
280
     1
270
     1
271
     1
  0
XRECORD
  5
35C
102
{ACAD_REACTORS
330
357
102
}
330
357
100
AcDbXrecord
280
     1
270
     1
271
     1
  0
XRECORD
  5
35B
102
{ACAD_REACTORS
330
357
102
}
330
357
100
AcDbXrecord
280
     1
270
     1
271
     1
  0
XRECORD
  5
35D
102
{ACAD_REACTORS
330
357
102
}
330
357
100
AcDbXrecord
280
     1
270
     1
271
     1
  0
XRECORD
  5
35A
102
{ACAD_REACTORS
330
357
102
}
330
357
100
AcDbXrecord
280
     1
270
     1
271
     1
  0
XRECORD
  5
351
102
{ACAD_REACTORS
330
34F
102
}
330
34F
100
AcDbXrecord
280
     1
270
     1
271
     1
  0
XRECORD
  5
350
102
{ACAD_REACTORS
330
34F
102
}
330
34F
100
AcDbXrecord
280
     1
270
     1
271
     1
  0
XRECORD
  5
354
102
{ACAD_REACTORS
330
34F
102
}
330
34F
100
AcDbXrecord
280
     1
270
     1
271
     1
  0
XRECORD
  5
353
102
{ACAD_REACTORS
330
34F
102
}
330
34F
100
AcDbXrecord
280
     1
270
     1
271
     1
  0
XRECORD
  5
355
102
{ACAD_REACTORS
330
34F
102
}
330
34F
100
AcDbXrecord
280
     1
270
     1
271
     1
  0
XRECORD
  5
352
102
{ACAD_REACTORS
330
34F
102
}
330
34F
100
AcDbXrecord
280
     1
270
     1
271
     1
  0
XRECORD
  5
361
102
{ACAD_REACTORS
330
35F
102
}
330
35F
100
AcDbXrecord
280
     1
270
     1
271
     1
  0
XRECORD
  5
360
102
{ACAD_REACTORS
330
35F
102
}
330
35F
100
AcDbXrecord
280
     1
270
     1
271
     1
  0
XRECORD
  5
364
102
{ACAD_REACTORS
330
35F
102
}
330
35F
100
AcDbXrecord
280
     1
270
     1
271
     1
  0
XRECORD
  5
363
102
{ACAD_REACTORS
330
35F
102
}
330
35F
100
AcDbXrecord
280
     1
270
     1
271
     1
  0
XRECORD
  5
365
102
{ACAD_REACTORS
330
35F
102
}
330
35F
100
AcDbXrecord
280
     1
270
     1
271
     1
  0
XRECORD
  5
362
102
{ACAD_REACTORS
330
35F
102
}
330
35F
100
AcDbXrecord
280
     1
270
     1
271
     1
  0
CELLSTYLEMAP
  5
39D
102
{ACAD_REACTORS
330
39C
102
}
330
39C
100
AcDbCellStyleMap
 90
        3
300
CELLSTYLE
  1
TABLEFORMAT_BEGIN
 90
        5
170
     1
 91
        0
 92
    32768
 62
   257
 93
        1
300
CONTENTFORMAT
  1
CONTENTFORMAT_BEGIN
 90
        0
 91
        0
 92
      512
 93
        0
300

 40
0.0
140
1.0
 94
        5
 62
     0
340
11
144
6.0
309
CONTENTFORMAT_END
171
     1
301
MARGIN
  1
CELLMARGIN_BEGIN
 40
1.5
 40
1.5
 40
1.5
 40
1.5
 40
4.5
 40
4.5
309
CELLMARGIN_END
 94
        6
 95
        1
302
GRIDFORMAT
  1
GRIDFORMAT_BEGIN
 90
        0
 91
        1
 62
     0
 92
       -2
340
0
 93
        0
 40
1.125
309
GRIDFORMAT_END
 95
        2
302
GRIDFORMAT
  1
GRIDFORMAT_BEGIN
 90
        0
 91
        1
 62
     0
 92
       -2
340
0
 93
        0
 40
1.125
309
GRIDFORMAT_END
 95
        4
302
GRIDFORMAT
  1
GRIDFORMAT_BEGIN
 90
        0
 91
        1
 62
     0
 92
       -2
340
0
 93
        0
 40
1.125
309
GRIDFORMAT_END
 95
        8
302
GRIDFORMAT
  1
GRIDFORMAT_BEGIN
 90
        0
 91
        1
 62
     0
 92
       -2
340
0
 93
        0
 40
1.125
309
GRIDFORMAT_END
 95
       16
302
GRIDFORMAT
  1
GRIDFORMAT_BEGIN
 90
        0
 91
        1
 62
     0
 92
       -2
340
0
 93
        0
 40
1.125
309
GRIDFORMAT_END
 95
       32
302
GRIDFORMAT
  1
GRIDFORMAT_BEGIN
 90
        0
 91
        1
 62
     0
 92
       -2
340
0
 93
        0
 40
1.125
309
GRIDFORMAT_END
309
TABLEFORMAT_END
  1
CELLSTYLE_BEGIN
 90
        1
 91
        1
300
_TITLE
309
CELLSTYLE_END
300
CELLSTYLE
  1
TABLEFORMAT_BEGIN
 90
        5
170
     1
 91
        0
 92
        0
 62
   257
 93
        1
300
CONTENTFORMAT
  1
CONTENTFORMAT_BEGIN
 90
        0
 91
        0
 92
      512
 93
        0
300

 40
0.0
140
1.0
 94
        5
 62
     0
340
11
144
4.5
309
CONTENTFORMAT_END
171
     1
301
MARGIN
  1
CELLMARGIN_BEGIN
 40
1.5
 40
1.5
 40
1.5
 40
1.5
 40
4.5
 40
4.5
309
CELLMARGIN_END
 94
        6
 95
        1
302
GRIDFORMAT
  1
GRIDFORMAT_BEGIN
 90
        0
 91
        1
 62
     0
 92
       -2
340
0
 93
        0
 40
1.125
309
GRIDFORMAT_END
 95
        2
302
GRIDFORMAT
  1
GRIDFORMAT_BEGIN
 90
        0
 91
        1
 62
     0
 92
       -2
340
0
 93
        0
 40
1.125
309
GRIDFORMAT_END
 95
        4
302
GRIDFORMAT
  1
GRIDFORMAT_BEGIN
 90
        0
 91
        1
 62
     0
 92
       -2
340
0
 93
        0
 40
1.125
309
GRIDFORMAT_END
 95
        8
302
GRIDFORMAT
  1
GRIDFORMAT_BEGIN
 90
        0
 91
        1
 62
     0
 92
       -2
340
0
 93
        0
 40
1.125
309
GRIDFORMAT_END
 95
       16
302
GRIDFORMAT
  1
GRIDFORMAT_BEGIN
 90
        0
 91
        1
 62
     0
 92
       -2
340
0
 93
        0
 40
1.125
309
GRIDFORMAT_END
 95
       32
302
GRIDFORMAT
  1
GRIDFORMAT_BEGIN
 90
        0
 91
        1
 62
     0
 92
       -2
340
0
 93
        0
 40
1.125
309
GRIDFORMAT_END
309
TABLEFORMAT_END
  1
CELLSTYLE_BEGIN
 90
        2
 91
        1
300
_HEADER
309
CELLSTYLE_END
300
CELLSTYLE
  1
TABLEFORMAT_BEGIN
 90
        5
170
     1
 91
        0
 92
        0
 62
   257
 93
        1
300
CONTENTFORMAT
  1
CONTENTFORMAT_BEGIN
 90
        0
 91
        0
 92
      512
 93
        0
300

 40
0.0
140
1.0
 94
        2
 62
     0
340
11
144
4.5
309
CONTENTFORMAT_END
171
     1
301
MARGIN
  1
CELLMARGIN_BEGIN
 40
1.5
 40
1.5
 40
1.5
 40
1.5
 40
4.5
 40
4.5
309
CELLMARGIN_END
 94
        6
 95
        1
302
GRIDFORMAT
  1
GRIDFORMAT_BEGIN
 90
        0
 91
        1
 62
     0
 92
       -2
340
0
 93
        0
 40
1.125
309
GRIDFORMAT_END
 95
        2
302
GRIDFORMAT
  1
GRIDFORMAT_BEGIN
 90
        0
 91
        1
 62
     0
 92
       -2
340
0
 93
        0
 40
1.125
309
GRIDFORMAT_END
 95
        4
302
GRIDFORMAT
  1
GRIDFORMAT_BEGIN
 90
        0
 91
        1
 62
     0
 92
       -2
340
0
 93
        0
 40
1.125
309
GRIDFORMAT_END
 95
        8
302
GRIDFORMAT
  1
GRIDFORMAT_BEGIN
 90
        0
 91
        1
 62
     0
 92
       -2
340
0
 93
        0
 40
1.125
309
GRIDFORMAT_END
 95
       16
302
GRIDFORMAT
  1
GRIDFORMAT_BEGIN
 90
        0
 91
        1
 62
     0
 92
       -2
340
0
 93
        0
 40
1.125
309
GRIDFORMAT_END
 95
       32
302
GRIDFORMAT
  1
GRIDFORMAT_BEGIN
 90
        0
 91
        1
 62
     0
 92
       -2
340
0
 93
        0
 40
1.125
309
GRIDFORMAT_END
309
TABLEFORMAT_END
  1
CELLSTYLE_BEGIN
 90
        3
 91
        2
300
_DATA
309
CELLSTYLE_END
  0
ENDSEC
  0
EOF
