  0
SECTION
  2
HEADER
  9
$ACADVER
  1
AC1024
  9
$ACADMAINTVER
 70
     6
  9
$DWGCODEPAGE
  3
ANSI_932
  9
$LASTSAVEDBY
  1
kanatani
  9
$INSBASE
 10
0.0
 20
0.0
 30
0.0
  9
$EXTMIN
 10
-73.99997592005958
 20
-61.21054956181317
 30
0.0
  9
$EXTMAX
 10
273.9999759200507
 20
278.9087451486935
 30
0.0
  9
$LIMMIN
 10
0.0
 20
0.0
  9
$LIMMAX
 10
420.0
 20
297.0
  9
$ORTHOMODE
 70
     0
  9
$REGENMODE
 70
     1
  9
$FILLMODE
 70
     1
  9
$QTEXTMODE
 70
     0
  9
$MIRRTEXT
 70
     1
  9
$LTSCALE
 40
0.2
  9
$ATTMODE
 70
     1
  9
$TEXTSIZE
 40
2.5
  9
$TRACEWID
 40
1.0
  9
$TEXTSTYLE
  7
Standard
  9
$CLAYER
  8
0
  9
$CELTYPE
  6
ByLayer
  9
$CECOLOR
 62
   256
  9
$CELTSCALE
 40
1.0
  9
$DISPSILH
 70
     0
  9
$DIMSCALE
 40
1.0
  9
$DIMASZ
 40
2.5
  9
$DIMEXO
 40
0.625
  9
$DIMDLI
 40
3.75
  9
$DIMRND
 40
0.0
  9
$DIMDLE
 40
0.0
  9
$DIMEXE
 40
1.25
  9
$DIMTP
 40
0.0
  9
$DIMTM
 40
0.0
  9
$DIMTXT
 40
2.5
  9
$DIMCEN
 40
2.5
  9
$DIMTSZ
 40
0.0
  9
$DIMTOL
 70
     0
  9
$DIMLIM
 70
     0
  9
$DIMTIH
 70
     0
  9
$DIMTOH
 70
     0
  9
$DIMSE1
 70
     0
  9
$DIMSE2
 70
     0
  9
$DIMTAD
 70
     1
  9
$DIMZIN
 70
     8
  9
$DIMBLK
  1

  9
$DIMASO
 70
     1
  9
$DIMSHO
 70
     1
  9
$DIMPOST
  1

  9
$DIMAPOST
  1

  9
$DIMALT
 70
     0
  9
$DIMALTD
 70
     3
  9
$DIMALTF
 40
0.03937007874016
  9
$DIMLFAC
 40
1.0
  9
$DIMTOFL
 70
     1
  9
$DIMTVP
 40
0.0
  9
$DIMTIX
 70
     0
  9
$DIMSOXD
 70
     0
  9
$DIMSAH
 70
     0
  9
$DIMBLK1
  1

  9
$DIMBLK2
  1

  9
$DIMSTYLE
  2
ISO-25
  9
$DIMCLRD
 70
     0
  9
$DIMCLRE
 70
     0
  9
$DIMCLRT
 70
     0
  9
$DIMTFAC
 40
1.0
  9
$DIMGAP
 40
0.625
  9
$DIMJUST
 70
     0
  9
$DIMSD1
 70
     0
  9
$DIMSD2
 70
     0
  9
$DIMTOLJ
 70
     0
  9
$DIMTZIN
 70
     8
  9
$DIMALTZ
 70
     0
  9
$DIMALTTZ
 70
     0
  9
$DIMUPT
 70
     0
  9
$DIMDEC
 70
     2
  9
$DIMTDEC
 70
     2
  9
$DIMALTU
 70
     2
  9
$DIMALTTD
 70
     3
  9
$DIMTXSTY
  7
Standard
  9
$DIMAUNIT
 70
     0
  9
$DIMADEC
 70
     0
  9
$DIMALTRND
 40
0.0
  9
$DIMAZIN
 70
     0
  9
$DIMDSEP
 70
    44
  9
$DIMATFIT
 70
     3
  9
$DIMFRAC
 70
     0
  9
$DIMLDRBLK
  1

  9
$DIMLUNIT
 70
     2
  9
$DIMLWD
 70
    -2
  9
$DIMLWE
 70
    -2
  9
$DIMTMOVE
 70
     0
  9
$DIMFXL
 40
1.0
  9
$DIMFXLON
 70
     0
  9
$DIMJOGANG
 40
0.7853981633974483
  9
$DIMTFILL
 70
     0
  9
$DIMTFILLCLR
 70
     0
  9
$DIMARCSYM
 70
     0
  9
$DIMLTYPE
  6

  9
$DIMLTEX1
  6

  9
$DIMLTEX2
  6

  9
$DIMTXTDIRECTION
 70
     0
  9
$LUNITS
 70
     2
  9
$LUPREC
 70
     4
  9
$SKETCHINC
 40
1.0
  9
$FILLETRAD
 40
10.0
  9
$AUNITS
 70
     0
  9
$AUPREC
 70
     0
  9
$MENU
  1
.
  9
$ELEVATION
 40
0.0
  9
$PELEVATION
 40
0.0
  9
$THICKNESS
 40
0.0
  9
$LIMCHECK
 70
     0
  9
$CHAMFERA
 40
10.0
  9
$CHAMFERB
 40
10.0
  9
$CHAMFERC
 40
20.0
  9
$CHAMFERD
 40
0.0
  9
$SKPOLY
 70
     0
  9
$TDCREATE
 40
2456874.593217083
  9
$TDUCREATE
 40
2456874.218217083
  9
$TDUPDATE
 40
2456910.412361204
  9
$TDUUPDATE
 40
2456910.037361204
  9
$TDINDWG
 40
0.0122299769
  9
$TDUSRTIMER
 40
0.0122299653
  9
$USRTIMER
 70
     1
  9
$ANGBASE
 50
0.0
  9
$ANGDIR
 70
     0
  9
$PDMODE
 70
     0
  9
$PDSIZE
 40
0.0
  9
$PLINEWID
 40
0.0
  9
$SPLFRAME
 70
     0
  9
$SPLINETYPE
 70
     6
  9
$SPLINESEGS
 70
     8
  9
$HANDSEED
  5
3AE
  9
$SURFTAB1
 70
     6
  9
$SURFTAB2
 70
     6
  9
$SURFTYPE
 70
     6
  9
$SURFU
 70
     6
  9
$SURFV
 70
     6
  9
$UCSBASE
  2

  9
$UCSNAME
  2

  9
$UCSORG
 10
0.0
 20
0.0
 30
0.0
  9
$UCSXDIR
 10
1.0
 20
0.0
 30
0.0
  9
$UCSYDIR
 10
0.0
 20
1.0
 30
0.0
  9
$UCSORTHOREF
  2

  9
$UCSORTHOVIEW
 70
     0
  9
$UCSORGTOP
 10
0.0
 20
0.0
 30
0.0
  9
$UCSORGBOTTOM
 10
0.0
 20
0.0
 30
0.0
  9
$UCSORGLEFT
 10
0.0
 20
0.0
 30
0.0
  9
$UCSORGRIGHT
 10
0.0
 20
0.0
 30
0.0
  9
$UCSORGFRONT
 10
0.0
 20
0.0
 30
0.0
  9
$UCSORGBACK
 10
0.0
 20
0.0
 30
0.0
  9
$PUCSBASE
  2

  9
$PUCSNAME
  2

  9
$PUCSORG
 10
0.0
 20
0.0
 30
0.0
  9
$PUCSXDIR
 10
1.0
 20
0.0
 30
0.0
  9
$PUCSYDIR
 10
0.0
 20
1.0
 30
0.0
  9
$PUCSORTHOREF
  2

  9
$PUCSORTHOVIEW
 70
     0
  9
$PUCSORGTOP
 10
0.0
 20
0.0
 30
0.0
  9
$PUCSORGBOTTOM
 10
0.0
 20
0.0
 30
0.0
  9
$PUCSORGLEFT
 10
0.0
 20
0.0
 30
0.0
  9
$PUCSORGRIGHT
 10
0.0
 20
0.0
 30
0.0
  9
$PUCSORGFRONT
 10
0.0
 20
0.0
 30
0.0
  9
$PUCSORGBACK
 10
0.0
 20
0.0
 30
0.0
  9
$USERI1
 70
     0
  9
$USERI2
 70
     0
  9
$USERI3
 70
     0
  9
$USERI4
 70
     0
  9
$USERI5
 70
     0
  9
$USERR1
 40
0.0
  9
$USERR2
 40
0.0
  9
$USERR3
 40
0.0
  9
$USERR4
 40
0.0
  9
$USERR5
 40
0.0
  9
$WORLDVIEW
 70
     1
  9
$SHADEDGE
 70
     3
  9
$SHADEDIF
 70
    70
  9
$TILEMODE
 70
     1
  9
$MAXACTVP
 70
    64
  9
$PINSBASE
 10
0.0
 20
0.0
 30
0.0
  9
$PLIMCHECK
 70
     0
  9
$PEXTMIN
 10
26.66076962115563
 20
20.31135699206658
 30
-0.0015258207003583
  9
$PEXTMAX
 10
240.039213369355
 20
182.8886381005154
 30
0.0000000349246037
  9
$PLIMMIN
 10
-6.350006103515625
 20
-6.349999904632568
  9
$PLIMMAX
 10
273.0499877929688
 20
209.5499939918518
  9
$UNITMODE
 70
     0
  9
$VISRETAIN
 70
     1
  9
$PLINEGEN
 70
     0
  9
$PSLTSCALE
 70
     1
  9
$TREEDEPTH
 70
  3020
  9
$CMLSTYLE
  2
Standard
  9
$CMLJUST
 70
     0
  9
$CMLSCALE
 40
20.0
  9
$PROXYGRAPHICS
 70
     1
  9
$MEASUREMENT
 70
     1
  9
$CELWEIGHT
370
    -1
  9
$ENDCAPS
280
     0
  9
$JOINSTYLE
280
     0
  9
$LWDISPLAY
290
     0
  9
$INSUNITS
 70
     4
  9
$HYPERLINKBASE
  1

  9
$STYLESHEET
  1

  9
$XEDIT
290
     1
  9
$CEPSNTYPE
380
     0
  9
$PSTYLEMODE
290
     1
  9
$FINGERPRINTGUID
  2
{FDEAD578-A652-11D2-9A35-0060089B3A3F}
  9
$VERSIONGUID
  2
{10CC1433-AA13-40A9-8D5A-5F0351712C50}
  9
$EXTNAMES
290
     1
  9
$PSVPSCALE
 40
0.0
  9
$OLESTARTUP
290
     0
  9
$SORTENTS
280
   127
  9
$INDEXCTL
280
     0
  9
$HIDETEXT
280
     1
  9
$XCLIPFRAME
280
     2
  9
$HALOGAP
280
     0
  9
$OBSCOLOR
 70
   257
  9
$OBSLTYPE
280
     0
  9
$INTERSECTIONDISPLAY
280
     0
  9
$INTERSECTIONCOLOR
 70
   257
  9
$DIMASSOC
280
     2
  9
$PROJECTNAME
  1

  9
$CAMERADISPLAY
290
     0
  9
$LENSLENGTH
 40
50.0
  9
$CAMERAHEIGHT
 40
0.0
  9
$STEPSPERSEC
 40
2.0
  9
$STEPSIZE
 40
6.0
  9
$3DDWFPREC
 40
2.0
  9
$PSOLWIDTH
 40
0.25
  9
$PSOLHEIGHT
 40
4.0
  9
$LOFTANG1
 40
1.570796326794896
  9
$LOFTANG2
 40
1.570796326794896
  9
$LOFTMAG1
 40
0.0
  9
$LOFTMAG2
 40
0.0
  9
$LOFTPARAM
 70
     7
  9
$LOFTNORMALS
280
     1
  9
$LATITUDE
 40
37.795
  9
$LONGITUDE
 40
-122.394
  9
$NORTHDIRECTION
 40
0.0
  9
$TIMEZONE
 70
 -8000
  9
$LIGHTGLYPHDISPLAY
280
     1
  9
$TILEMODELIGHTSYNCH
280
     1
  9
$CMATERIAL
347
35B
  9
$SOLIDHIST
280
     1
  9
$SHOWHIST
280
     1
  9
$DWFFRAME
280
     2
  9
$DGNFRAME
280
     0
  9
$REALWORLDSCALE
290
     1
  9
$INTERFERECOLOR
 62
     1
  9
$INTERFEREOBJVS
345
37D
  9
$INTERFEREVPVS
346
37A
  9
$CSHADOW
280
     0
  9
$SHADOWPLANELOCATION
 40
0.0
  0
ENDSEC
  0
SECTION
  2
CLASSES
  0
CLASS
  1
ACDBDICTIONARYWDFLT
  2
AcDbDictionaryWithDefault
  3
ObjectDBX Classes
 90
        0
 91
        1
280
     0
281
     0
  0
CLASS
  1
DICTIONARYVAR
  2
AcDbDictionaryVar
  3
ObjectDBX Classes
 90
        0
 91
        9
280
     0
281
     0
  0
CLASS
  1
MATERIAL
  2
AcDbMaterial
  3
ObjectDBX Classes
 90
     1153
 91
        3
280
     0
281
     0
  0
CLASS
  1
VISUALSTYLE
  2
AcDbVisualStyle
  3
ObjectDBX Classes
 90
     4095
 91
       19
280
     0
281
     0
  0
CLASS
  1
TABLESTYLE
  2
AcDbTableStyle
  3
ObjectDBX Classes
 90
     4095
 91
        1
280
     0
281
     0
  0
CLASS
  1
SCALE
  2
AcDbScale
  3
ObjectDBX Classes
 90
     1153
 91
       17
280
     0
281
     0
  0
CLASS
  1
MLEADERSTYLE
  2
AcDbMLeaderStyle
  3
ACDB_MLEADERSTYLE_CLASS
 90
     4095
 91
        1
280
     0
281
     0
  0
CLASS
  1
CELLSTYLEMAP
  2
AcDbCellStyleMap
  3
ObjectDBX Classes
 90
     1152
 91
        1
280
     0
281
     0
  0
ENDSEC
  0
SECTION
  2
TABLES
  0
TABLE
  2
VPORT
  5
8
330
0
100
AcDbSymbolTable
 70
     1
  0
VPORT
  5
358
330
8
100
AcDbSymbolTableRecord
100
AcDbViewportTableRecord
  2
*Active
 70
     0
 10
0.0
 20
0.0
 11
1.0
 21
1.0
 12
100.0022286433264
 22
117.7125137899789
 13
0.0
 23
0.0
 14
10.0
 24
10.0
 15
10.0
 25
10.0
 16
0.0
 26
0.0
 36
1.0
 17
0.0
 27
0.0
 37
0.0
 40
360.0521216106923
 41
1.857142857142857
 42
50.0
 43
0.0
 44
0.0
 50
0.0
 51
0.0
 71
     0
 72
   100
 73
     1
 74
     3
 75
     0
 76
     0
 77
     0
 78
     0
281
     0
 65
     1
110
0.0
120
0.0
130
0.0
111
1.0
121
0.0
131
0.0
112
0.0
122
1.0
132
0.0
 79
     0
146
0.0
348
379
 60
     3
 61
     5
292
     1
282
     1
141
0.0
142
0.0
 63
   250
421
  3355443
  0
ENDTAB
  0
TABLE
  2
LTYPE
  5
5
330
0
100
AcDbSymbolTable
 70
     4
  0
LTYPE
  5
14
330
5
100
AcDbSymbolTableRecord
100
AcDbLinetypeTableRecord
  2
ByBlock
 70
     0
  3

 72
    65
 73
     0
 40
0.0
  0
LTYPE
  5
15
330
5
100
AcDbSymbolTableRecord
100
AcDbLinetypeTableRecord
  2
ByLayer
 70
     0
  3

 72
    65
 73
     0
 40
0.0
  0
LTYPE
  5
16
330
5
100
AcDbSymbolTableRecord
100
AcDbLinetypeTableRecord
  2
Continuous
 70
     0
  3
Solid line
 72
    65
 73
     0
 40
0.0
  0
LTYPE
  5
8D
330
5
100
AcDbSymbolTableRecord
100
AcDbLinetypeTableRecord
  2
CENTER
 70
     0
  3
Center ____ _ ____ _ ____ _ ____ _ ____ _ ____
 72
    65
 73
     4
 40
50.8
 49
31.75
 74
     0
 49
-6.349999999999999
 74
     0
 49
6.349999999999999
 74
     0
 49
-6.349999999999999
 74
     0
  0
LTYPE
  5
8E
330
5
100
AcDbSymbolTableRecord
100
AcDbLinetypeTableRecord
  2
PHANTOM
 70
     0
  3
Phantom ______  __  __  ______  __  __  ______
 72
    65
 73
     6
 40
63.5
 49
31.75
 74
     0
 49
-6.349999999999999
 74
     0
 49
6.349999999999999
 74
     0
 49
-6.349999999999999
 74
     0
 49
6.349999999999999
 74
     0
 49
-6.349999999999999
 74
     0
  0
LTYPE
  5
8F
330
5
100
AcDbSymbolTableRecord
100
AcDbLinetypeTableRecord
  2
DASHED
 70
     0
  3
Dashed __ __ __ __ __ __ __ __ __ __ __ __ __ _
 72
    65
 73
     2
 40
19.05
 49
12.7
 74
     0
 49
-6.349999999999999
 74
     0
  0
ENDTAB
  0
TABLE
  2
LAYER
  5
2
102
{ACAD_XDICTIONARY
360
9B
102
}
330
0
100
AcDbSymbolTable
 70
     4
  0
LAYER
  5
10
102
{ACAD_XDICTIONARY
360
3A0
102
}
330
2
100
AcDbSymbolTableRecord
100
AcDbLayerTableRecord
  2
0
 70
     0
 62
     7
  6
Continuous
370
    -3
390
F
347
36B
  0
LAYER
  5
90
102
{ACAD_XDICTIONARY
360
91
102
}
330
2
100
AcDbSymbolTableRecord
100
AcDbLayerTableRecord
  2
2
 70
     0
 62
     2
  6
PHANTOM
370
    -3
390
F
347
36B
1001
AcAecLayerStandard
1000

1000

1001
ACCMTRANSPARENCY
1071
        0
  0
LAYER
  5
93
102
{ACAD_XDICTIONARY
360
94
102
}
330
2
100
AcDbSymbolTableRecord
100
AcDbLayerTableRecord
  2
1
 70
     0
 62
     5
  6
CENTER
370
    -3
390
F
347
36B
1001
AcAecLayerStandard
1000

1000

1001
ACCMTRANSPARENCY
1071
        0
  0
LAYER
  5
96
102
{ACAD_XDICTIONARY
360
3A2
102
}
330
2
100
AcDbSymbolTableRecord
100
AcDbLayerTableRecord
  2
3
 70
     0
 62
     3
  6
DASHED
370
    -3
390
F
347
36B
1001
AcAecLayerStandard
1000

1000

1001
ACCMTRANSPARENCY
1071
        0
  0
ENDTAB
  0
TABLE
  2
STYLE
  5
3
330
0
100
AcDbSymbolTable
 70
     1
  0
STYLE
  5
11
330
3
100
AcDbSymbolTableRecord
100
AcDbTextStyleTableRecord
  2
Standard
 70
     0
 40
0.0
 41
1.0
 50
0.0
 71
     0
 42
2.5
  3
txt
  4

  0
ENDTAB
  0
TABLE
  2
VIEW
  5
6
330
0
100
AcDbSymbolTable
 70
     0
  0
ENDTAB
  0
TABLE
  2
UCS
  5
7
330
0
100
AcDbSymbolTable
 70
     0
  0
ENDTAB
  0
TABLE
  2
APPID
  5
9
330
0
100
AcDbSymbolTable
 70
     3
  0
APPID
  5
12
330
9
100
AcDbSymbolTableRecord
100
AcDbRegAppTableRecord
  2
ACAD
 70
     0
  0
APPID
  5
99
330
9
100
AcDbSymbolTableRecord
100
AcDbRegAppTableRecord
  2
AcAecLayerStandard
 70
     0
  0
APPID
  5
9A
330
9
100
AcDbSymbolTableRecord
100
AcDbRegAppTableRecord
  2
ACCMTRANSPARENCY
 70
     0
  0
ENDTAB
  0
TABLE
  2
DIMSTYLE
  5
A
330
0
100
AcDbSymbolTable
 70
     1
100
AcDbDimStyleTable
 71
     0
  0
DIMSTYLE
105
27
330
A
100
AcDbSymbolTableRecord
100
AcDbDimStyleTableRecord
  2
ISO-25
 70
     0
 41
2.5
 42
0.625
 43
3.75
 44
1.25
 73
     0
 74
     0
 77
     1
 78
     8
140
2.5
141
2.5
143
0.03937007874016
147
0.625
171
     3
172
     1
271
     2
272
     2
274
     3
278
    44
283
     0
284
     8
340
11
  0
ENDTAB
  0
TABLE
  2
BLOCK_RECORD
  5
1
330
0
100
AcDbSymbolTable
 70
     1
  0
BLOCK_RECORD
  5
1F
330
1
100
AcDbSymbolTableRecord
100
AcDbBlockTableRecord
  2
*Model_Space
340
22
 70
     0
280
     1
281
     0
  0
BLOCK_RECORD
  5
55
330
1
100
AcDbSymbolTableRecord
100
AcDbBlockTableRecord
  2
*Paper_Space
340
56
 70
     0
280
     1
281
     0
  0
BLOCK_RECORD
  5
50
330
1
100
AcDbSymbolTableRecord
100
AcDbBlockTableRecord
  2
*Paper_Space0
340
51
 70
     0
280
     1
281
     0
  0
ENDTAB
  0
ENDSEC
  0
SECTION
  2
BLOCKS
  0
BLOCK
  5
20
330
1F
100
AcDbEntity
  8
0
100
AcDbBlockBegin
  2
*Model_Space
 70
     0
 10
0.0
 20
0.0
 30
0.0
  3
*Model_Space
  1

  0
ENDBLK
  5
21
330
1F
100
AcDbEntity
  8
0
100
AcDbBlockEnd
  0
BLOCK
  5
57
330
55
100
AcDbEntity
 67
     1
  8
0
100
AcDbBlockBegin
  2
*Paper_Space
 70
     0
 10
0.0
 20
0.0
 30
0.0
  3
*Paper_Space
  1

  0
ENDBLK
  5
58
330
55
100
AcDbEntity
 67
     1
  8
0
100
AcDbBlockEnd
  0
BLOCK
  5
52
330
50
100
AcDbEntity
 67
     1
  8
0
100
AcDbBlockBegin
  2
*Paper_Space0
 70
     0
 10
0.0
 20
0.0
 30
0.0
  3
*Paper_Space0
  1

  0
VIEWPORT
  5
6B
330
50
100
AcDbEntity
 67
     1
  8
0
100
AcDbViewport
 10
133.3499908447266
 20
101.5999970436096
 30
0.0
 40
381.3957395593835
 41
218.2856291881582
 68
     0
 69
     0
 12
133.3499908447266
 22
101.5999970436096
 13
0.0
 23
0.0
 14
10.0
 24
10.0
 15
10.0
 25
10.0
 16
0.0
 26
0.0
 36
1.0
 17
0.0
 27
0.0
 37
0.0
 42
50.0
 43
0.0
 44
0.0
 45
218.2856291881582
 50
0.0
 51
0.0
 72
   100
 90
    32800
  1

281
     0
 71
     1
 74
     0
110
0.0
120
0.0
130
0.0
111
1.0
121
0.0
131
0.0
112
0.0
122
1.0
132
0.0
 79
     0
146
0.0
170
     0
 61
     5
348
379
292
     1
282
     1
141
0.0
142
0.0
 63
   250
421
  3355443
  0
VIEWPORT
  5
6D
330
50
100
AcDbEntity
 67
     1
  8
0
100
AcDbViewport
 10
133.3499939441681
 20
101.5999939441681
 30
0.0
 40
213.3599903106689
 41
162.5599903106689
 68
     0
 69
     0
 12
210.0
 22
148.5
 13
0.0
 23
0.0
 14
10.0
 24
10.0
 15
10.0
 25
10.0
 16
0.0
 26
0.0
 36
1.0
 17
0.0
 27
0.0
 37
0.0
 42
50.0
 43
0.0
 44
0.0
 45
324.0677920111345
 50
0.0
 51
0.0
 72
   100
 90
    32864
  1

281
     0
 71
     1
 74
     0
110
0.0
120
0.0
130
0.0
111
1.0
121
0.0
131
0.0
112
0.0
122
1.0
132
0.0
 79
     0
146
0.0
170
     0
 61
     5
348
379
292
     1
282
     1
141
0.0
142
0.0
 63
   250
421
  3355443
  0
ENDBLK
  5
53
330
50
100
AcDbEntity
 67
     1
  8
0
100
AcDbBlockEnd
  0
ENDSEC
  0
SECTION
  2
ENTITIES
  0
LINE
  5
1F7
330
1F
100
AcDbEntity
  8
1
100
AcDbLine
 10
0.0000000000000284
 20
48.50004999999885
 30
0.0
 11
-0.0000000000000568
 21
-61.21052398464252
 31
0.0
  0
LINE
  5
1F8
330
1F
100
AcDbEntity
  8
1
100
AcDbLine
 10
8.750000000000312
 20
8.636807838575236
 30
0.0
 11
8.750000000000142
 21
-7.999949999999785
 31
0.0
  0
LINE
  5
1F9
330
1F
100
AcDbEntity
  8
1
100
AcDbLine
 10
-17.49999999999969
 20
8.636807838575464
 30
0.0
 11
-17.49999999999985
 21
-7.999949999999785
 31
0.0
  0
LINE
  5
1FA
330
1F
100
AcDbEntity
  8
0
100
AcDbLine
 10
37.99999999999909
 20
97.99999618530002
 30
0.0
 11
37.99999999999898
 21
4.0
 31
0.0
  0
LINE
  5
1FB
330
1F
100
AcDbEntity
  8
0
100
AcDbLine
 10
34.99999999999955
 20
97.99999618530002
 30
0.0
 11
34.99999999999943
 21
4.0
 31
0.0
  0
LINE
  5
1FC
330
1F
100
AcDbEntity
  8
0
100
AcDbLine
 10
34.99999999999955
 20
97.99999618530002
 30
0.0
 11
37.99999999999909
 21
97.99999618530002
 31
0.0
  0
LINE
  5
1FD
330
1F
100
AcDbEntity
  8
2
100
AcDbLine
 10
-18.99999999999906
 20
29.49999999999932
 30
0.0
 11
18.99999999999977
 21
29.49999999999932
 31
0.0
  0
LINE
  5
1FE
330
1F
100
AcDbEntity
  8
2
100
AcDbLine
 10
-19.99999999999906
 20
30.49999999999909
 30
0.0
 11
20.00000527679572
 21
30.49999999999909
 31
0.0
  0
LINE
  5
1FF
330
1F
100
AcDbEntity
  8
0
100
AcDbLine
 10
-24.99999999999918
 20
2.999999999999772
 30
0.0
 11
33.99999999999943
 21
2.999999999999772
 31
0.0
  0
LINE
  5
200
330
1F
100
AcDbEntity
  8
2
100
AcDbLine
 10
-18.99999999999906
 20
35.49999999999909
 30
0.0
 11
18.99999999999977
 21
35.49999999999909
 31
0.0
  0
LINE
  5
201
330
1F
100
AcDbEntity
  8
2
100
AcDbLine
 10
-19.99999999999906
 20
34.49999999999909
 30
0.0
 11
20.00000185894373
 21
34.49999999999909
 31
0.0
  0
LINE
  5
202
330
1F
100
AcDbEntity
  8
2
100
AcDbLine
 10
-7.99999999999963
 20
2.999999999999772
 30
0.0
 11
-7.999999999999516
 21
19.26794433593704
 31
0.0
  0
LINE
  5
203
330
1F
100
AcDbEntity
  8
2
100
AcDbLine
 10
7.999984741210965
 20
6.973495787719912
 30
0.0
 11
7.999984741210965
 21
19.26794433593704
 31
0.0
  0
LINE
  5
204
330
1F
100
AcDbEntity
  8
2
100
AcDbLine
 10
-18.99999627835288
 20
29.49999796309589
 30
0.0
 11
-19.99999731490922
 21
30.49999908394671
 31
0.0
  0
LINE
  5
205
330
1F
100
AcDbEntity
  8
2
100
AcDbLine
 10
7.999992350010217
 20
19.26794046992336
 30
0.0
 11
7.099291324007964
 21
22.62940243321668
 31
0.0
  0
LINE
  5
206
330
1F
100
AcDbEntity
  8
2
100
AcDbLine
 10
-7.999997480253313
 20
19.26796554015891
 30
0.0
 11
-7.099304352782809
 21
22.62939802573555
 31
0.0
  0
LINE
  5
207
330
1F
100
AcDbEntity
  8
2
100
AcDbLine
 10
-7.999999999999516
 20
22.99999999999932
 30
0.0
 11
8.000000000000255
 21
22.99999999999932
 31
0.0
  0
ARC
  5
208
330
1F
100
AcDbEntity
  8
2
100
AcDbCircle
 10
-6.616333007811789
 20
22.50003051757744
 30
0.0
 40
0.4999999999999864
100
AcDbArc
 50
90.0
 51
164.9999986719699
  0
ARC
  5
209
330
1F
100
AcDbEntity
  8
2
100
AcDbCircle
 10
-7.999999999999516
 20
23.99999999999932
 30
0.0
 40
0.9999999999999724
100
AcDbArc
 50
179.9999949910365
 51
269.9999974955182
  0
ARC
  5
20A
330
1F
100
AcDbEntity
  8
2
100
AcDbCircle
 10
-9.999999999999516
 20
28.49999999999909
 30
0.0
 40
0.9999999999999724
100
AcDbArc
 50
0.0
 51
90.00000250446868
  0
LINE
  5
20B
330
1F
100
AcDbEntity
  8
2
100
AcDbLine
 10
-8.999999999999289
 20
28.49999999999909
 30
0.0
 11
-8.999999999999289
 21
23.99999999999932
 31
0.0
  0
ARC
  5
20C
330
1F
100
AcDbEntity
  8
2
100
AcDbCircle
 10
6.616333007812073
 20
22.50003051757744
 30
0.0
 40
0.4999999999999864
100
AcDbArc
 50
15.00000132803003
 51
90.0
  0
ARC
  5
20D
330
1F
100
AcDbEntity
  8
2
100
AcDbCircle
 10
8.000000000000255
 20
23.99999999999932
 30
0.0
 40
0.9999999999999724
100
AcDbArc
 50
269.9999974955182
 51
0.0
  0
ARC
  5
20E
330
1F
100
AcDbEntity
  8
2
100
AcDbCircle
 10
10.00000000000003
 20
28.49999999999909
 30
0.0
 40
0.9999999999999724
100
AcDbArc
 50
90.00000250446868
 51
180.0000050089634
  0
LINE
  5
20F
330
1F
100
AcDbEntity
  8
2
100
AcDbLine
 10
8.999999999999573
 20
28.49999999999909
 30
0.0
 11
8.999999999999573
 21
23.99999999999932
 31
0.0
  0
LINE
  5
210
330
1F
100
AcDbEntity
  8
2
100
AcDbLine
 10
7.999984741210965
 20
19.26794433593704
 30
0.0
 11
-7.999999999999516
 21
19.26794433593704
 31
0.0
  0
LINE
  5
211
330
1F
100
AcDbEntity
  8
2
100
AcDbLine
 10
-19.99999984372104
 20
34.50000070136184
 30
0.0
 11
-19.00000142026872
 21
35.49999904052061
 31
0.0
  0
LINE
  5
212
330
1F
100
AcDbEntity
  8
2
100
AcDbLine
 10
-9.999938964843039
 20
45.22637939453011
 30
0.0
 11
-9.999938964843039
 21
35.49999999999909
 31
0.0
  0
LINE
  5
213
330
1F
100
AcDbEntity
  8
2
100
AcDbLine
 10
-5.000061035155766
 20
37.99993896484284
 30
0.0
 11
-5.000061035155766
 21
45.22637939453011
 31
0.0
  0
LINE
  5
214
330
1F
100
AcDbEntity
  8
2
100
AcDbLine
 10
5.000061035155823
 20
37.99993896484284
 30
0.0
 11
5.000061035155823
 21
45.22637939453011
 31
0.0
  0
LINE
  5
215
330
1F
100
AcDbEntity
  8
2
100
AcDbLine
 10
9.999938964843323
 20
45.22637939453011
 30
0.0
 11
9.999938964843323
 21
35.49999999999909
 31
0.0
  0
LINE
  5
216
330
1F
100
AcDbEntity
  8
2
100
AcDbLine
 10
-8.660339355468039
 20
45.99999999999886
 30
0.0
 11
8.660339355468323
 21
45.99999999999886
 31
0.0
  0
ARC
  5
217
330
1F
100
AcDbEntity
  8
2
100
AcDbCircle
 10
0.0000000000000284
 20
29.45294189453057
 30
0.0
 40
16.54700517654373
100
AcDbArc
 50
72.41204933011267
 51
107.5879470274094
  0
LINE
  5
218
330
1F
100
AcDbEntity
  8
2
100
AcDbLine
 10
-8.660399292700247
 20
45.99981039185467
 30
0.0
 11
-10.00003233316872
 21
45.22637288144347
 31
0.0
  0
ARC
  5
219
330
1F
100
AcDbEntity
  8
2
100
AcDbCircle
 10
-7.499999999999289
 20
41.57305908203011
 30
0.0
 40
4.42681503295886
100
AcDbArc
 50
55.61575355721767
 51
124.3842428003109
  0
ARC
  5
21A
330
1F
100
AcDbEntity
  8
2
100
AcDbCircle
 10
7.499999999999573
 20
41.57305908203011
 30
0.0
 40
4.42681503295886
100
AcDbArc
 50
55.61575355721767
 51
124.3842428003109
  0
LINE
  5
21B
330
1F
100
AcDbEntity
  8
2
100
AcDbLine
 10
8.66018038416999
 20
45.99980770070465
 30
0.0
 11
9.999932355128549
 21
45.22630152574174
 31
0.0
  0
LINE
  5
21C
330
1F
100
AcDbEntity
  8
2
100
AcDbLine
 10
-9.999938964843039
 20
37.99993896484284
 30
0.0
 11
9.999938964843323
 21
37.99993896484284
 31
0.0
  0
LINE
  5
21D
330
1F
100
AcDbEntity
  8
2
100
AcDbLine
 10
-19.99999999999906
 20
34.50000054508382
 30
0.0
 11
-19.99999999999906
 21
30.50000176903427
 31
0.0
  0
LINE
  5
21E
330
1F
100
AcDbEntity
  8
2
100
AcDbLine
 10
20.00000402356613
 20
30.49999874677042
 30
0.0
 11
19.00000290271532
 21
29.49999771021362
 31
0.0
  0
LINE
  5
21F
330
1F
100
AcDbEntity
  8
2
100
AcDbLine
 10
19.00000045819956
 20
35.50000148503864
 30
0.0
 11
20.00000149475659
 21
34.50000036418828
 31
0.0
  0
LINE
  5
220
330
1F
100
AcDbEntity
  8
2
100
AcDbLine
 10
20.0
 20
34.49999999999909
 30
0.0
 11
20.0
 21
30.49999999999909
 31
0.0
  0
ARC
  5
221
330
1F
100
AcDbEntity
  8
0
100
AcDbCircle
 10
33.99999999999943
 20
4.0
 30
0.0
 40
0.9999999999999724
100
AcDbArc
 50
269.9999974955182
 51
0.0
  0
LINE
  5
222
330
1F
100
AcDbEntity
  8
0
100
AcDbLine
 10
-24.99999999999918
 20
2.999999999999772
 30
0.0
 11
-24.99999999999918
 21
0.0
 31
0.0
  0
ARC
  5
223
330
1F
100
AcDbEntity
  8
0
100
AcDbCircle
 10
33.99999999999943
 20
4.0
 30
0.0
 40
3.999999999999889
100
AcDbArc
 50
269.9999974955182
 51
0.0
  0
LINE
  5
224
330
1F
100
AcDbEntity
  8
2
100
AcDbLine
 10
-25.00002000000004
 20
-4.999950000000012
 30
0.0
 11
-25.00002000000004
 21
-0.9999300000001767
 31
0.0
  0
LINE
  5
225
330
1F
100
AcDbEntity
  8
2
100
AcDbLine
 10
24.99999000000002
 20
-4.999950000000012
 30
0.0
 11
24.99999000000002
 21
-0.9999300000001767
 31
0.0
  0
LINE
  5
226
330
1F
100
AcDbEntity
  8
0
100
AcDbLine
 10
-24.99999999999918
 20
0.0
 30
0.0
 11
33.99999982515363
 21
0.0
 31
0.0
  0
ARC
  5
227
330
1F
100
AcDbEntity
  8
2
100
AcDbCircle
 10
-24.00000000000003
 20
-0.9999300000001767
 30
0.0
 40
1.000000019999999
100
AcDbArc
 50
90.0
 51
180.0
  0
ARC
  5
228
330
1F
100
AcDbEntity
  8
2
100
AcDbCircle
 10
24.0
 20
-0.9999300000001767
 30
0.0
 40
1.000000019999999
100
AcDbArc
 50
0.0
 51
90.0
  0
LINE
  5
229
330
1F
100
AcDbEntity
  8
1
100
AcDbLine
 10
91.24999999999948
 20
30.24999618530194
 30
0.0
 11
19.74999999999943
 21
30.24999618530194
 31
0.0
  0
LINE
  5
22A
330
1F
100
AcDbEntity
  8
2
100
AcDbLine
 10
-67.98599070326313
 20
-12.41169000000002
 30
0.0
 11
-72.2963007032632
 21
-28.49805000000003
 31
0.0
  0
LINE
  5
22B
330
1F
100
AcDbEntity
  8
2
100
AcDbLine
 10
67.98600929673717
 20
-12.41169000000002
 30
0.0
 11
72.29631929673724
 21
-28.49795999999981
 31
0.0
  0
LINE
  5
22C
330
1F
100
AcDbEntity
  8
2
100
AcDbLine
 10
58.32669929673693
 20
-4.999950000000012
 30
0.0
 11
-58.32674070326319
 21
-4.999950000000012
 31
0.0
  0
ARC
  5
22D
330
1F
100
AcDbEntity
  8
2
100
AcDbCircle
 10
-58.32674070326319
 20
-14.99999999999988
 30
0.0
 40
9.9999999
100
AcDbArc
 50
90.0
 51
164.9999900000046
  0
LINE
  5
22E
330
1F
100
AcDbEntity
  8
2
100
AcDbLine
 10
-21.99999999999974
 20
3.999999999999772
 30
0.0
 11
-12.99999999999974
 21
3.999999999999772
 31
0.0
  0
LINE
  5
22F
330
1F
100
AcDbEntity
  8
2
100
AcDbLine
 10
-21.99999999999974
 20
5.341064453124772
 30
0.0
 11
-21.99999999999974
 21
2.999999999999772
 31
0.0
  0
LINE
  5
230
330
1F
100
AcDbEntity
  8
2
100
AcDbLine
 10
-12.99999999999974
 20
5.341064453124772
 30
0.0
 11
-12.99999999999974
 21
2.999999999999772
 31
0.0
  0
ARC
  5
231
330
1F
100
AcDbEntity
  8
2
100
AcDbCircle
 10
-17.49999999999974
 20
-3.625000000000227
 30
0.0
 40
10.625
100
AcDbArc
 50
68.67631834471123
 51
111.3236916731982
  0
ARC
  5
232
330
1F
100
AcDbEntity
  8
2
100
AcDbCircle
 10
-13.99999999999974
 20
5.341064453124772
 30
0.0
 40
1.0
100
AcDbArc
 50
0.0000025044752157
 51
68.67631834471123
  0
ARC
  5
233
330
1F
100
AcDbEntity
  8
2
100
AcDbCircle
 10
-20.99999999999974
 20
5.341064453124772
 30
0.0
 40
1.0
100
AcDbArc
 50
111.3236953156618
 51
180.0000043257139
  0
LINE
  5
234
330
1F
100
AcDbEntity
  8
2
100
AcDbLine
 10
4.250000000000255
 20
3.999999999999772
 30
0.0
 11
13.25000000000025
 21
3.999999999999772
 31
0.0
  0
LINE
  5
235
330
1F
100
AcDbEntity
  8
2
100
AcDbLine
 10
4.250000000000255
 20
5.341064453124772
 30
0.0
 11
4.250000000000255
 21
2.999999999999772
 31
0.0
  0
LINE
  5
236
330
1F
100
AcDbEntity
  8
2
100
AcDbLine
 10
13.25000000000025
 20
5.341064453124772
 30
0.0
 11
13.25000000000025
 21
2.999999999999772
 31
0.0
  0
ARC
  5
237
330
1F
100
AcDbEntity
  8
2
100
AcDbCircle
 10
8.750000000000255
 20
-3.625000000000227
 30
0.0
 40
10.625
100
AcDbArc
 50
68.67631834471637
 51
111.3236916731982
  0
ARC
  5
238
330
1F
100
AcDbEntity
  8
2
100
AcDbCircle
 10
12.25000000000025
 20
5.341064453124772
 30
0.0
 40
1.0
100
AcDbArc
 50
0.0000025044752157
 51
68.67631834471637
  0
ARC
  5
239
330
1F
100
AcDbEntity
  8
2
100
AcDbCircle
 10
5.250000000000255
 20
5.341064453124772
 30
0.0
 40
1.0
100
AcDbArc
 50
111.3236953156618
 51
180.0000043257139
  0
POINT
  5
23A
330
1F
100
AcDbEntity
  8
0
  6
Continuous
100
AcDbPoint
 10
191.500001
 20
3.0
 30
0.0
  0
POINT
  5
23B
330
1F
100
AcDbEntity
  8
0
  6
Continuous
100
AcDbPoint
 10
208.5000010000001
 20
3.0
 30
0.0
  0
LINE
  5
23C
330
1F
100
AcDbEntity
  8
0
  6
Continuous
100
AcDbLine
 10
175.000001
 20
93.0
 30
0.0
 11
175.000001
 21
0.0
 31
0.0
  0
LINE
  5
23D
330
1F
100
AcDbEntity
  8
0
  6
Continuous
100
AcDbLine
 10
224.999999
 20
93.0
 30
0.0
 11
224.999999
 21
0.0
 31
0.0
  0
LINE
  5
23E
330
1F
100
AcDbEntity
  8
0
  6
Continuous
100
AcDbLine
 10
180.000001
 20
98.0
 30
0.0
 11
220.0000010000001
 21
98.0
 31
0.0
  0
LINE
  5
23F
330
1F
100
AcDbEntity
  8
0
  6
Continuous
100
AcDbLine
 10
188.000001
 20
3.0
 30
0.0
 11
212.0000010000001
 21
3.0
 31
0.0
  0
LINE
  5
240
330
1F
100
AcDbEntity
  8
0
  6
Continuous
100
AcDbLine
 10
175.000001
 20
0.0
 30
0.0
 11
224.999999
 21
0.0
 31
0.0
  0
LINE
  5
241
330
1F
100
AcDbEntity
  8
0
  6
Continuous
100
AcDbLine
 10
-15.0
 20
175.0
 30
0.0
 11
38.0
 21
175.0
 31
0.0
  0
LINE
  5
242
330
1F
100
AcDbEntity
  8
0
  6
Continuous
100
AcDbLine
 10
38.0
 20
225.0
 30
0.0
 11
38.0
 21
175.0
 31
0.0
  0
LINE
  5
243
330
1F
100
AcDbEntity
  8
0
  6
Continuous
100
AcDbLine
 10
-25.0
 20
215.0
 30
0.0
 11
-25.0
 21
185.0
 31
0.0
  0
LINE
  5
244
330
1F
100
AcDbEntity
  8
0
  6
Continuous
100
AcDbLine
 10
-15.0
 20
225.0
 30
0.0
 11
38.0
 21
225.0
 31
0.0
  0
LINE
  5
245
330
1F
100
AcDbEntity
  8
0
  6
Continuous
100
AcDbLine
 10
35.0
 20
225.0
 30
0.0
 11
35.0
 21
175.0
 31
0.0
  0
LINE
  5
246
330
1F
100
AcDbEntity
  8
1
100
AcDbLine
 10
-73.04773031812238
 20
200.0
 30
0.0
 11
95.38586180655419
 21
200.0
 31
0.0
  0
LINE
  5
247
330
1F
100
AcDbEntity
  8
1
100
AcDbLine
 10
0.0
 20
278.9087451486935
 30
0.0
 11
0.0
 21
121.0912548513065
 31
0.0
  0
LINE
  5
248
330
1F
100
AcDbEntity
  8
1
100
AcDbLine
 10
200.000001
 20
105.4360299999999
 30
0.0
 11
200.000001
 21
-61.21052398464257
 31
0.0
  0
LINE
  5
249
330
1F
100
AcDbEntity
  8
0
  6
Continuous
100
AcDbLine
 10
188.000001
 20
3.0
 30
0.0
 11
188.000001
 21
0.0
 31
0.0
  0
LINE
  5
24A
330
1F
100
AcDbEntity
  8
0
  6
Continuous
100
AcDbLine
 10
212.0000010000001
 20
3.0
 30
0.0
 11
212.0000010000001
 21
0.0
 31
0.0
  0
LINE
  5
24B
330
1F
100
AcDbEntity
  8
1
100
AcDbLine
 10
187.152851
 20
79.5
 30
0.0
 11
214.014951
 21
79.5
 31
0.0
  0
LINE
  5
24C
330
1F
100
AcDbEntity
  8
1
100
AcDbLine
 10
11.10257999999999
 20
180.76978
 30
0.0
 11
6.263739999999984
 21
189.15089
 31
0.0
  0
LINE
  5
24D
330
1F
100
AcDbEntity
  8
1
100
AcDbLine
 10
11.39527999999995
 20
219.73721
 30
0.0
 11
6.372379999999964
 21
211.0373000000001
 31
0.0
  0
LINE
  5
24E
330
1F
100
AcDbEntity
  8
0
  6
Continuous
100
AcDbLine
 10
25.0
 20
198.0
 30
0.0
 11
25.0
 21
202.0
 31
0.0
  0
LINE
  5
24F
330
1F
100
AcDbEntity
  8
0
  6
Continuous
100
AcDbLine
 10
193.500001
 20
79.5
 30
0.0
 11
193.500001
 21
5.0
 31
0.0
  0
LINE
  5
250
330
1F
100
AcDbEntity
  8
0
  6
Continuous
100
AcDbLine
 10
193.500001
 20
5.0
 30
0.0
 11
206.5000010000001
 21
5.0
 31
0.0
  0
LINE
  5
251
330
1F
100
AcDbEntity
  8
0
  6
Continuous
100
AcDbLine
 10
193.499991
 20
5.00000700000001
 30
0.0
 11
191.499991
 21
3.000003999999989
 31
0.0
  0
LINE
  5
252
330
1F
100
AcDbEntity
  8
0
  6
Continuous
100
AcDbLine
 10
206.5000010000001
 20
79.5
 30
0.0
 11
206.5000010000001
 21
5.0
 31
0.0
  0
ARC
  5
253
330
1F
100
AcDbEntity
  8
0
  6
Continuous
100
AcDbCircle
 10
-15.0
 20
215.0
 30
0.0
 40
10.0
100
AcDbArc
 50
90.00000299999769
 51
180.0000100000002
  0
LINE
  5
254
330
1F
100
AcDbEntity
  8
0
  6
Continuous
100
AcDbLine
 10
206.5000010000001
 20
4.999999000000002
 30
0.0
 11
208.5000010000001
 21
2.999997000000007
 31
0.0
  0
ARC
  5
255
330
1F
100
AcDbEntity
  8
0
  6
Continuous
100
AcDbCircle
 10
180.000001
 20
93.0
 30
0.0
 40
5.0
100
AcDbArc
 50
90.00000299999769
 51
180.0000100000002
  0
ARC
  5
256
330
1F
100
AcDbEntity
  8
0
  6
Continuous
100
AcDbCircle
 10
220.0000010000001
 20
93.0
 30
0.0
 40
5.0
100
AcDbArc
 50
0.0
 51
90.00000299999769
  0
ARC
  5
257
330
1F
100
AcDbEntity
  8
0
  6
Continuous
100
AcDbCircle
 10
-15.0
 20
185.0
 30
0.0
 40
10.0
100
AcDbArc
 50
179.9999899999998
 51
270.0
  0
CIRCLE
  5
258
330
1F
100
AcDbEntity
  8
0
  6
Continuous
100
AcDbCircle
 10
-17.5
 20
200.0
 30
0.0
 40
2.75
  0
CIRCLE
  5
259
330
1F
100
AcDbEntity
  8
0
  6
Continuous
100
AcDbCircle
 10
8.75
 20
184.84455
 30
0.0
 40
2.75
  0
CIRCLE
  5
25A
330
1F
100
AcDbEntity
  8
0
  6
Continuous
100
AcDbCircle
 10
8.75
 20
215.15545
 30
0.0
 40
2.75
  0
CIRCLE
  5
25B
330
1F
100
AcDbEntity
  8
0
  6
Continuous
100
AcDbCircle
 10
0.0
 20
200.0
 30
0.0
 40
10.0
  0
ARC
  5
25C
330
1F
100
AcDbEntity
  8
0
  6
Continuous
100
AcDbCircle
 10
35.0
 20
202.0
 30
0.0
 40
10.0
100
AcDbArc
 50
90.00000299999769
 51
180.0000100000002
  0
ARC
  5
25D
330
1F
100
AcDbEntity
  8
0
  6
Continuous
100
AcDbCircle
 10
35.0
 20
198.0
 30
0.0
 40
10.0
100
AcDbArc
 50
179.9999899999998
 51
270.0
  0
ARC
  5
25E
330
1F
100
AcDbEntity
  8
0
  6
Continuous
100
AcDbCircle
 10
200.000001
 20
79.5
 30
0.0
 40
6.5
100
AcDbArc
 50
0.0
 51
180.0000100000002
  0
LINE
  5
25F
330
1F
100
AcDbEntity
  8
2
100
AcDbLine
 10
174.99998
 20
-4.999950000000012
 30
0.0
 11
174.99998
 21
-0.9999300000001767
 31
0.0
  0
LINE
  5
260
330
1F
100
AcDbEntity
  8
2
100
AcDbLine
 10
224.99999
 20
-4.999950000000012
 30
0.0
 11
224.99999
 21
-0.9999300000001767
 31
0.0
  0
LINE
  5
261
330
1F
100
AcDbEntity
  8
2
100
AcDbLine
 10
132.0140092967369
 20
-12.41169000000002
 30
0.0
 11
127.7036992967369
 21
-28.49805000000003
 31
0.0
  0
LINE
  5
262
330
1F
100
AcDbEntity
  8
2
100
AcDbLine
 10
267.9860092967372
 20
-12.41169000000002
 30
0.0
 11
272.2963192967372
 21
-28.49795999999981
 31
0.0
  0
LINE
  5
263
330
1F
100
AcDbEntity
  8
2
100
AcDbLine
 10
258.3266992967369
 20
-4.999950000000012
 30
0.0
 11
141.6732592967369
 21
-4.999950000000012
 31
0.0
  0
ARC
  5
264
330
1F
100
AcDbEntity
  8
2
100
AcDbCircle
 10
141.6732592967369
 20
-14.99999999999988
 30
0.0
 40
9.9999999
100
AcDbArc
 50
90.0
 51
164.9999900000046
  0
ARC
  5
265
330
1F
100
AcDbEntity
  8
2
100
AcDbCircle
 10
258.3266992967369
 20
-14.99999999999988
 30
0.0
 40
9.9999999
100
AcDbArc
 50
15.00000999999541
 51
90.0
  0
ARC
  5
266
330
1F
100
AcDbEntity
  8
2
100
AcDbCircle
 10
176.000001
 20
-0.9999300000001767
 30
0.0
 40
1.000000019999999
100
AcDbArc
 50
90.0
 51
180.0
  0
ARC
  5
267
330
1F
100
AcDbEntity
  8
2
100
AcDbCircle
 10
224.000001
 20
-0.9999300000001767
 30
0.0
 40
1.000000019999999
100
AcDbArc
 50
0.0
 51
90.0
  0
CIRCLE
  5
268
330
1F
100
AcDbEntity
  8
0
100
AcDbCircle
 10
0.0
 20
200.0
 30
0.0
 40
10.0
  0
CIRCLE
  5
269
330
1F
100
AcDbEntity
  8
1
100
AcDbCircle
 10
0.0
 20
200.0
 30
0.0
 40
17.5
  0
CIRCLE
  5
26A
330
1F
100
AcDbEntity
  8
0
100
AcDbCircle
 10
8.75
 20
184.8445554337724
 30
0.0
 40
2.749999999999999
  0
LINE
  5
26B
330
1F
100
AcDbEntity
  8
1
100
AcDbLine
 10
12.5
 20
178.349364905389
 30
0.0
 11
5.0
 21
191.3397459621556
 31
0.0
  0
CIRCLE
  5
26C
330
1F
100
AcDbEntity
  8
0
100
AcDbCircle
 10
8.75
 20
215.1554445662276
 30
0.0
 40
2.749999999999999
  0
LINE
  5
26D
330
1F
100
AcDbEntity
  8
1
100
AcDbLine
 10
12.5
 20
221.6506350946109
 30
0.0
 11
5.0
 21
208.6602540378443
 31
0.0
  0
CIRCLE
  5
26E
330
1F
100
AcDbEntity
  8
2
100
AcDbCircle
 10
0.0
 20
200.0
 30
0.0
 40
20.00000092947175
  0
LINE
  5
26F
330
1F
100
AcDbEntity
  8
2
100
AcDbLine
 10
4.907493787581302
 20
208.49999948515
 30
0.0
 11
-4.907456212418765
 21
208.49999948515
 31
0.0
  0
LINE
  5
270
330
1F
100
AcDbEntity
  8
2
100
AcDbLine
 10
-4.907456212418765
 20
191.5000074114018
 30
0.0
 11
4.907493787581302
 21
191.5000074114018
 31
0.0
  0
CIRCLE
  5
271
330
1F
100
AcDbEntity
  8
2
100
AcDbCircle
 10
0.0000187875813253
 20
200.0000034482758
 30
0.0
 40
8.25
  0
LINE
  5
272
330
1F
100
AcDbEntity
  8
2
100
AcDbLine
 10
-9.814931212418741
 20
200.0000034482758
 30
0.0
 11
-4.907456212418765
 21
191.5000074114018
 31
0.0
  0
LINE
  5
273
330
1F
100
AcDbEntity
  8
2
100
AcDbLine
 10
-4.907456212418765
 20
208.49999948515
 30
0.0
 11
-9.814931212418741
 21
200.0000034482758
 31
0.0
  0
LINE
  5
274
330
1F
100
AcDbEntity
  8
2
100
AcDbLine
 10
4.907493787581302
 20
191.5000074114018
 30
0.0
 11
9.814968787581278
 21
200.0000034482758
 31
0.0
  0
LINE
  5
275
330
1F
100
AcDbEntity
  8
2
100
AcDbLine
 10
9.814968787581278
 20
200.0000034482758
 30
0.0
 11
4.907493787581302
 21
208.49999948515
 31
0.0
  0
CIRCLE
  5
276
330
1F
100
AcDbEntity
  8
2
100
AcDbCircle
 10
0.0
 20
200.0
 30
0.0
 40
66.00002886731015
  0
LINE
  5
277
330
1F
100
AcDbEntity
  8
2
100
AcDbLine
 10
31.7597796617319
 20
40.19679101722658
 30
0.0
 11
31.00059028317713
 21
38.88183644100292
 31
0.0
  0
LINE
  5
278
330
1F
100
AcDbEntity
  8
2
100
AcDbLine
 10
31.00059028317713
 20
21.88183644100292
 30
0.0
 11
31.7597796617319
 21
20.56688186477931
 31
0.0
  0
LINE
  5
279
330
1F
100
AcDbEntity
  8
2
100
AcDbLine
 10
35.00059028317713
 20
38.88183644100292
 30
0.0
 11
34.24140090462237
 21
40.19679101722656
 31
0.0
  0
LINE
  5
27A
330
1F
100
AcDbEntity
  8
2
100
AcDbLine
 10
34.24140090462237
 20
20.56688186477931
 30
0.0
 11
35.00059028317713
 21
21.88183644100292
 31
0.0
  0
LINE
  5
27B
330
1F
100
AcDbEntity
  8
2
100
AcDbLine
 10
31.00059028317713
 20
21.88183644100292
 30
0.0
 11
31.00059028317713
 21
38.88183644100292
 31
0.0
  0
LINE
  5
27C
330
1F
100
AcDbEntity
  8
2
100
AcDbLine
 10
37.9994097168219
 20
21.88183644100295
 30
0.0
 11
37.9994097168219
 21
38.88183644100292
 31
0.0
  0
LINE
  5
27D
330
1F
100
AcDbEntity
  8
2
100
AcDbLine
 10
31.7597796617319
 20
20.56688186477931
 30
0.0
 11
34.24140090462237
 21
20.56688186477931
 31
0.0
  0
LWPOLYLINE
  5
27E
330
1F
100
AcDbEntity
  8
2
100
AcDbPolyline
 90
       23
 70
     0
 43
0.0
 10
31.7597796617319
 20
20.56688186477931
 10
31.71692491767857
 20
20.64197690255526
 10
31.63538352814743
 20
20.79013356728984
 10
31.55926310190029
 20
20.93577093564352
 10
31.52318853222681
 20
21.00771458593195
 10
31.48841457774455
 20
21.07911094768289
 10
31.4227049283449
 20
21.22036701794639
 10
31.3620163704249
 20
21.35974511189687
 10
31.30624568950401
 20
21.49744475818508
 10
31.25530367123787
 20
21.63366000728095
 10
31.20911463291026
 20
21.76858034621165
 10
31.18778243663786
 20
21.83561310836513
 10
31.16761604996594
 20
21.90239157849638
 10
31.1307582737258
 20
22.03527667787611
 10
31.09850433760124
 20
22.16741662408669
 10
31.07082985026813
 20
22.29899122871393
 10
31.04772297538096
 20
22.4301799590898
 10
31.02918449851671
 20
22.56116276824284
 10
31.02163214266778
 20
22.62663352781544
 10
31.01522798319951
 20
22.69212093910522
 10
31.00588001904629
 20
22.82323795150887
 10
31.00118056635432
 20
22.95470038098472
 10
31.00059028317713
 20
23.02062050883521
  0
LWPOLYLINE
  5
27F
330
1F
100
AcDbEntity
  8
2
100
AcDbPolyline
 90
       23
 70
     0
 43
0.0
 10
31.00059028317713
 20
23.02062050883521
 10
31.00118056635478
 20
23.0865406366857
 10
31.00588001904629
 20
23.21800306616154
 10
31.01522798319951
 20
23.34912007856516
 10
31.02163214266778
 20
23.41460748985497
 10
31.02918449851671
 20
23.48007824942755
 10
31.04772297538096
 20
23.61106105858062
 10
31.07082985026813
 20
23.74224978895646
 10
31.09850433760124
 20
23.8738243935837
 10
31.1307582737258
 20
24.00596433979428
 10
31.16761604996594
 20
24.13884943917401
 10
31.18778243663786
 20
24.20562790930529
 10
31.20911463291026
 20
24.27266067145877
 10
31.25530367123787
 20
24.40758101038944
 10
31.30624568950401
 20
24.54379625948531
 10
31.3620163704249
 20
24.68149590577354
 10
31.4227049283449
 20
24.82087399972403
 10
31.48841457774455
 20
24.9621300699875
 10
31.52318853222681
 20
25.03352643173844
 10
31.55926310190029
 20
25.10547008202687
 10
31.63538352814743
 20
25.25110745038058
 10
31.71692491767857
 20
25.39926411511516
 10
31.7597796617319
 20
25.47435915289111
  0
LWPOLYLINE
  5
280
330
1F
100
AcDbEntity
  8
2
100
AcDbPolyline
 90
       23
 70
     0
 43
0.0
 10
34.24140090462237
 20
25.47435915289111
 10
34.2842556486757
 20
25.39926411511516
 10
34.36579703820684
 20
25.25110745038058
 10
34.44191746445398
 20
25.10547008202687
 10
34.47799203412746
 20
25.03352643173844
 10
34.51276598860971
 20
24.9621300699875
 10
34.57847563800937
 20
24.82087399972403
 10
34.63916419592937
 20
24.68149590577354
 10
34.69493487685026
 20
24.54379625948531
 10
34.7458768951164
 20
24.40758101038944
 10
34.79206593344401
 20
24.27266067145877
 10
34.8133981297164
 20
24.20562790930529
 10
34.83356451638832
 20
24.13884943917401
 10
34.87042229262846
 20
24.00596433979428
 10
34.90267622875303
 20
23.8738243935837
 10
34.93035071608614
 20
23.74224978895648
 10
34.9534575909733
 20
23.61106105858062
 10
34.97199606783755
 20
23.48007824942755
 10
34.97954842368648
 20
23.41460748985497
 10
34.98595258315476
 20
23.34912007856516
 10
34.99530054730798
 20
23.21800306616154
 10
34.99999999999949
 20
23.0865406366857
 10
35.00059028317713
 20
23.02062050883518
  0
LWPOLYLINE
  5
281
330
1F
100
AcDbEntity
  8
2
100
AcDbPolyline
 90
       23
 70
     0
 43
0.0
 10
35.00059028317713
 20
23.02062050883518
 10
34.99999999999949
 20
22.95470038098472
 10
34.99530054730798
 20
22.82323795150887
 10
34.98595258315476
 20
22.69212093910522
 10
34.97954842368648
 20
22.62663352781544
 10
34.97199606783755
 20
22.56116276824284
 10
34.9534575909733
 20
22.4301799590898
 10
34.93035071608614
 20
22.29899122871393
 10
34.90267622875303
 20
22.16741662408669
 10
34.87042229262846
 20
22.03527667787611
 10
34.83356451638832
 20
21.90239157849638
 10
34.8133981297164
 20
21.83561310836513
 10
34.79206593344401
 20
21.76858034621165
 10
34.7458768951164
 20
21.63366000728095
 10
34.69493487685026
 20
21.49744475818508
 10
34.63916419592937
 20
21.35974511189684
 10
34.57847563800937
 20
21.22036701794636
 10
34.51276598860971
 20
21.07911094768289
 10
34.47799203412746
 20
21.00771458593195
 10
34.44191746445398
 20
20.93577093564352
 10
34.36579703820684
 20
20.79013356728984
 10
34.2842556486757
 20
20.64197690255526
 10
34.24140090462237
 20
20.56688186477931
  0
LINE
  5
282
330
1F
100
AcDbEntity
  8
2
100
AcDbLine
 10
31.7597796617319
 20
25.47435915289111
 30
0.0
 11
34.24140090462237
 21
25.47435915289111
 31
0.0
  0
LWPOLYLINE
  5
283
330
1F
100
AcDbEntity
  8
2
100
AcDbPolyline
 90
       23
 70
     0
 43
0.0
 10
31.7597796617319
 20
25.47435915289111
 10
31.71692491767857
 20
25.62454922844302
 10
31.63538352814743
 20
25.92086255791219
 10
31.55926310190029
 20
26.2121372946196
 10
31.52318853222681
 20
26.35602459519643
 10
31.48841457774455
 20
26.49881731869835
 10
31.4227049283449
 20
26.78132945922528
 10
31.3620163704249
 20
27.06008564712624
 10
31.30624568950401
 20
27.33548493970267
 10
31.25530367123787
 20
27.60791543789447
 10
31.20911463291026
 20
27.8777561157558
 10
31.18778243663786
 20
28.01182164006278
 10
31.16761604996594
 20
28.14537858032529
 10
31.1307582737258
 20
28.41114877908479
 10
31.09850433760124
 20
28.67542867150593
 10
31.07082985026813
 20
28.93857788076042
 10
31.04772297538096
 20
29.2009553415121
 10
31.02918449851671
 20
29.46292095981818
 10
31.02163214266778
 20
29.59386247896339
 10
31.01522798319951
 20
29.72483730154301
 10
31.00588001904629
 20
29.98707132635025
 10
31.00118056635432
 20
30.24999618530194
 10
31.00059028317713
 20
30.38183644100292
  0
LWPOLYLINE
  5
284
330
1F
100
AcDbEntity
  8
2
100
AcDbPolyline
 90
       23
 70
     0
 43
0.0
 10
31.00059028317713
 20
30.38183644100292
 10
31.00118056635478
 20
30.51367669670393
 10
31.00588001904629
 20
30.77660155565559
 10
31.01522798319951
 20
31.03883558046283
 10
31.02163214266778
 20
31.16981040304248
 10
31.02918449851671
 20
31.30075192218766
 10
31.04772297538096
 20
31.56271754049374
 10
31.07082985026813
 20
31.82509500124548
 10
31.09850433760124
 20
32.08824421049994
 10
31.1307582737258
 20
32.35252410292108
 10
31.16761604996594
 20
32.61829430168058
 10
31.18778243663786
 20
32.75185124194309
 10
31.20911463291026
 20
32.88591676625006
 10
31.25530367123787
 20
33.15575744411143
 10
31.30624568950401
 20
33.42818794230317
 10
31.3620163704249
 20
33.70358723487962
 10
31.4227049283449
 20
33.98234342278062
 10
31.48841457774455
 20
34.26485556330752
 10
31.52318853222681
 20
34.40764828680944
 10
31.55926310190029
 20
34.55153558738627
 10
31.63538352814743
 20
34.84281032409365
 10
31.71692491767857
 20
35.13912365356282
 10
31.7597796617319
 20
35.28931372911475
  0
LWPOLYLINE
  5
285
330
1F
100
AcDbEntity
  8
2
100
AcDbPolyline
 90
       23
 70
     0
 43
0.0
 10
34.24140090462237
 20
35.28931372911475
 10
34.2842556486757
 20
35.13912365356282
 10
34.36579703820684
 20
34.84281032409365
 10
34.44191746445398
 20
34.55153558738627
 10
34.47799203412746
 20
34.40764828680944
 10
34.51276598860971
 20
34.26485556330752
 10
34.57847563800937
 20
33.98234342278062
 10
34.63916419592937
 20
33.70358723487962
 10
34.69493487685026
 20
33.42818794230317
 10
34.7458768951164
 20
33.15575744411143
 10
34.79206593344401
 20
32.88591676625006
 10
34.8133981297164
 20
32.75185124194309
 10
34.83356451638832
 20
32.61829430168058
 10
34.87042229262846
 20
32.35252410292108
 10
34.90267622875303
 20
32.08824421049994
 10
34.93035071608614
 20
31.82509500124548
 10
34.9534575909733
 20
31.56271754049374
 10
34.97199606783755
 20
31.30075192218766
 10
34.97954842368648
 20
31.16981040304248
 10
34.98595258315476
 20
31.03883558046283
 10
34.99530054730798
 20
30.77660155565559
 10
34.99999999999949
 20
30.51367669670393
 10
35.00059028317713
 20
30.38183644100292
  0
LWPOLYLINE
  5
286
330
1F
100
AcDbEntity
  8
2
100
AcDbPolyline
 90
       23
 70
     0
 43
0.0
 10
35.00059028317713
 20
30.38183644100292
 10
34.99999999999949
 20
30.24999618530194
 10
34.99530054730798
 20
29.98707132635025
 10
34.98595258315476
 20
29.72483730154301
 10
34.97954842368648
 20
29.59386247896339
 10
34.97199606783755
 20
29.46292095981818
 10
34.9534575909733
 20
29.2009553415121
 10
34.93035071608614
 20
28.93857788076042
 10
34.90267622875303
 20
28.67542867150593
 10
34.87042229262846
 20
28.41114877908479
 10
34.83356451638832
 20
28.14537858032529
 10
34.8133981297164
 20
28.01182164006278
 10
34.79206593344401
 20
27.8777561157558
 10
34.7458768951164
 20
27.60791543789447
 10
34.69493487685026
 20
27.33548493970267
 10
34.63916419592937
 20
27.06008564712624
 10
34.57847563800937
 20
26.78132945922528
 10
34.51276598860971
 20
26.49881731869835
 10
34.47799203412746
 20
26.35602459519643
 10
34.44191746445398
 20
26.2121372946196
 10
34.36579703820684
 20
25.92086255791222
 10
34.2842556486757
 20
25.62454922844302
 10
34.24140090462237
 20
25.47435915289111
  0
LWPOLYLINE
  5
287
330
1F
100
AcDbEntity
  8
2
100
AcDbPolyline
 90
       23
 70
     0
 43
0.0
 10
35.00059028317713
 20
37.74305237317066
 10
34.99999999999949
 20
37.67713224532017
 10
34.99530054730798
 20
37.54566981584432
 10
34.98595258315476
 20
37.4145528034407
 10
34.97954842368648
 20
37.34906539215086
 10
34.97199606783755
 20
37.28359463257829
 10
34.9534575909733
 20
37.15261182342525
 10
34.93035071608614
 20
37.02142309304941
 10
34.90267622875303
 20
36.88984848842216
 10
34.87042229262846
 20
36.75770854221156
 10
34.83356451638832
 20
36.62482344283183
 10
34.8133981297164
 20
36.5580449727006
 10
34.79206593344401
 20
36.49101221054707
 10
34.7458768951164
 20
36.3560918716164
 10
34.69493487685026
 20
36.21987662252053
 10
34.63916419592937
 20
36.08217697623229
 10
34.57847563800937
 20
35.94279888228181
 10
34.51276598860971
 20
35.80154281201837
 10
34.47799203412746
 20
35.7301464502674
 10
34.44191746445398
 20
35.65820279997899
 10
34.36579703820684
 20
35.51256543162529
 10
34.2842556486757
 20
35.3644087668907
 10
34.24140090462237
 20
35.28931372911475
  0
LINE
  5
288
330
1F
100
AcDbEntity
  8
2
100
AcDbLine
 10
31.7597796617319
 20
35.28931372911475
 30
0.0
 11
34.24140090462237
 21
35.28931372911475
 31
0.0
  0
LWPOLYLINE
  5
289
330
1F
100
AcDbEntity
  8
2
100
AcDbPolyline
 90
       23
 70
     0
 43
0.0
 10
31.7597796617319
 20
35.28931372911475
 10
31.71692491767857
 20
35.3644087668907
 10
31.63538352814743
 20
35.51256543162529
 10
31.55926310190029
 20
35.65820279997899
 10
31.52318853222681
 20
35.7301464502674
 10
31.48841457774455
 20
35.80154281201834
 10
31.4227049283449
 20
35.94279888228181
 10
31.3620163704249
 20
36.08217697623229
 10
31.30624568950401
 20
36.21987662252053
 10
31.25530367123787
 20
36.3560918716164
 10
31.20911463291026
 20
36.49101221054707
 10
31.18778243663786
 20
36.5580449727006
 10
31.16761604996594
 20
36.62482344283183
 10
31.1307582737258
 20
36.75770854221156
 10
31.09850433760124
 20
36.88984848842216
 10
31.07082985026813
 20
37.02142309304941
 10
31.04772297538096
 20
37.15261182342525
 10
31.02918449851671
 20
37.28359463257829
 10
31.02163214266778
 20
37.34906539215086
 10
31.01522798319951
 20
37.4145528034407
 10
31.00588001904629
 20
37.54566981584432
 10
31.00118056635478
 20
37.67713224532017
 10
31.00059028317713
 20
37.74305237317066
  0
LWPOLYLINE
  5
28A
330
1F
100
AcDbEntity
  8
2
100
AcDbPolyline
 90
       23
 70
     0
 43
0.0
 10
31.00059028317713
 20
37.74305237317066
 10
31.00118056635478
 20
37.80897250102118
 10
31.00588001904629
 20
37.94043493049699
 10
31.01522798319951
 20
38.07155194290061
 10
31.02163214266778
 20
38.13703935419045
 10
31.02918449851671
 20
38.20251011376303
 10
31.04772297538096
 20
38.33349292291607
 10
31.07082985026813
 20
38.46468165329191
 10
31.09850433760124
 20
38.59625625791915
 10
31.1307582737258
 20
38.72839620412975
 10
31.16761604996594
 20
38.86128130350949
 10
31.18778243663786
 20
38.92805977364074
 10
31.20911463291026
 20
38.99509253579424
 10
31.25530367123787
 20
39.13001287472491
 10
31.30624568950401
 20
39.26622812382078
 10
31.3620163704249
 20
39.40392777010902
 10
31.4227049283449
 20
39.54330586405951
 10
31.48841457774455
 20
39.68456193432297
 10
31.52318853222681
 20
39.75595829607391
 10
31.55926310190029
 20
39.82790194636232
 10
31.63538352814743
 20
39.97353931471602
 10
31.71692491767857
 20
40.1216959794506
 10
31.7597796617319
 20
40.19679101722656
  0
LINE
  5
28B
330
1F
100
AcDbEntity
  8
2
100
AcDbLine
 10
31.7597796617319
 20
40.19679101722656
 30
0.0
 11
34.24140090462237
 21
40.19679101722656
 31
0.0
  0
LWPOLYLINE
  5
28C
330
1F
100
AcDbEntity
  8
2
100
AcDbPolyline
 90
       23
 70
     0
 43
0.0
 10
34.24140090462237
 20
40.19679101722656
 10
34.2842556486757
 20
40.1216959794506
 10
34.36579703820684
 20
39.97353931471602
 10
34.44191746445398
 20
39.82790194636232
 10
34.47799203412746
 20
39.75595829607391
 10
34.51276598860971
 20
39.68456193432297
 10
34.57847563800937
 20
39.54330586405951
 10
34.63916419592937
 20
39.40392777010902
 10
34.69493487685026
 20
39.26622812382078
 10
34.7458768951164
 20
39.13001287472491
 10
34.79206593344401
 20
38.99509253579424
 10
34.8133981297164
 20
38.92805977364071
 10
34.83356451638832
 20
38.86128130350949
 10
34.87042229262846
 20
38.72839620412975
 10
34.90267622875303
 20
38.59625625791915
 10
34.93035071608614
 20
38.46468165329191
 10
34.9534575909733
 20
38.33349292291607
 10
34.97199606783755
 20
38.20251011376303
 10
34.97954842368648
 20
38.13703935419045
 10
34.98595258315476
 20
38.07155194290061
 10
34.99530054730798
 20
37.94043493049699
 10
34.99999999999949
 20
37.80897250102118
 10
35.00059028317713
 20
37.74305237317066
  0
LWPOLYLINE
  5
28D
330
1F
100
AcDbEntity
  8
2
100
AcDbPolyline
 90
       23
 70
     0
 43
0.0
 10
41.24022033826713
 20
25.47435915289111
 10
41.28307508232047
 20
25.62454922844307
 10
41.3646164718516
 20
25.92086255791225
 10
41.44073689809874
 20
26.2121372946196
 10
41.47681146777222
 20
26.35602459519646
 10
41.51158542225448
 20
26.49881731869835
 10
41.57729507165413
 20
26.78132945922528
 10
41.63798362957414
 20
27.06008564712624
 10
41.69375431049502
 20
27.3354849397027
 10
41.74469632876117
 20
27.60791543789447
 10
41.79088536708877
 20
27.8777561157558
 10
41.81221756336117
 20
28.01182164006281
 10
41.83238395003309
 20
28.14537858032532
 10
41.86924172627323
 20
28.41114877908479
 10
41.90149566239779
 20
28.67542867150593
 10
41.9291701497309
 20
28.93857788076042
 10
41.95227702461806
 20
29.20095534151213
 10
41.97081550148232
 20
29.46292095981821
 10
41.97836785733125
 20
29.59386247896339
 10
41.98477201679952
 20
29.72483730154301
 10
41.99411998095274
 20
29.98707132635028
 10
41.99881943364426
 20
30.24999618530194
 10
41.9994097168219
 20
30.38183644100295
  0
LINE
  5
28E
330
1F
100
AcDbEntity
  8
2
100
AcDbLine
 10
38.75859909537667
 20
40.19679101722658
 30
0.0
 11
37.9994097168219
 21
38.88183644100292
 31
0.0
  0
LINE
  5
28F
330
1F
100
AcDbEntity
  8
2
100
AcDbLine
 10
37.9994097168219
 20
21.88183644100295
 30
0.0
 11
38.75859909537667
 21
20.56688186477931
 31
0.0
  0
LINE
  5
290
330
1F
100
AcDbEntity
  8
2
100
AcDbLine
 10
41.9994097168219
 20
38.88183644100292
 30
0.0
 11
41.24022033826713
 21
40.19679101722658
 31
0.0
  0
LINE
  5
291
330
1F
100
AcDbEntity
  8
2
100
AcDbLine
 10
41.24022033826713
 20
20.56688186477931
 30
0.0
 11
41.9994097168219
 21
21.88183644100295
 31
0.0
  0
LINE
  5
292
330
1F
100
AcDbEntity
  8
2
100
AcDbLine
 10
35.00059028317713
 20
21.88183644100292
 30
0.0
 11
35.00059028317713
 21
38.88183644100292
 31
0.0
  0
LINE
  5
293
330
1F
100
AcDbEntity
  8
2
100
AcDbLine
 10
41.9994097168219
 20
21.88183644100295
 30
0.0
 11
41.9994097168219
 21
38.88183644100292
 31
0.0
  0
LINE
  5
294
330
1F
100
AcDbEntity
  8
2
100
AcDbLine
 10
38.75859909537667
 20
20.56688186477931
 30
0.0
 11
41.24022033826713
 21
20.56688186477931
 31
0.0
  0
LWPOLYLINE
  5
295
330
1F
100
AcDbEntity
  8
2
100
AcDbPolyline
 90
       23
 70
     0
 43
0.0
 10
38.75859909537667
 20
20.56688186477931
 10
38.71574435132334
 20
20.64197690255526
 10
38.6342029617922
 20
20.79013356728984
 10
38.55808253554505
 20
20.93577093564355
 10
38.52200796587158
 20
21.00771458593198
 10
38.48723401138932
 20
21.07911094768292
 10
38.42152436198967
 20
21.22036701794639
 10
38.36083580406967
 20
21.35974511189687
 10
38.30506512314878
 20
21.49744475818511
 10
38.25412310488264
 20
21.63366000728098
 10
38.20793406655503
 20
21.76858034621165
 10
38.18660187028263
 20
21.83561310836513
 10
38.16643548361071
 20
21.9023915784964
 10
38.12957770737057
 20
22.03527667787614
 10
38.09732377124601
 20
22.16741662408671
 10
38.0696492839129
 20
22.29899122871393
 10
38.04654240902574
 20
22.4301799590898
 10
38.02800393216148
 20
22.56116276824287
 10
38.02045157631255
 20
22.62663352781544
 10
38.01404741684428
 20
22.69212093910525
 10
38.00469945269106
 20
22.82323795150887
 10
37.99999999999909
 20
22.95470038098472
 10
37.9994097168219
 20
23.02062050883524
  0
LWPOLYLINE
  5
296
330
1F
100
AcDbEntity
  8
2
100
AcDbPolyline
 90
       23
 70
     0
 43
0.0
 10
37.9994097168219
 20
23.02062050883524
 10
37.99999999999909
 20
23.0865406366857
 10
38.00469945269106
 20
23.21800306616154
 10
38.01404741684428
 20
23.34912007856519
 10
38.02045157631255
 20
23.41460748985497
 10
38.02800393216148
 20
23.48007824942758
 10
38.04654240902574
 20
23.61106105858062
 10
38.0696492839129
 20
23.74224978895648
 10
38.09732377124601
 20
23.87382439358373
 10
38.12957770737057
 20
24.00596433979428
 10
38.16643548361071
 20
24.13884943917401
 10
38.18660187028263
 20
24.20562790930529
 10
38.20793406655503
 20
24.27266067145877
 10
38.25412310488264
 20
24.40758101038944
 10
38.30506512314878
 20
24.54379625948533
 10
38.36083580406967
 20
24.68149590577354
 10
38.42152436198967
 20
24.82087399972403
 10
38.48723401138932
 20
24.9621300699875
 10
38.52200796587158
 20
25.03352643173847
 10
38.55808253554505
 20
25.1054700820269
 10
38.6342029617922
 20
25.25110745038058
 10
38.71574435132334
 20
25.39926411511516
 10
38.75859909537667
 20
25.47435915289111
  0
LWPOLYLINE
  5
297
330
1F
100
AcDbEntity
  8
2
100
AcDbPolyline
 90
       23
 70
     0
 43
0.0
 10
41.24022033826713
 20
25.47435915289111
 10
41.28307508232047
 20
25.39926411511516
 10
41.3646164718516
 20
25.25110745038058
 10
41.44073689809874
 20
25.1054700820269
 10
41.47681146777222
 20
25.03352643173847
 10
41.51158542225448
 20
24.9621300699875
 10
41.57729507165413
 20
24.82087399972403
 10
41.63798362957414
 20
24.68149590577354
 10
41.69375431049502
 20
24.54379625948533
 10
41.74469632876117
 20
24.40758101038944
 10
41.79088536708877
 20
24.27266067145877
 10
41.81221756336117
 20
24.20562790930529
 10
41.83238395003309
 20
24.13884943917404
 10
41.86924172627323
 20
24.00596433979428
 10
41.90149566239779
 20
23.87382439358373
 10
41.9291701497309
 20
23.74224978895648
 10
41.95227702461806
 20
23.61106105858062
 10
41.97081550148232
 20
23.48007824942758
 10
41.97836785733125
 20
23.41460748985497
 10
41.98477201679952
 20
23.34912007856519
 10
41.99411998095274
 20
23.21800306616154
 10
41.99881943364426
 20
23.0865406366857
 10
41.9994097168219
 20
23.02062050883521
  0
LWPOLYLINE
  5
298
330
1F
100
AcDbEntity
  8
2
100
AcDbPolyline
 90
       23
 70
     0
 43
0.0
 10
41.9994097168219
 20
23.02062050883521
 10
41.99881943364471
 20
22.95470038098472
 10
41.99411998095274
 20
22.82323795150887
 10
41.98477201679952
 20
22.69212093910525
 10
41.97836785733125
 20
22.62663352781544
 10
41.97081550148232
 20
22.56116276824287
 10
41.95227702461806
 20
22.4301799590898
 10
41.9291701497309
 20
22.29899122871393
 10
41.90149566239779
 20
22.16741662408671
 10
41.86924172627323
 20
22.03527667787614
 10
41.83238395003309
 20
21.9023915784964
 10
41.81221756336117
 20
21.83561310836513
 10
41.79088536708877
 20
21.76858034621165
 10
41.74469632876117
 20
21.63366000728098
 10
41.69375431049502
 20
21.49744475818511
 10
41.63798362957414
 20
21.35974511189687
 10
41.57729507165413
 20
21.22036701794639
 10
41.51158542225448
 20
21.07911094768292
 10
41.47681146777222
 20
21.00771458593198
 10
41.44073689809874
 20
20.93577093564355
 10
41.3646164718516
 20
20.79013356728984
 10
41.28307508232047
 20
20.64197690255526
 10
41.24022033826713
 20
20.56688186477931
  0
LINE
  5
299
330
1F
100
AcDbEntity
  8
2
100
AcDbLine
 10
38.75859909537667
 20
25.47435915289111
 30
0.0
 11
41.24022033826713
 21
25.47435915289111
 31
0.0
  0
LWPOLYLINE
  5
29A
330
1F
100
AcDbEntity
  8
2
100
AcDbPolyline
 90
       23
 70
     0
 43
0.0
 10
38.75859909537667
 20
25.47435915289111
 10
38.71574435132334
 20
25.62454922844305
 10
38.6342029617922
 20
25.92086255791222
 10
38.55808253554505
 20
26.2121372946196
 10
38.52200796587158
 20
26.35602459519646
 10
38.48723401138932
 20
26.49881731869835
 10
38.42152436198967
 20
26.78132945922528
 10
38.36083580406967
 20
27.06008564712624
 10
38.30506512314878
 20
27.3354849397027
 10
38.25412310488264
 20
27.60791543789447
 10
38.20793406655503
 20
27.8777561157558
 10
38.18660187028263
 20
28.01182164006281
 10
38.16643548361071
 20
28.14537858032532
 10
38.12957770737057
 20
28.41114877908479
 10
38.09732377124601
 20
28.67542867150593
 10
38.0696492839129
 20
28.93857788076042
 10
38.04654240902574
 20
29.20095534151213
 10
38.02800393216148
 20
29.46292095981821
 10
38.02045157631255
 20
29.59386247896339
 10
38.01404741684428
 20
29.72483730154301
 10
38.00469945269106
 20
29.98707132635028
 10
37.99999999999909
 20
30.24999618530194
 10
37.9994097168219
 20
30.38183644100295
  0
LWPOLYLINE
  5
29B
330
1F
100
AcDbEntity
  8
2
100
AcDbPolyline
 90
       23
 70
     0
 43
0.0
 10
37.9994097168219
 20
30.38183644100295
 10
37.99999999999909
 20
30.51367669670395
 10
38.00469945269106
 20
30.77660155565562
 10
38.01404741684428
 20
31.03883558046286
 10
38.02045157631255
 20
31.16981040304251
 10
38.02800393216148
 20
31.30075192218766
 10
38.04654240902574
 20
31.56271754049374
 10
38.0696492839129
 20
31.82509500124548
 10
38.09732377124601
 20
32.08824421049996
 10
38.12957770737057
 20
32.35252410292111
 10
38.16643548361071
 20
32.61829430168058
 10
38.18660187028263
 20
32.75185124194309
 10
38.20793406655503
 20
32.88591676625009
 10
38.25412310488264
 20
33.15575744411143
 10
38.30506512314878
 20
33.42818794230317
 10
38.36083580406967
 20
33.70358723487965
 10
38.42152436198967
 20
33.98234342278062
 10
38.48723401138932
 20
34.26485556330755
 10
38.52200796587158
 20
34.40764828680944
 10
38.55808253554505
 20
34.5515355873863
 10
38.6342029617922
 20
34.84281032409365
 10
38.71574435132334
 20
35.13912365356282
 10
38.75859909537667
 20
35.28931372911478
  0
LWPOLYLINE
  5
29C
330
1F
100
AcDbEntity
  8
2
100
AcDbPolyline
 90
       23
 70
     0
 43
0.0
 10
41.24022033826713
 20
35.28931372911478
 10
41.28307508232047
 20
35.13912365356282
 10
41.3646164718516
 20
34.84281032409365
 10
41.44073689809874
 20
34.55153558738627
 10
41.47681146777222
 20
34.40764828680944
 10
41.51158542225448
 20
34.26485556330755
 10
41.57729507165413
 20
33.98234342278062
 10
41.63798362957414
 20
33.70358723487965
 10
41.69375431049502
 20
33.42818794230317
 10
41.74469632876117
 20
33.15575744411143
 10
41.79088536708877
 20
32.88591676625009
 10
41.81221756336117
 20
32.75185124194309
 10
41.83238395003309
 20
32.61829430168058
 10
41.86924172627323
 20
32.35252410292111
 10
41.90149566239779
 20
32.08824421049996
 10
41.9291701497309
 20
31.82509500124548
 10
41.95227702461806
 20
31.56271754049374
 10
41.97081550148232
 20
31.30075192218766
 10
41.97836785733125
 20
31.16981040304251
 10
41.98477201679952
 20
31.03883558046286
 10
41.99411998095274
 20
30.77660155565562
 10
41.99881943364426
 20
30.51367669670395
 10
41.9994097168219
 20
30.38183644100295
  0
LWPOLYLINE
  5
29D
330
1F
100
AcDbEntity
  8
2
100
AcDbPolyline
 90
       23
 70
     0
 43
0.0
 10
41.9994097168219
 20
37.74305237317066
 10
41.99881943364426
 20
37.6771322453202
 10
41.99411998095274
 20
37.54566981584435
 10
41.98477201679952
 20
37.4145528034407
 10
41.97836785733125
 20
37.34906539215089
 10
41.97081550148232
 20
37.28359463257829
 10
41.95227702461806
 20
37.15261182342528
 10
41.9291701497309
 20
37.02142309304941
 10
41.90149566239779
 20
36.88984848842216
 10
41.86924172627323
 20
36.75770854221159
 10
41.83238395003309
 20
36.62482344283186
 10
41.81221756336117
 20
36.5580449727006
 10
41.79088536708877
 20
36.4910122105471
 10
41.74469632876117
 20
36.35609187161643
 10
41.69375431049502
 20
36.21987662252053
 10
41.63798362957414
 20
36.08217697623232
 10
41.57729507165413
 20
35.94279888228184
 10
41.51158542225448
 20
35.80154281201837
 10
41.47681146777222
 20
35.7301464502674
 10
41.44073689809874
 20
35.65820279997899
 10
41.3646164718516
 20
35.51256543162532
 10
41.28307508232047
 20
35.36440876689074
 10
41.24022033826713
 20
35.28931372911478
  0
LINE
  5
29E
330
1F
100
AcDbEntity
  8
2
100
AcDbLine
 10
38.75859909537667
 20
35.28931372911478
 30
0.0
 11
41.24022033826713
 21
35.28931372911478
 31
0.0
  0
LWPOLYLINE
  5
29F
330
1F
100
AcDbEntity
  8
2
100
AcDbPolyline
 90
       23
 70
     0
 43
0.0
 10
38.75859909537667
 20
35.28931372911478
 10
38.71574435132334
 20
35.36440876689074
 10
38.6342029617922
 20
35.51256543162532
 10
38.55808253554505
 20
35.65820279997899
 10
38.52200796587158
 20
35.7301464502674
 10
38.48723401138932
 20
35.80154281201837
 10
38.42152436198967
 20
35.94279888228184
 10
38.36083580406967
 20
36.08217697623232
 10
38.30506512314878
 20
36.21987662252053
 10
38.25412310488264
 20
36.35609187161643
 10
38.20793406655503
 20
36.4910122105471
 10
38.18660187028263
 20
36.5580449727006
 10
38.16643548361071
 20
36.62482344283183
 10
38.12957770737057
 20
36.75770854221159
 10
38.09732377124601
 20
36.88984848842216
 10
38.0696492839129
 20
37.02142309304941
 10
38.04654240902574
 20
37.15261182342528
 10
38.02800393216148
 20
37.28359463257829
 10
38.02045157631255
 20
37.34906539215089
 10
38.01404741684428
 20
37.4145528034407
 10
38.00469945269106
 20
37.54566981584435
 10
37.99999999999909
 20
37.6771322453202
 10
37.9994097168219
 20
37.74305237317066
  0
LWPOLYLINE
  5
2A0
330
1F
100
AcDbEntity
  8
2
100
AcDbPolyline
 90
       23
 70
     0
 43
0.0
 10
37.9994097168219
 20
37.74305237317066
 10
37.99999999999909
 20
37.80897250102118
 10
38.00469945269106
 20
37.94043493049702
 10
38.01404741684428
 20
38.07155194290061
 10
38.02045157631255
 20
38.13703935419045
 10
38.02800393216148
 20
38.20251011376303
 10
38.04654240902574
 20
38.3334929229161
 10
38.0696492839129
 20
38.46468165329194
 10
38.09732377124601
 20
38.59625625791918
 10
38.12957770737057
 20
38.72839620412975
 10
38.16643548361071
 20
38.86128130350949
 10
38.18660187028263
 20
38.92805977364074
 10
38.20793406655503
 20
38.99509253579424
 10
38.25412310488264
 20
39.13001287472491
 10
38.30506512314878
 20
39.26622812382078
 10
38.36083580406967
 20
39.40392777010902
 10
38.42152436198967
 20
39.54330586405951
 10
38.48723401138932
 20
39.68456193432297
 10
38.52200796587158
 20
39.75595829607391
 10
38.55808253554505
 20
39.82790194636232
 10
38.6342029617922
 20
39.97353931471605
 10
38.71574435132334
 20
40.12169597945063
 10
38.75859909537667
 20
40.19679101722658
  0
LINE
  5
2A1
330
1F
100
AcDbEntity
  8
2
100
AcDbLine
 10
38.75859909537667
 20
40.19679101722658
 30
0.0
 11
41.24022033826713
 21
40.19679101722658
 31
0.0
  0
LWPOLYLINE
  5
2A2
330
1F
100
AcDbEntity
  8
2
100
AcDbPolyline
 90
       23
 70
     0
 43
0.0
 10
41.24022033826713
 20
40.19679101722658
 10
41.28307508232047
 20
40.12169597945063
 10
41.3646164718516
 20
39.97353931471605
 10
41.44073689809874
 20
39.82790194636232
 10
41.47681146777222
 20
39.75595829607391
 10
41.51158542225448
 20
39.68456193432297
 10
41.57729507165413
 20
39.54330586405951
 10
41.63798362957414
 20
39.40392777010902
 10
41.69375431049502
 20
39.26622812382078
 10
41.74469632876117
 20
39.13001287472491
 10
41.79088536708877
 20
38.99509253579424
 10
41.81221756336117
 20
38.92805977364074
 10
41.83238395003309
 20
38.86128130350949
 10
41.86924172627323
 20
38.72839620412975
 10
41.90149566239779
 20
38.59625625791915
 10
41.9291701497309
 20
38.46468165329194
 10
41.95227702461806
 20
38.3334929229161
 10
41.97081550148232
 20
38.20251011376303
 10
41.97836785733125
 20
38.13703935419045
 10
41.98477201679952
 20
38.07155194290061
 10
41.99411998095274
 20
37.94043493049702
 10
41.99881943364426
 20
37.80897250102118
 10
41.9994097168219
 20
37.74305237317066
  0
LINE
  5
2A3
330
1F
100
AcDbEntity
  8
2
100
AcDbLine
 10
61.29676796415151
 20
36.38183644100292
 30
0.0
 11
41.9994097168219
 21
36.38183644100292
 31
0.0
  0
LINE
  5
2A4
330
1F
100
AcDbEntity
  8
2
100
AcDbLine
 10
64.79676796415152
 20
27.93183644100293
 30
0.0
 11
87.7967679641515
 21
27.93183644100293
 31
0.0
  0
LINE
  5
2A5
330
1F
100
AcDbEntity
  8
2
100
AcDbLine
 10
87.7967679641515
 20
32.83183644100294
 30
0.0
 11
64.79676796415152
 21
32.83183644100294
 31
0.0
  0
ARC
  5
2A6
330
1F
100
AcDbEntity
  8
2
100
AcDbCircle
 10
64.39676796415142
 20
33.97571939209661
 30
0.0
 40
0.4000000000000004
100
AcDbArc
 50
0.0
 51
87.99999999999636
  0
ARC
  5
2A7
330
1F
100
AcDbEntity
  8
2
100
AcDbCircle
 10
64.39676796415142
 20
26.78795348990929
 30
0.0
 40
0.3999999999999999
100
AcDbArc
 50
272.0000000000037
 51
359.9999991462263
  0
LINE
  5
2A8
330
1F
100
AcDbEntity
  8
2
100
AcDbLine
 10
62.79676796415151
 20
26.33183644100296
 30
0.0
 11
64.41072776283272
 21
26.38819715910162
 31
0.0
  0
LINE
  5
2A9
330
1F
100
AcDbEntity
  8
2
100
AcDbLine
 10
64.41072776283272
 20
34.37547572290424
 30
0.0
 11
62.79676796415151
 21
34.43183644100293
 31
0.0
  0
LINE
  5
2AA
330
1F
100
AcDbEntity
  8
2
100
AcDbLine
 10
22.79676796415151
 20
24.38183644100295
 30
0.0
 11
31.00059028317713
 21
24.38183644100295
 31
0.0
  0
LINE
  5
2AB
330
1F
100
AcDbEntity
  8
2
100
AcDbLine
 10
41.9994097168219
 20
24.38183644100295
 30
0.0
 11
61.29676796415151
 21
24.38183644100292
 31
0.0
  0
LINE
  5
2AC
330
1F
100
AcDbEntity
  8
2
100
AcDbLine
 10
31.00059028317713
 20
36.38183644100295
 30
0.0
 11
22.79676796415151
 21
36.38183644100295
 31
0.0
  0
LINE
  5
2AD
330
1F
100
AcDbEntity
  8
2
100
AcDbLine
 10
61.29676796415151
 20
25.08183644100294
 30
0.0
 11
62.79676796415151
 21
25.08183644100294
 31
0.0
  0
LINE
  5
2AE
330
1F
100
AcDbEntity
  8
2
100
AcDbLine
 10
62.79676796415151
 20
35.68183644100293
 30
0.0
 11
61.29676796415151
 21
35.68183644100293
 31
0.0
  0
LINE
  5
2AF
330
1F
100
AcDbEntity
  8
2
100
AcDbLine
 10
87.7967679641515
 20
32.83183644100294
 30
0.0
 11
87.7967679641515
 21
27.93183644100293
 31
0.0
  0
LINE
  5
2B0
330
1F
100
AcDbEntity
  8
2
100
AcDbLine
 10
64.79676796415152
 20
33.97571939209661
 30
0.0
 11
64.79676796415152
 21
26.78795348990929
 31
0.0
  0
LINE
  5
2B1
330
1F
100
AcDbEntity
  8
2
100
AcDbLine
 10
61.29676796415151
 20
36.38183644100292
 30
0.0
 11
61.29676796415151
 21
24.38183644100292
 31
0.0
  0
LINE
  5
2B2
330
1F
100
AcDbEntity
  8
2
100
AcDbLine
 10
22.79676796415151
 20
36.38183644100295
 30
0.0
 11
22.79676796415151
 21
24.38183644100295
 31
0.0
  0
LINE
  5
2B3
330
1F
100
AcDbEntity
  8
2
100
AcDbLine
 10
62.79676796415151
 20
35.68183644100293
 30
0.0
 11
62.79676796415151
 21
25.08183644100294
 31
0.0
  0
LINE
  5
2B4
330
1F
100
AcDbEntity
  8
0
100
AcDbLine
 10
208.5000010000001
 20
35.15747347341378
 30
0.0
 11
200.0000010000001
 21
40.06495076152558
 31
0.0
  0
LINE
  5
2B5
330
1F
100
AcDbEntity
  8
2
100
AcDbLine
 10
200.0000010000001
 20
40.06495076152558
 30
0.0
 11
191.5000010000001
 21
35.15747347341378
 31
0.0
  0
LINE
  5
2B6
330
1F
100
AcDbEntity
  8
0
100
AcDbLine
 10
191.5000010000001
 20
35.15747347341378
 30
0.0
 11
191.5000010000001
 21
25.34251889719013
 31
0.0
  0
LINE
  5
2B7
330
1F
100
AcDbEntity
  8
0
100
AcDbLine
 10
200.0000010000001
 20
20.4350416090783
 30
0.0
 11
208.5000010000001
 21
25.34251889719013
 31
0.0
  0
LINE
  5
2B8
330
1F
100
AcDbEntity
  8
0
100
AcDbLine
 10
191.5000010000001
 20
25.34251889719013
 30
0.0
 11
200.0000010000001
 21
20.4350416090783
 31
0.0
  0
LINE
  5
2B9
330
1F
100
AcDbEntity
  8
0
100
AcDbLine
 10
208.5000010000001
 20
25.34251889719013
 30
0.0
 11
208.5000010000001
 21
35.15747347341378
 31
0.0
  0
CIRCLE
  5
2BA
330
1F
100
AcDbEntity
  8
2
100
AcDbCircle
 10
200.0000010000001
 20
30.24999618530194
 30
0.0
 40
8.500000000000005
  0
LINE
  5
2BB
330
1F
100
AcDbEntity
  8
2
100
AcDbLine
 10
208.5000010000001
 20
35.15747347341378
 30
0.0
 11
200.0000010000001
 21
40.06495076152558
 31
0.0
  0
LINE
  5
2BC
330
1F
100
AcDbEntity
  8
2
100
AcDbLine
 10
191.5000010000001
 20
35.15747347341378
 30
0.0
 11
191.5000010000001
 21
25.34251889719013
 31
0.0
  0
LINE
  5
2BD
330
1F
100
AcDbEntity
  8
2
100
AcDbLine
 10
200.0000010000001
 20
20.4350416090783
 30
0.0
 11
208.5000010000001
 21
25.34251889719013
 31
0.0
  0
LINE
  5
2BE
330
1F
100
AcDbEntity
  8
2
100
AcDbLine
 10
191.5000010000001
 20
25.34251889719013
 30
0.0
 11
200.0000010000001
 21
20.4350416090783
 31
0.0
  0
LINE
  5
2BF
330
1F
100
AcDbEntity
  8
2
100
AcDbLine
 10
208.5000010000001
 20
25.34251889719013
 30
0.0
 11
208.5000010000001
 21
35.15747347341378
 31
0.0
  0
CIRCLE
  5
2C0
330
1F
100
AcDbEntity
  8
2
100
AcDbCircle
 10
200.0000010000001
 20
30.24999618530197
 30
0.0
 40
5.999999999999996
  0
CIRCLE
  5
2C1
330
1F
100
AcDbEntity
  8
2
100
AcDbCircle
 10
200.0000010000001
 20
30.24999618530194
 30
0.0
 40
5.3
  0
CIRCLE
  5
2C2
330
1F
100
AcDbEntity
  8
2
100
AcDbCircle
 10
200.0000010000001
 20
30.24999618530197
 30
0.0
 40
2.449999999999995
  0
LINE
  5
2C3
330
1F
100
AcDbEntity
  8
1
100
AcDbLine
 10
190.7408478790801
 20
30.24999618530194
 30
0.0
 11
209.2591541209201
 21
30.24999618530194
 31
0.0
  0
LINE
  5
2C4
330
1F
100
AcDbEntity
  8
3
  6
DASHED
100
AcDbLine
 10
42.0
 20
208.5
 30
0.0
 11
42.0
 21
191.5
 31
0.0
  0
LINE
  5
2C5
330
1F
100
AcDbEntity
  8
3
  6
DASHED
100
AcDbLine
 10
38.0
 20
208.5
 30
0.0
 11
38.0
 21
191.5
 31
0.0
  0
LWPOLYLINE
  5
2C6
330
1F
100
AcDbEntity
  8
3
  6
DASHED
100
AcDbPolyline
 90
       23
 70
     0
 43
0.0
 10
41.24081062144523
 20
208.5
 10
41.28366536549856
 20
208.3699315791757
 10
41.3652067550297
 20
208.1133167083755
 10
41.4413271812773
 20
207.8610653869063
 10
41.47740175095077
 20
207.7364553293247
 10
41.51217570543258
 20
207.6127932032965
 10
41.57788535483269
 20
207.3681305127227
 10
41.63857391275269
 20
207.1267205725384
 10
41.69434459367312
 20
206.8882177889828
 10
41.74528661193926
 20
206.6522860567832
 10
41.79147565026733
 20
206.4185971747808
 10
41.81280784653973
 20
206.3024930249593
 10
41.83297423321119
 20
206.1868293218402
 10
41.86983200945133
 20
205.9566655781457
 10
41.90208594557589
 20
205.7277924775996
 10
41.929760432909
 20
205.4998985773993
 10
41.95286730779616
 20
205.2726730310079
 10
41.97140578466042
 20
205.0458041506368
 10
41.97895814050935
 20
204.9324054686469
 10
41.98536229997762
 20
204.8189779450368
 10
41.99471026413085
 20
204.5918766178171
 10
41.99940971682281
 20
204.3641770106785
 10
42.0
 20
204.25
  0
LWPOLYLINE
  5
2C7
330
1F
100
AcDbEntity
  8
3
  6
DASHED
100
AcDbPolyline
 90
       23
 70
     0
 43
0.0
 10
42.0
 20
204.25
 10
41.99940971682281
 20
204.1358229893215
 10
41.99471026413085
 20
203.9081233821829
 10
41.98536229997762
 20
203.6810220549632
 10
41.97895814050935
 20
203.567594531353
 10
41.97140578466042
 20
203.4541958493633
 10
41.95286730779616
 20
203.2273269689921
 10
41.929760432909
 20
203.0001014226006
 10
41.90208594557589
 20
202.7722075224005
 10
41.86983200945133
 20
202.5433344218543
 10
41.83297423321119
 20
202.3131706781597
 10
41.81280784653973
 20
202.1975069750407
 10
41.79147565026733
 20
202.0814028252192
 10
41.74528661193926
 20
201.8477139432168
 10
41.69434459367312
 20
201.6117822110171
 10
41.63857391275269
 20
201.3732794274616
 10
41.57788535483269
 20
201.1318694872773
 10
41.51217570543258
 20
200.8872067967035
 10
41.47740175095077
 20
200.7635446706753
 10
41.4413271812773
 20
200.6389346130937
 10
41.3652067550297
 20
200.3866832916245
 10
41.28366536549856
 20
200.1300684208243
 10
41.24081062144523
 20
200.0
  0
LWPOLYLINE
  5
2C8
330
1F
100
AcDbEntity
  8
3
  6
DASHED
100
AcDbPolyline
 90
       23
 70
     0
 43
0.0
 10
38.75918937855477
 20
200.0
 10
38.71633463450189
 20
200.1300684208243
 10
38.63479324497075
 20
200.3866832916245
 10
38.55867281872315
 20
200.6389346130937
 10
38.52259824904968
 20
200.7635446706753
 10
38.48782429456742
 20
200.8872067967035
 10
38.42211464516777
 20
201.1318694872773
 10
38.36142608724776
 20
201.3732794274616
 10
38.30565540632688
 20
201.6117822110171
 10
38.25471338806074
 20
201.8477139432168
 10
38.20852434973313
 20
202.0814028252192
 10
38.18719215346073
 20
202.1975069750407
 10
38.16702576678881
 20
202.3131706781597
 10
38.13016799054913
 20
202.5433344218543
 10
38.09791405442411
 20
202.7722075224005
 10
38.07023956709145
 20
203.0001014226006
 10
38.04713269220428
 20
203.2273269689921
 10
38.02859421534004
 20
203.4541958493633
 10
38.02104185949065
 20
203.567594531353
 10
38.01463770002283
 20
203.6810220549632
 10
38.00528973586916
 20
203.9081233821829
 10
38.00059028317765
 20
204.1358229893215
 10
38.0
 20
204.25
  0
LWPOLYLINE
  5
2C9
330
1F
100
AcDbEntity
  8
3
  6
DASHED
100
AcDbPolyline
 90
       23
 70
     0
 43
0.0
 10
38.0
 20
204.25
 10
38.00059028317765
 20
204.3641770106785
 10
38.00528973586916
 20
204.5918766178171
 10
38.01463770002283
 20
204.8189779450368
 10
38.02104185949065
 20
204.9324054686469
 10
38.02859421534004
 20
205.0458041506368
 10
38.04713269220428
 20
205.2726730310079
 10
38.07023956709145
 20
205.4998985773994
 10
38.09791405442411
 20
205.7277924775996
 10
38.13016799054913
 20
205.9566655781457
 10
38.16702576678881
 20
206.1868293218402
 10
38.18719215346073
 20
206.3024930249593
 10
38.20852434973313
 20
206.4185971747808
 10
38.25471338806074
 20
206.6522860567832
 10
38.30565540632688
 20
206.8882177889828
 10
38.36142608724776
 20
207.1267205725384
 10
38.42211464516777
 20
207.3681305127227
 10
38.48782429456742
 20
207.6127932032965
 10
38.52259824904968
 20
207.7364553293247
 10
38.55867281872315
 20
207.8610653869063
 10
38.63479324497075
 20
208.1133167083755
 10
38.71633463450189
 20
208.3699315791757
 10
38.75918937855477
 20
208.5
  0
LINE
  5
2CA
330
1F
100
AcDbEntity
  8
3
  6
DASHED
100
AcDbLine
 10
41.24081062144523
 20
200.0
 30
0.0
 11
38.75918937855477
 21
200.0
 31
0.0
  0
LWPOLYLINE
  5
2CB
330
1F
100
AcDbEntity
  8
3
  6
DASHED
100
AcDbPolyline
 90
       23
 70
     0
 43
0.0
 10
41.24081062144523
 20
200.0
 10
41.28366536549856
 20
199.8699315791757
 10
41.3652067550297
 20
199.6133167083755
 10
41.4413271812773
 20
199.3610653869062
 10
41.47740175095077
 20
199.2364553293247
 10
41.51217570543258
 20
199.1127932032965
 10
41.57788535483269
 20
198.8681305127227
 10
41.63857391275269
 20
198.6267205725384
 10
41.69434459367312
 20
198.3882177889828
 10
41.74528661193926
 20
198.1522860567831
 10
41.79147565026733
 20
197.9185971747808
 10
41.81280784653973
 20
197.8024930249593
 10
41.83297423321119
 20
197.6868293218402
 10
41.86983200945133
 20
197.4566655781457
 10
41.90208594557589
 20
197.2277924775995
 10
41.929760432909
 20
196.9998985773993
 10
41.95286730779616
 20
196.7726730310079
 10
41.97140578466042
 20
196.5458041506367
 10
41.97895814050935
 20
196.4324054686469
 10
41.98536229997762
 20
196.3189779450368
 10
41.99471026413085
 20
196.0918766178171
 10
41.99940971682281
 20
195.8641770106785
 10
42.0
 20
195.75
  0
LWPOLYLINE
  5
2CC
330
1F
100
AcDbEntity
  8
3
  6
DASHED
100
AcDbPolyline
 90
       23
 70
     0
 43
0.0
 10
42.0
 20
195.75
 10
41.99940971682281
 20
195.6358229893215
 10
41.99471026413085
 20
195.4081233821829
 10
41.98536229997762
 20
195.1810220549632
 10
41.97895814050935
 20
195.067594531353
 10
41.97140578466042
 20
194.9541958493632
 10
41.95286730779616
 20
194.7273269689921
 10
41.929760432909
 20
194.5001014226006
 10
41.90208594557589
 20
194.2722075224004
 10
41.86983200945133
 20
194.0433344218543
 10
41.83297423321119
 20
193.8131706781597
 10
41.81280784653973
 20
193.6975069750407
 10
41.79147565026733
 20
193.5814028252192
 10
41.74528661193926
 20
193.3477139432168
 10
41.69434459367312
 20
193.1117822110171
 10
41.63857391275269
 20
192.8732794274616
 10
41.57788535483269
 20
192.6318694872773
 10
41.51217570543258
 20
192.3872067967035
 10
41.47740175095077
 20
192.2635446706753
 10
41.4413271812773
 20
192.1389346130937
 10
41.3652067550297
 20
191.8866832916245
 10
41.28366536549856
 20
191.6300684208243
 10
41.24081062144523
 20
191.5
  0
LWPOLYLINE
  5
2CD
330
1F
100
AcDbEntity
  8
3
  6
DASHED
100
AcDbPolyline
 90
       23
 70
     0
 43
0.0
 10
38.75918937855477
 20
191.5
 10
38.71633463450189
 20
191.6300684208243
 10
38.63479324497075
 20
191.8866832916245
 10
38.55867281872315
 20
192.1389346130937
 10
38.52259824904968
 20
192.2635446706753
 10
38.48782429456742
 20
192.3872067967035
 10
38.42211464516777
 20
192.6318694872773
 10
38.36142608724776
 20
192.8732794274616
 10
38.30565540632688
 20
193.1117822110171
 10
38.25471338806074
 20
193.3477139432168
 10
38.20852434973313
 20
193.5814028252192
 10
38.18719215346073
 20
193.6975069750407
 10
38.16702576678881
 20
193.8131706781597
 10
38.13016799054913
 20
194.0433344218543
 10
38.09791405442411
 20
194.2722075224004
 10
38.07023956709145
 20
194.5001014226006
 10
38.04713269220428
 20
194.7273269689921
 10
38.02859421534004
 20
194.9541958493632
 10
38.02104185949065
 20
195.067594531353
 10
38.01463770002283
 20
195.1810220549632
 10
38.00528973586916
 20
195.4081233821829
 10
38.00059028317765
 20
195.6358229893215
 10
38.0
 20
195.75
  0
LWPOLYLINE
  5
2CE
330
1F
100
AcDbEntity
  8
3
  6
DASHED
100
AcDbPolyline
 90
       23
 70
     0
 43
0.0
 10
38.0
 20
195.75
 10
38.00059028317765
 20
195.8641770106785
 10
38.00528973586916
 20
196.0918766178171
 10
38.01463770002283
 20
196.3189779450368
 10
38.02104185949065
 20
196.4324054686469
 10
38.02859421534004
 20
196.5458041506367
 10
38.04713269220428
 20
196.7726730310079
 10
38.07023956709145
 20
196.9998985773993
 10
38.09791405442411
 20
197.2277924775995
 10
38.13016799054913
 20
197.4566655781457
 10
38.16702576678881
 20
197.6868293218402
 10
38.18719215346073
 20
197.8024930249593
 10
38.20852434973313
 20
197.9185971747808
 10
38.25471338806074
 20
198.1522860567831
 10
38.30565540632688
 20
198.3882177889828
 10
38.36142608724776
 20
198.6267205725384
 10
38.42211464516777
 20
198.8681305127227
 10
38.48782429456742
 20
199.1127932032965
 10
38.52259824904968
 20
199.2364553293247
 10
38.55867281872315
 20
199.3610653869062
 10
38.63479324497075
 20
199.6133167083755
 10
38.71633463450189
 20
199.8699315791757
 10
38.75918937855477
 20
200.0
  0
LINE
  5
2CF
330
1F
100
AcDbEntity
  8
3
  6
DASHED
100
AcDbLine
 10
38.0
 20
191.5
 30
0.0
 11
42.0
 21
191.5
 31
0.0
  0
LINE
  5
2D0
330
1F
100
AcDbEntity
  8
3
  6
DASHED
100
AcDbLine
 10
42.0
 20
208.5
 30
0.0
 11
38.0
 21
208.5
 31
0.0
  0
LINE
  5
2D1
330
1F
100
AcDbEntity
  8
3
  6
DASHED
100
AcDbLine
 10
35.0
 20
208.5
 30
0.0
 11
35.0
 21
191.5
 31
0.0
  0
LINE
  5
2D2
330
1F
100
AcDbEntity
  8
3
  6
DASHED
100
AcDbLine
 10
31.0
 20
208.5
 30
0.0
 11
31.0
 21
191.5
 31
0.0
  0
LWPOLYLINE
  5
2D3
330
1F
100
AcDbEntity
  8
3
  6
DASHED
100
AcDbPolyline
 90
       23
 70
     0
 43
0.0
 10
34.24081062144523
 20
208.5
 10
34.28366536549857
 20
208.3699315791757
 10
34.36520675502971
 20
208.1133167083755
 10
34.4413271812773
 20
207.8610653869063
 10
34.47740175095078
 20
207.7364553293247
 10
34.51217570543259
 20
207.6127932032965
 10
34.57788535483269
 20
207.3681305127227
 10
34.63857391275269
 20
207.1267205725384
 10
34.69434459367312
 20
206.8882177889828
 10
34.74528661193927
 20
206.6522860567832
 10
34.79147565026733
 20
206.4185971747808
 10
34.81280784653973
 20
206.3024930249593
 10
34.83297423321119
 20
206.1868293218402
 10
34.86983200945133
 20
205.9566655781457
 10
34.90208594557589
 20
205.7277924775996
 10
34.92976043290901
 20
205.4998985773993
 10
34.95286730779617
 20
205.2726730310079
 10
34.97140578466042
 20
205.0458041506368
 10
34.97895814050935
 20
204.9324054686469
 10
34.98536229997763
 20
204.8189779450368
 10
34.99471026413085
 20
204.5918766178171
 10
34.99940971682281
 20
204.3641770106785
 10
35.0
 20
204.25
  0
LWPOLYLINE
  5
2D4
330
1F
100
AcDbEntity
  8
3
  6
DASHED
100
AcDbPolyline
 90
       23
 70
     0
 43
0.0
 10
35.0
 20
204.25
 10
34.99940971682281
 20
204.1358229893215
 10
34.99471026413085
 20
203.9081233821829
 10
34.98536229997763
 20
203.6810220549632
 10
34.97895814050935
 20
203.567594531353
 10
34.97140578466042
 20
203.4541958493633
 10
34.95286730779617
 20
203.2273269689921
 10
34.92976043290901
 20
203.0001014226006
 10
34.90208594557589
 20
202.7722075224005
 10
34.86983200945133
 20
202.5433344218543
 10
34.83297423321119
 20
202.3131706781597
 10
34.81280784653973
 20
202.1975069750407
 10
34.79147565026733
 20
202.0814028252192
 10
34.74528661193927
 20
201.8477139432168
 10
34.69434459367312
 20
201.6117822110171
 10
34.63857391275269
 20
201.3732794274616
 10
34.57788535483269
 20
201.1318694872773
 10
34.51217570543259
 20
200.8872067967035
 10
34.47740175095078
 20
200.7635446706753
 10
34.4413271812773
 20
200.6389346130937
 10
34.36520675502971
 20
200.3866832916245
 10
34.28366536549857
 20
200.1300684208243
 10
34.24081062144523
 20
200.0
  0
LWPOLYLINE
  5
2D5
330
1F
100
AcDbEntity
  8
3
  6
DASHED
100
AcDbPolyline
 90
       23
 70
     0
 43
0.0
 10
31.75918937855477
 20
200.0
 10
31.71633463450189
 20
200.1300684208243
 10
31.63479324497075
 20
200.3866832916245
 10
31.55867281872315
 20
200.6389346130937
 10
31.52259824904968
 20
200.7635446706753
 10
31.48782429456742
 20
200.8872067967035
 10
31.42211464516777
 20
201.1318694872773
 10
31.36142608724777
 20
201.3732794274616
 10
31.30565540632688
 20
201.6117822110171
 10
31.25471338806074
 20
201.8477139432168
 10
31.20852434973313
 20
202.0814028252192
 10
31.18719215346073
 20
202.1975069750407
 10
31.16702576678881
 20
202.3131706781597
 10
31.13016799054913
 20
202.5433344218543
 10
31.09791405442411
 20
202.7722075224005
 10
31.07023956709145
 20
203.0001014226006
 10
31.04713269220429
 20
203.2273269689921
 10
31.02859421534004
 20
203.4541958493633
 10
31.02104185949065
 20
203.567594531353
 10
31.01463770002283
 20
203.6810220549632
 10
31.00528973586916
 20
203.9081233821829
 10
31.00059028317764
 20
204.1358229893215
 10
31.0
 20
204.25
  0
LWPOLYLINE
  5
2D6
330
1F
100
AcDbEntity
  8
3
  6
DASHED
100
AcDbPolyline
 90
       23
 70
     0
 43
0.0
 10
31.0
 20
204.25
 10
31.00059028317764
 20
204.3641770106785
 10
31.00528973586916
 20
204.5918766178171
 10
31.01463770002283
 20
204.8189779450368
 10
31.02104185949065
 20
204.9324054686469
 10
31.02859421534004
 20
205.0458041506368
 10
31.04713269220429
 20
205.2726730310079
 10
31.07023956709145
 20
205.4998985773994
 10
31.09791405442411
 20
205.7277924775996
 10
31.13016799054913
 20
205.9566655781457
 10
31.16702576678881
 20
206.1868293218402
 10
31.18719215346073
 20
206.3024930249593
 10
31.20852434973313
 20
206.4185971747808
 10
31.25471338806074
 20
206.6522860567832
 10
31.30565540632688
 20
206.8882177889828
 10
31.36142608724777
 20
207.1267205725384
 10
31.42211464516777
 20
207.3681305127227
 10
31.48782429456742
 20
207.6127932032965
 10
31.52259824904968
 20
207.7364553293247
 10
31.55867281872315
 20
207.8610653869063
 10
31.63479324497075
 20
208.1133167083755
 10
31.71633463450189
 20
208.3699315791757
 10
31.75918937855477
 20
208.5
  0
LINE
  5
2D7
330
1F
100
AcDbEntity
  8
3
  6
DASHED
100
AcDbLine
 10
34.24081062144523
 20
200.0
 30
0.0
 11
31.75918937855477
 21
200.0
 31
0.0
  0
LWPOLYLINE
  5
2D8
330
1F
100
AcDbEntity
  8
3
  6
DASHED
100
AcDbPolyline
 90
       23
 70
     0
 43
0.0
 10
34.24081062144523
 20
200.0
 10
34.28366536549857
 20
199.8699315791757
 10
34.36520675502971
 20
199.6133167083755
 10
34.4413271812773
 20
199.3610653869062
 10
34.47740175095078
 20
199.2364553293247
 10
34.51217570543259
 20
199.1127932032965
 10
34.57788535483269
 20
198.8681305127227
 10
34.63857391275269
 20
198.6267205725384
 10
34.69434459367312
 20
198.3882177889828
 10
34.74528661193927
 20
198.1522860567831
 10
34.79147565026733
 20
197.9185971747808
 10
34.81280784653973
 20
197.8024930249593
 10
34.83297423321119
 20
197.6868293218402
 10
34.86983200945133
 20
197.4566655781457
 10
34.90208594557589
 20
197.2277924775995
 10
34.92976043290901
 20
196.9998985773993
 10
34.95286730779617
 20
196.7726730310079
 10
34.97140578466042
 20
196.5458041506367
 10
34.97895814050935
 20
196.4324054686469
 10
34.98536229997763
 20
196.3189779450368
 10
34.99471026413085
 20
196.0918766178171
 10
34.99940971682281
 20
195.8641770106785
 10
35.0
 20
195.75
  0
LWPOLYLINE
  5
2D9
330
1F
100
AcDbEntity
  8
3
  6
DASHED
100
AcDbPolyline
 90
       23
 70
     0
 43
0.0
 10
35.0
 20
195.75
 10
34.99940971682281
 20
195.6358229893215
 10
34.99471026413085
 20
195.4081233821829
 10
34.98536229997763
 20
195.1810220549632
 10
34.97895814050935
 20
195.067594531353
 10
34.97140578466042
 20
194.9541958493632
 10
34.95286730779617
 20
194.7273269689921
 10
34.92976043290901
 20
194.5001014226006
 10
34.90208594557589
 20
194.2722075224004
 10
34.86983200945133
 20
194.0433344218543
 10
34.83297423321119
 20
193.8131706781597
 10
34.81280784653973
 20
193.6975069750407
 10
34.79147565026733
 20
193.5814028252192
 10
34.74528661193927
 20
193.3477139432168
 10
34.69434459367312
 20
193.1117822110171
 10
34.63857391275269
 20
192.8732794274616
 10
34.57788535483269
 20
192.6318694872773
 10
34.51217570543259
 20
192.3872067967035
 10
34.47740175095078
 20
192.2635446706753
 10
34.4413271812773
 20
192.1389346130937
 10
34.36520675502971
 20
191.8866832916245
 10
34.28366536549857
 20
191.6300684208243
 10
34.24081062144523
 20
191.5
  0
LWPOLYLINE
  5
2DA
330
1F
100
AcDbEntity
  8
3
  6
DASHED
100
AcDbPolyline
 90
       23
 70
     0
 43
0.0
 10
31.75918937855477
 20
191.5
 10
31.71633463450189
 20
191.6300684208243
 10
31.63479324497075
 20
191.8866832916245
 10
31.55867281872315
 20
192.1389346130937
 10
31.52259824904968
 20
192.2635446706753
 10
31.48782429456742
 20
192.3872067967035
 10
31.42211464516777
 20
192.6318694872773
 10
31.36142608724777
 20
192.8732794274616
 10
31.30565540632688
 20
193.1117822110171
 10
31.25471338806074
 20
193.3477139432168
 10
31.20852434973313
 20
193.5814028252192
 10
31.18719215346073
 20
193.6975069750407
 10
31.16702576678881
 20
193.8131706781597
 10
31.13016799054913
 20
194.0433344218543
 10
31.09791405442411
 20
194.2722075224004
 10
31.07023956709145
 20
194.5001014226006
 10
31.04713269220429
 20
194.7273269689921
 10
31.02859421534004
 20
194.9541958493632
 10
31.02104185949065
 20
195.067594531353
 10
31.01463770002283
 20
195.1810220549632
 10
31.00528973586916
 20
195.4081233821829
 10
31.00059028317764
 20
195.6358229893215
 10
31.0
 20
195.75
  0
LWPOLYLINE
  5
2DB
330
1F
100
AcDbEntity
  8
3
  6
DASHED
100
AcDbPolyline
 90
       23
 70
     0
 43
0.0
 10
31.0
 20
195.75
 10
31.00059028317764
 20
195.8641770106785
 10
31.00528973586916
 20
196.0918766178171
 10
31.01463770002283
 20
196.3189779450368
 10
31.02104185949065
 20
196.4324054686469
 10
31.02859421534004
 20
196.5458041506367
 10
31.04713269220429
 20
196.7726730310079
 10
31.07023956709145
 20
196.9998985773993
 10
31.09791405442411
 20
197.2277924775995
 10
31.13016799054913
 20
197.4566655781457
 10
31.16702576678881
 20
197.6868293218402
 10
31.18719215346073
 20
197.8024930249593
 10
31.20852434973313
 20
197.9185971747808
 10
31.25471338806074
 20
198.1522860567831
 10
31.30565540632688
 20
198.3882177889828
 10
31.36142608724777
 20
198.6267205725384
 10
31.42211464516777
 20
198.8681305127227
 10
31.48782429456742
 20
199.1127932032965
 10
31.52259824904968
 20
199.2364553293247
 10
31.55867281872315
 20
199.3610653869062
 10
31.63479324497075
 20
199.6133167083755
 10
31.71633463450189
 20
199.8699315791757
 10
31.75918937855477
 20
200.0
  0
LINE
  5
2DC
330
1F
100
AcDbEntity
  8
3
  6
DASHED
100
AcDbLine
 10
31.0
 20
191.5
 30
0.0
 11
35.0
 21
191.5
 31
0.0
  0
LINE
  5
2DD
330
1F
100
AcDbEntity
  8
3
  6
DASHED
100
AcDbLine
 10
35.0
 20
208.5
 30
0.0
 11
31.0
 21
208.5
 31
0.0
  0
LINE
  5
2DE
330
1F
100
AcDbEntity
  8
3
  6
DASHED
100
AcDbLine
 10
61.29735824732961
 20
206.0
 30
0.0
 11
42.0
 21
206.0
 31
0.0
  0
LINE
  5
2DF
330
1F
100
AcDbEntity
  8
3
  6
DASHED
100
AcDbLine
 10
64.79735824732961
 20
197.55
 30
0.0
 11
87.79735824732961
 21
197.5499999999999
 31
0.0
  0
LINE
  5
2E0
330
1F
100
AcDbEntity
  8
3
  6
DASHED
100
AcDbLine
 10
87.79735824732961
 20
202.45
 30
0.0
 11
64.79735824732961
 21
202.45
 31
0.0
  0
ARC
  5
2E1
330
1F
100
AcDbEntity
  8
3
  6
DASHED
100
AcDbCircle
 10
64.39735824732952
 20
203.5938829510936
 30
0.0
 40
0.4000000000000004
100
AcDbArc
 50
0.0
 51
87.99999999999636
  0
ARC
  5
2E2
330
1F
100
AcDbEntity
  8
3
  6
DASHED
100
AcDbCircle
 10
64.39735824732952
 20
196.4061170489063
 30
0.0
 40
0.3999999999999999
100
AcDbArc
 50
272.0000000000037
 51
359.9999991462263
  0
LINE
  5
2E3
330
1F
100
AcDbEntity
  8
3
  6
DASHED
100
AcDbLine
 10
62.79735824732961
 20
195.95
 30
0.0
 11
64.41131804601082
 21
196.0063607180986
 31
0.0
  0
LINE
  5
2E4
330
1F
100
AcDbEntity
  8
3
  6
DASHED
100
AcDbLine
 10
64.41131804601082
 20
203.9936392819013
 30
0.0
 11
62.79735824732961
 21
204.05
 31
0.0
  0
LINE
  5
2E5
330
1F
100
AcDbEntity
  8
3
  6
DASHED
100
AcDbLine
 10
22.79735824732961
 20
194.0
 30
0.0
 11
31.0
 21
194.0
 31
0.0
  0
LINE
  5
2E6
330
1F
100
AcDbEntity
  8
3
  6
DASHED
100
AcDbLine
 10
42.0
 20
194.0
 30
0.0
 11
61.29735824732961
 21
194.0
 31
0.0
  0
LINE
  5
2E7
330
1F
100
AcDbEntity
  8
3
  6
DASHED
100
AcDbLine
 10
31.0
 20
206.0
 30
0.0
 11
22.79735824732961
 21
206.0
 31
0.0
  0
LINE
  5
2E8
330
1F
100
AcDbEntity
  8
3
  6
DASHED
100
AcDbLine
 10
61.29735824732961
 20
194.7
 30
0.0
 11
62.79735824732961
 21
194.7
 31
0.0
  0
LINE
  5
2E9
330
1F
100
AcDbEntity
  8
3
  6
DASHED
100
AcDbLine
 10
62.79735824732961
 20
205.3
 30
0.0
 11
61.29735824732961
 21
205.3
 31
0.0
  0
LINE
  5
2EA
330
1F
100
AcDbEntity
  8
3
  6
DASHED
100
AcDbLine
 10
87.79735824732961
 20
202.45
 30
0.0
 11
87.79735824732961
 21
197.5499999999999
 31
0.0
  0
LINE
  5
2EB
330
1F
100
AcDbEntity
  8
3
  6
DASHED
100
AcDbLine
 10
64.79735824732961
 20
203.5938829510936
 30
0.0
 11
64.79735824732961
 21
196.4061170489063
 31
0.0
  0
LINE
  5
2EC
330
1F
100
AcDbEntity
  8
3
  6
DASHED
100
AcDbLine
 10
61.29735824732961
 20
206.0
 30
0.0
 11
61.29735824732961
 21
194.0
 31
0.0
  0
LINE
  5
2ED
330
1F
100
AcDbEntity
  8
3
  6
DASHED
100
AcDbLine
 10
22.79735824732961
 20
206.0
 30
0.0
 11
22.79735824732961
 21
194.0
 31
0.0
  0
LINE
  5
2EE
330
1F
100
AcDbEntity
  8
3
  6
DASHED
100
AcDbLine
 10
62.79735824732961
 20
205.3
 30
0.0
 11
62.79735824732961
 21
194.7
 31
0.0
  0
LWPOLYLINE
  5
2EF
330
1F
100
AcDbEntity
  8
3
  6
DASHED
100
AcDbPolyline
 90
       23
 70
     0
 43
0.0
 10
31.7597796617319
 20
65.19679101722656
 10
31.71692491767857
 20
65.1216959794506
 10
31.63538352814743
 20
64.97353931471602
 10
31.55926310190029
 20
64.82790194636232
 10
31.52318853222681
 20
64.75595829607391
 10
31.48841457774455
 20
64.68456193432297
 10
31.4227049283449
 20
64.54330586405951
 10
31.3620163704249
 20
64.40392777010902
 10
31.30624568950401
 20
64.26622812382078
 10
31.25530367123787
 20
64.13001287472491
 10
31.20911463291026
 20
63.99509253579424
 10
31.18778243663786
 20
63.92805977364071
 10
31.16761604996594
 20
63.86128130350948
 10
31.1307582737258
 20
63.72839620412975
 10
31.09850433760124
 20
63.59625625791915
 10
31.07082985026813
 20
63.46468165329191
 10
31.04772297538096
 20
63.33349292291607
 10
31.02918449851671
 20
63.20251011376303
 10
31.02163214266778
 20
63.13703935419045
 10
31.01522798319951
 20
63.07155194290061
 10
31.00588001904629
 20
62.94043493049699
 10
31.00118056635432
 20
62.80897250102118
 10
31.00059028317713
 20
62.74305237317065
  0
LWPOLYLINE
  5
2F0
330
1F
100
AcDbEntity
  8
3
  6
DASHED
100
AcDbPolyline
 90
       23
 70
     0
 43
0.0
 10
31.00059028317713
 20
62.74305237317065
 10
31.00118056635478
 20
62.67713224532016
 10
31.00588001904629
 20
62.54566981584432
 10
31.01522798319951
 20
62.41455280344069
 10
31.02163214266778
 20
62.34906539215086
 10
31.02918449851671
 20
62.28359463257828
 10
31.04772297538096
 20
62.15261182342525
 10
31.07082985026813
 20
62.02142309304941
 10
31.09850433760124
 20
61.88984848842216
 10
31.1307582737258
 20
61.75770854221156
 10
31.16761604996594
 20
61.62482344283183
 10
31.18778243663786
 20
61.5580449727006
 10
31.20911463291026
 20
61.4910122105471
 10
31.25530367123787
 20
61.3560918716164
 10
31.30624568950401
 20
61.21987662252053
 10
31.3620163704249
 20
61.08217697623231
 10
31.4227049283449
 20
60.94279888228181
 10
31.48841457774455
 20
60.80154281201837
 10
31.52318853222681
 20
60.7301464502674
 10
31.55926310190029
 20
60.65820279997899
 10
31.63538352814743
 20
60.51256543162529
 10
31.71692491767857
 20
60.3644087668907
 10
31.7597796617319
 20
60.28931372911475
  0
LINE
  5
2F1
330
1F
100
AcDbEntity
  8
3
  6
DASHED
100
AcDbLine
 10
31.7597796617319
 20
65.19679101722658
 30
0.0
 11
31.00059028317713
 21
63.88183644100291
 31
0.0
  0
LINE
  5
2F2
330
1F
100
AcDbEntity
  8
3
  6
DASHED
100
AcDbLine
 10
31.00059028317713
 20
46.88183644100291
 30
0.0
 11
31.7597796617319
 21
45.5668818647793
 31
0.0
  0
LINE
  5
2F3
330
1F
100
AcDbEntity
  8
3
  6
DASHED
100
AcDbLine
 10
35.00059028317713
 20
63.88183644100291
 30
0.0
 11
34.24140090462237
 21
65.19679101722656
 31
0.0
  0
LINE
  5
2F4
330
1F
100
AcDbEntity
  8
3
  6
DASHED
100
AcDbLine
 10
34.24140090462237
 20
45.5668818647793
 30
0.0
 11
35.00059028317713
 21
46.88183644100291
 31
0.0
  0
LINE
  5
2F5
330
1F
100
AcDbEntity
  8
3
  6
DASHED
100
AcDbLine
 10
31.00059028317713
 20
46.88183644100291
 30
0.0
 11
31.00059028317713
 21
63.88183644100291
 31
0.0
  0
LINE
  5
2F6
330
1F
100
AcDbEntity
  8
3
  6
DASHED
100
AcDbLine
 10
37.9994097168219
 20
46.88183644100294
 30
0.0
 11
37.9994097168219
 21
63.88183644100291
 31
0.0
  0
LINE
  5
2F7
330
1F
100
AcDbEntity
  8
3
  6
DASHED
100
AcDbLine
 10
31.7597796617319
 20
45.5668818647793
 30
0.0
 11
34.24140090462237
 21
45.5668818647793
 31
0.0
  0
LWPOLYLINE
  5
2F8
330
1F
100
AcDbEntity
  8
3
  6
DASHED
100
AcDbPolyline
 90
       23
 70
     0
 43
0.0
 10
31.7597796617319
 20
45.5668818647793
 10
31.71692491767857
 20
45.64197690255525
 10
31.63538352814743
 20
45.79013356728984
 10
31.55926310190029
 20
45.93577093564351
 10
31.52318853222681
 20
46.00771458593195
 10
31.48841457774455
 20
46.07911094768289
 10
31.4227049283449
 20
46.22036701794638
 10
31.3620163704249
 20
46.35974511189687
 10
31.30624568950401
 20
46.49744475818508
 10
31.25530367123787
 20
46.63366000728095
 10
31.20911463291026
 20
46.76858034621164
 10
31.18778243663786
 20
46.83561310836512
 10
31.16761604996594
 20
46.90239157849638
 10
31.1307582737258
 20
47.03527667787611
 10
31.09850433760124
 20
47.16741662408668
 10
31.07082985026813
 20
47.29899122871393
 10
31.04772297538096
 20
47.4301799590898
 10
31.02918449851671
 20
47.56116276824283
 10
31.02163214266778
 20
47.62663352781544
 10
31.01522798319951
 20
47.69212093910522
 10
31.00588001904629
 20
47.82323795150887
 10
31.00118056635432
 20
47.95470038098471
 10
31.00059028317713
 20
48.0206205088352
  0
LWPOLYLINE
  5
2F9
330
1F
100
AcDbEntity
  8
3
  6
DASHED
100
AcDbPolyline
 90
       23
 70
     0
 43
0.0
 10
31.00059028317713
 20
48.0206205088352
 10
31.00118056635478
 20
48.08654063668569
 10
31.00588001904629
 20
48.21800306616154
 10
31.01522798319951
 20
48.34912007856516
 10
31.02163214266778
 20
48.41460748985497
 10
31.02918449851671
 20
48.48007824942754
 10
31.04772297538096
 20
48.61106105858062
 10
31.07082985026813
 20
48.74224978895646
 10
31.09850433760124
 20
48.8738243935837
 10
31.1307582737258
 20
49.00596433979427
 10
31.16761604996594
 20
49.13884943917401
 10
31.18778243663786
 20
49.20562790930529
 10
31.20911463291026
 20
49.27266067145876
 10
31.25530367123787
 20
49.40758101038944
 10
31.30624568950401
 20
49.5437962594853
 10
31.3620163704249
 20
49.68149590577354
 10
31.4227049283449
 20
49.82087399972403
 10
31.48841457774455
 20
49.9621300699875
 10
31.52318853222681
 20
50.03352643173844
 10
31.55926310190029
 20
50.10547008202687
 10
31.63538352814743
 20
50.25110745038057
 10
31.71692491767857
 20
50.39926411511515
 10
31.7597796617319
 20
50.47435915289111
  0
LWPOLYLINE
  5
2FA
330
1F
100
AcDbEntity
  8
3
  6
DASHED
100
AcDbPolyline
 90
       23
 70
     0
 43
0.0
 10
34.24140090462237
 20
50.47435915289111
 10
34.2842556486757
 20
50.39926411511515
 10
34.36579703820684
 20
50.25110745038057
 10
34.44191746445398
 20
50.10547008202687
 10
34.47799203412746
 20
50.03352643173844
 10
34.51276598860971
 20
49.9621300699875
 10
34.57847563800937
 20
49.82087399972403
 10
34.63916419592937
 20
49.68149590577354
 10
34.69493487685026
 20
49.5437962594853
 10
34.7458768951164
 20
49.40758101038944
 10
34.79206593344401
 20
49.27266067145876
 10
34.8133981297164
 20
49.20562790930529
 10
34.83356451638832
 20
49.13884943917401
 10
34.87042229262846
 20
49.00596433979427
 10
34.90267622875303
 20
48.8738243935837
 10
34.93035071608614
 20
48.74224978895648
 10
34.9534575909733
 20
48.61106105858062
 10
34.97199606783755
 20
48.48007824942754
 10
34.97954842368648
 20
48.41460748985497
 10
34.98595258315476
 20
48.34912007856516
 10
34.99530054730798
 20
48.21800306616154
 10
34.99999999999949
 20
48.08654063668569
 10
35.00059028317713
 20
48.02062050883518
  0
LWPOLYLINE
  5
2FB
330
1F
100
AcDbEntity
  8
3
  6
DASHED
100
AcDbPolyline
 90
       23
 70
     0
 43
0.0
 10
35.00059028317713
 20
48.02062050883518
 10
34.99999999999949
 20
47.95470038098471
 10
34.99530054730798
 20
47.82323795150887
 10
34.98595258315476
 20
47.69212093910522
 10
34.97954842368648
 20
47.62663352781544
 10
34.97199606783755
 20
47.56116276824283
 10
34.9534575909733
 20
47.4301799590898
 10
34.93035071608614
 20
47.29899122871393
 10
34.90267622875303
 20
47.16741662408668
 10
34.87042229262846
 20
47.03527667787611
 10
34.83356451638832
 20
46.90239157849638
 10
34.8133981297164
 20
46.83561310836512
 10
34.79206593344401
 20
46.76858034621164
 10
34.7458768951164
 20
46.63366000728095
 10
34.69493487685026
 20
46.49744475818508
 10
34.63916419592937
 20
46.35974511189684
 10
34.57847563800937
 20
46.22036701794636
 10
34.51276598860971
 20
46.07911094768289
 10
34.47799203412746
 20
46.00771458593195
 10
34.44191746445398
 20
45.93577093564351
 10
34.36579703820684
 20
45.79013356728984
 10
34.2842556486757
 20
45.64197690255525
 10
34.24140090462237
 20
45.5668818647793
  0
LINE
  5
2FC
330
1F
100
AcDbEntity
  8
3
  6
DASHED
100
AcDbLine
 10
31.7597796617319
 20
50.47435915289111
 30
0.0
 11
34.24140090462237
 21
50.47435915289111
 31
0.0
  0
LWPOLYLINE
  5
2FD
330
1F
100
AcDbEntity
  8
3
  6
DASHED
100
AcDbPolyline
 90
       23
 70
     0
 43
0.0
 10
31.7597796617319
 20
50.47435915289111
 10
31.71692491767857
 20
50.62454922844302
 10
31.63538352814743
 20
50.92086255791219
 10
31.55926310190029
 20
51.2121372946196
 10
31.52318853222681
 20
51.35602459519643
 10
31.48841457774455
 20
51.49881731869834
 10
31.4227049283449
 20
51.78132945922527
 10
31.3620163704249
 20
52.06008564712624
 10
31.30624568950401
 20
52.33548493970267
 10
31.25530367123787
 20
52.60791543789446
 10
31.20911463291026
 20
52.8777561157558
 10
31.18778243663786
 20
53.01182164006277
 10
31.16761604996594
 20
53.14537858032529
 10
31.1307582737258
 20
53.41114877908478
 10
31.09850433760124
 20
53.67542867150593
 10
31.07082985026813
 20
53.93857788076042
 10
31.04772297538096
 20
54.2009553415121
 10
31.02918449851671
 20
54.46292095981817
 10
31.02163214266778
 20
54.59386247896339
 10
31.01522798319951
 20
54.72483730154301
 10
31.00588001904629
 20
54.98707132635025
 10
31.00118056635432
 20
55.24999618530194
 10
31.00059028317713
 20
55.38183644100292
  0
LWPOLYLINE
  5
2FE
330
1F
100
AcDbEntity
  8
3
  6
DASHED
100
AcDbPolyline
 90
       23
 70
     0
 43
0.0
 10
31.00059028317713
 20
55.38183644100292
 10
31.00118056635478
 20
55.51367669670392
 10
31.00588001904629
 20
55.77660155565559
 10
31.01522798319951
 20
56.03883558046283
 10
31.02163214266778
 20
56.16981040304247
 10
31.02918449851671
 20
56.30075192218765
 10
31.04772297538096
 20
56.56271754049374
 10
31.07082985026813
 20
56.82509500124547
 10
31.09850433760124
 20
57.08824421049993
 10
31.1307582737258
 20
57.35252410292108
 10
31.16761604996594
 20
57.61829430168058
 10
31.18778243663786
 20
57.75185124194308
 10
31.20911463291026
 20
57.88591676625006
 10
31.25530367123787
 20
58.15575744411143
 10
31.30624568950401
 20
58.42818794230317
 10
31.3620163704249
 20
58.70358723487962
 10
31.4227049283449
 20
58.98234342278062
 10
31.48841457774455
 20
59.26485556330752
 10
31.52318853222681
 20
59.40764828680944
 10
31.55926310190029
 20
59.55153558738627
 10
31.63538352814743
 20
59.84281032409365
 10
31.71692491767857
 20
60.13912365356282
 10
31.7597796617319
 20
60.28931372911475
  0
LWPOLYLINE
  5
2FF
330
1F
100
AcDbEntity
  8
3
  6
DASHED
100
AcDbPolyline
 90
       23
 70
     0
 43
0.0
 10
34.24140090462237
 20
60.28931372911475
 10
34.2842556486757
 20
60.13912365356282
 10
34.36579703820684
 20
59.84281032409365
 10
34.44191746445398
 20
59.55153558738627
 10
34.47799203412746
 20
59.40764828680944
 10
34.51276598860971
 20
59.26485556330752
 10
34.57847563800937
 20
58.98234342278062
 10
34.63916419592937
 20
58.70358723487962
 10
34.69493487685026
 20
58.42818794230317
 10
34.7458768951164
 20
58.15575744411143
 10
34.79206593344401
 20
57.88591676625006
 10
34.8133981297164
 20
57.75185124194308
 10
34.83356451638832
 20
57.61829430168058
 10
34.87042229262846
 20
57.35252410292108
 10
34.90267622875303
 20
57.08824421049993
 10
34.93035071608614
 20
56.82509500124547
 10
34.9534575909733
 20
56.56271754049374
 10
34.97199606783755
 20
56.30075192218765
 10
34.97954842368648
 20
56.16981040304247
 10
34.98595258315476
 20
56.03883558046283
 10
34.99530054730798
 20
55.77660155565559
 10
34.99999999999949
 20
55.51367669670392
 10
35.00059028317713
 20
55.38183644100292
  0
LWPOLYLINE
  5
300
330
1F
100
AcDbEntity
  8
3
  6
DASHED
100
AcDbPolyline
 90
       23
 70
     0
 43
0.0
 10
35.00059028317713
 20
55.38183644100292
 10
34.99999999999949
 20
55.24999618530194
 10
34.99530054730798
 20
54.98707132635025
 10
34.98595258315476
 20
54.72483730154301
 10
34.97954842368648
 20
54.59386247896339
 10
34.97199606783755
 20
54.46292095981817
 10
34.9534575909733
 20
54.2009553415121
 10
34.93035071608614
 20
53.93857788076042
 10
34.90267622875303
 20
53.67542867150593
 10
34.87042229262846
 20
53.41114877908478
 10
34.83356451638832
 20
53.14537858032529
 10
34.8133981297164
 20
53.01182164006277
 10
34.79206593344401
 20
52.8777561157558
 10
34.7458768951164
 20
52.60791543789446
 10
34.69493487685026
 20
52.33548493970267
 10
34.63916419592937
 20
52.06008564712624
 10
34.57847563800937
 20
51.78132945922527
 10
34.51276598860971
 20
51.49881731869834
 10
34.47799203412746
 20
51.35602459519643
 10
34.44191746445398
 20
51.2121372946196
 10
34.36579703820684
 20
50.92086255791222
 10
34.2842556486757
 20
50.62454922844302
 10
34.24140090462237
 20
50.47435915289111
  0
LWPOLYLINE
  5
301
330
1F
100
AcDbEntity
  8
3
  6
DASHED
100
AcDbPolyline
 90
       23
 70
     0
 43
0.0
 10
35.00059028317713
 20
62.74305237317065
 10
34.99999999999949
 20
62.67713224532016
 10
34.99530054730798
 20
62.54566981584432
 10
34.98595258315476
 20
62.41455280344069
 10
34.97954842368648
 20
62.34906539215086
 10
34.97199606783755
 20
62.28359463257828
 10
34.9534575909733
 20
62.15261182342525
 10
34.93035071608614
 20
62.02142309304941
 10
34.90267622875303
 20
61.88984848842216
 10
34.87042229262846
 20
61.75770854221156
 10
34.83356451638832
 20
61.62482344283183
 10
34.8133981297164
 20
61.5580449727006
 10
34.79206593344401
 20
61.49101221054706
 10
34.7458768951164
 20
61.3560918716164
 10
34.69493487685026
 20
61.21987662252053
 10
34.63916419592937
 20
61.08217697623229
 10
34.57847563800937
 20
60.94279888228181
 10
34.51276598860971
 20
60.80154281201837
 10
34.47799203412746
 20
60.7301464502674
 10
34.44191746445398
 20
60.65820279997899
 10
34.36579703820684
 20
60.51256543162529
 10
34.2842556486757
 20
60.3644087668907
 10
34.24140090462237
 20
60.28931372911475
  0
LINE
  5
302
330
1F
100
AcDbEntity
  8
3
  6
DASHED
100
AcDbLine
 10
31.7597796617319
 20
60.28931372911475
 30
0.0
 11
34.24140090462237
 21
60.28931372911475
 31
0.0
  0
LINE
  5
303
330
1F
100
AcDbEntity
  8
3
  6
DASHED
100
AcDbLine
 10
31.7597796617319
 20
65.19679101722656
 30
0.0
 11
34.24140090462237
 21
65.19679101722656
 31
0.0
  0
LWPOLYLINE
  5
304
330
1F
100
AcDbEntity
  8
3
  6
DASHED
100
AcDbPolyline
 90
       23
 70
     0
 43
0.0
 10
34.24140090462237
 20
65.19679101722656
 10
34.2842556486757
 20
65.1216959794506
 10
34.36579703820684
 20
64.97353931471602
 10
34.44191746445398
 20
64.82790194636232
 10
34.47799203412746
 20
64.75595829607391
 10
34.51276598860971
 20
64.68456193432297
 10
34.57847563800937
 20
64.54330586405951
 10
34.63916419592937
 20
64.40392777010902
 10
34.69493487685026
 20
64.26622812382078
 10
34.7458768951164
 20
64.13001287472491
 10
34.79206593344401
 20
63.99509253579424
 10
34.8133981297164
 20
63.92805977364071
 10
34.83356451638832
 20
63.86128130350948
 10
34.87042229262846
 20
63.72839620412975
 10
34.90267622875303
 20
63.59625625791915
 10
34.93035071608614
 20
63.46468165329191
 10
34.9534575909733
 20
63.33349292291607
 10
34.97199606783755
 20
63.20251011376303
 10
34.97954842368648
 20
63.13703935419045
 10
34.98595258315476
 20
63.07155194290061
 10
34.99530054730798
 20
62.94043493049699
 10
34.99999999999949
 20
62.80897250102118
 10
35.00059028317713
 20
62.74305237317065
  0
LWPOLYLINE
  5
305
330
1F
100
AcDbEntity
  8
3
  6
DASHED
100
AcDbPolyline
 90
       23
 70
     0
 43
0.0
 10
38.75859909537667
 20
50.47435915289111
 10
38.71574435132334
 20
50.39926411511515
 10
38.6342029617922
 20
50.25110745038057
 10
38.55808253554505
 20
50.10547008202689
 10
38.52200796587158
 20
50.03352643173847
 10
38.48723401138932
 20
49.9621300699875
 10
38.42152436198967
 20
49.82087399972403
 10
38.36083580406967
 20
49.68149590577354
 10
38.30506512314878
 20
49.54379625948533
 10
38.25412310488264
 20
49.40758101038944
 10
38.20793406655503
 20
49.27266067145876
 10
38.18660187028263
 20
49.20562790930529
 10
38.16643548361071
 20
49.13884943917404
 10
38.12957770737057
 20
49.00596433979427
 10
38.09732377124601
 20
48.87382439358373
 10
38.0696492839129
 20
48.74224978895648
 10
38.04654240902574
 20
48.61106105858062
 10
38.02800393216148
 20
48.48007824942758
 10
38.02045157631255
 20
48.41460748985497
 10
38.01404741684428
 20
48.34912007856519
 10
38.00469945269106
 20
48.21800306616154
 10
37.99999999999909
 20
48.08654063668569
 10
37.9994097168219
 20
48.0206205088352
  0
LWPOLYLINE
  5
306
330
1F
100
AcDbEntity
  8
3
  6
DASHED
100
AcDbPolyline
 90
       23
 70
     0
 43
0.0
 10
37.9994097168219
 20
62.74305237317065
 10
37.99999999999909
 20
62.67713224532016
 10
38.00469945269106
 20
62.54566981584435
 10
38.01404741684428
 20
62.41455280344069
 10
38.02045157631255
 20
62.34906539215089
 10
38.02800393216148
 20
62.28359463257828
 10
38.04654240902574
 20
62.15261182342527
 10
38.0696492839129
 20
62.02142309304941
 10
38.09732377124601
 20
61.88984848842216
 10
38.12957770737057
 20
61.75770854221159
 10
38.16643548361071
 20
61.62482344283185
 10
38.18660187028263
 20
61.5580449727006
 10
38.20793406655503
 20
61.4910122105471
 10
38.25412310488264
 20
61.35609187161643
 10
38.30506512314878
 20
61.21987662252053
 10
38.36083580406967
 20
61.08217697623231
 10
38.42152436198967
 20
60.94279888228183
 10
38.48723401138932
 20
60.80154281201837
 10
38.52200796587158
 20
60.7301464502674
 10
38.55808253554505
 20
60.65820279997899
 10
38.6342029617922
 20
60.51256543162532
 10
38.71574435132334
 20
60.36440876689074
 10
38.75859909537667
 20
60.28931372911478
  0
LWPOLYLINE
  5
307
330
1F
100
AcDbEntity
  8
3
  6
DASHED
100
AcDbPolyline
 90
       23
 70
     0
 43
0.0
 10
41.24022033826713
 20
60.28931372911478
 10
41.28307508232047
 20
60.36440876689074
 10
41.3646164718516
 20
60.51256543162532
 10
41.44073689809874
 20
60.65820279997899
 10
41.47681146777222
 20
60.7301464502674
 10
41.51158542225448
 20
60.80154281201839
 10
41.57729507165413
 20
60.94279888228183
 10
41.63798362957414
 20
61.08217697623231
 10
41.69375431049502
 20
61.21987662252053
 10
41.74469632876117
 20
61.35609187161643
 10
41.79088536708877
 20
61.4910122105471
 10
41.81221756336117
 20
61.5580449727006
 10
41.83238395003309
 20
61.62482344283183
 10
41.86924172627323
 20
61.75770854221159
 10
41.90149566239779
 20
61.88984848842216
 10
41.9291701497309
 20
62.02142309304941
 10
41.95227702461806
 20
62.15261182342527
 10
41.97081550148232
 20
62.28359463257828
 10
41.97836785733125
 20
62.34906539215089
 10
41.98477201679952
 20
62.41455280344069
 10
41.99411998095274
 20
62.54566981584435
 10
41.99881943364426
 20
62.6771322453202
 10
41.9994097168219
 20
62.74305237317065
  0
LWPOLYLINE
  5
308
330
1F
100
AcDbEntity
  8
3
  6
DASHED
100
AcDbPolyline
 90
       23
 70
     0
 43
0.0
 10
38.75859909537667
 20
60.28931372911478
 10
38.71574435132334
 20
60.13912365356282
 10
38.6342029617922
 20
59.84281032409365
 10
38.55808253554505
 20
59.55153558738627
 10
38.52200796587158
 20
59.40764828680944
 10
38.48723401138932
 20
59.26485556330755
 10
38.42152436198967
 20
58.98234342278062
 10
38.36083580406967
 20
58.70358723487965
 10
38.30506512314878
 20
58.42818794230317
 10
38.25412310488264
 20
58.15575744411143
 10
38.20793406655503
 20
57.88591676625009
 10
38.18660187028263
 20
57.75185124194308
 10
38.16643548361071
 20
57.61829430168058
 10
38.12957770737057
 20
57.35252410292111
 10
38.09732377124601
 20
57.08824421049996
 10
38.0696492839129
 20
56.82509500124547
 10
38.04654240902574
 20
56.56271754049374
 10
38.02800393216148
 20
56.30075192218765
 10
38.02045157631255
 20
56.1698104030425
 10
38.01404741684428
 20
56.03883558046286
 10
38.00469945269106
 20
55.77660155565562
 10
37.99999999999909
 20
55.51367669670395
 10
37.9994097168219
 20
55.38183644100294
  0
LWPOLYLINE
  5
309
330
1F
100
AcDbEntity
  8
3
  6
DASHED
100
AcDbPolyline
 90
       23
 70
     0
 43
0.0
 10
37.9994097168219
 20
55.38183644100294
 10
37.99999999999909
 20
55.24999618530194
 10
38.00469945269106
 20
54.98707132635027
 10
38.01404741684428
 20
54.72483730154301
 10
38.02045157631255
 20
54.59386247896339
 10
38.02800393216148
 20
54.46292095981821
 10
38.04654240902574
 20
54.20095534151212
 10
38.0696492839129
 20
53.93857788076042
 10
38.09732377124601
 20
53.67542867150593
 10
38.12957770737057
 20
53.41114877908478
 10
38.16643548361071
 20
53.14537858032531
 10
38.18660187028263
 20
53.01182164006281
 10
38.20793406655503
 20
52.8777561157558
 10
38.25412310488264
 20
52.60791543789446
 10
38.30506512314878
 20
52.33548493970269
 10
38.36083580406967
 20
52.06008564712624
 10
38.42152436198967
 20
51.78132945922527
 10
38.48723401138932
 20
51.49881731869834
 10
38.52200796587158
 20
51.35602459519645
 10
38.55808253554505
 20
51.2121372946196
 10
38.6342029617922
 20
50.92086255791222
 10
38.71574435132334
 20
50.62454922844307
 10
38.75859909537667
 20
50.47435915289111
  0
LWPOLYLINE
  5
30A
330
1F
100
AcDbEntity
  8
3
  6
DASHED
100
AcDbPolyline
 90
       23
 70
     0
 43
0.0
 10
41.24022033826713
 20
50.47435915289111
 10
41.28307508232047
 20
50.62454922844307
 10
41.3646164718516
 20
50.92086255791224
 10
41.44073689809874
 20
51.2121372946196
 10
41.47681146777222
 20
51.35602459519645
 10
41.51158542225448
 20
51.49881731869834
 10
41.57729507165413
 20
51.78132945922527
 10
41.63798362957414
 20
52.06008564712624
 10
41.69375431049502
 20
52.33548493970269
 10
41.74469632876117
 20
52.60791543789446
 10
41.79088536708877
 20
52.8777561157558
 10
41.81221756336117
 20
53.01182164006281
 10
41.83238395003309
 20
53.14537858032531
 10
41.86924172627323
 20
53.41114877908478
 10
41.90149566239779
 20
53.67542867150593
 10
41.9291701497309
 20
53.93857788076042
 10
41.95227702461806
 20
54.20095534151212
 10
41.97081550148232
 20
54.46292095981821
 10
41.97836785733125
 20
54.59386247896339
 10
41.98477201679952
 20
54.72483730154301
 10
41.99411998095274
 20
54.98707132635027
 10
41.99881943364426
 20
55.24999618530194
 10
41.9994097168219
 20
55.38183644100294
  0
LINE
  5
30B
330
1F
100
AcDbEntity
  8
3
  6
DASHED
100
AcDbLine
 10
38.75859909537667
 20
65.19679101722658
 30
0.0
 11
37.9994097168219
 21
63.88183644100291
 31
0.0
  0
LINE
  5
30C
330
1F
100
AcDbEntity
  8
3
  6
DASHED
100
AcDbLine
 10
37.9994097168219
 20
46.88183644100294
 30
0.0
 11
38.75859909537667
 21
45.5668818647793
 31
0.0
  0
LINE
  5
30D
330
1F
100
AcDbEntity
  8
3
  6
DASHED
100
AcDbLine
 10
41.9994097168219
 20
63.88183644100291
 30
0.0
 11
41.24022033826713
 21
65.19679101722658
 31
0.0
  0
LINE
  5
30E
330
1F
100
AcDbEntity
  8
3
  6
DASHED
100
AcDbLine
 10
41.24022033826713
 20
45.5668818647793
 30
0.0
 11
41.9994097168219
 21
46.88183644100294
 31
0.0
  0
LINE
  5
30F
330
1F
100
AcDbEntity
  8
3
  6
DASHED
100
AcDbLine
 10
35.00059028317713
 20
46.88183644100291
 30
0.0
 11
35.00059028317713
 21
63.88183644100291
 31
0.0
  0
LINE
  5
310
330
1F
100
AcDbEntity
  8
3
  6
DASHED
100
AcDbLine
 10
41.9994097168219
 20
46.88183644100294
 30
0.0
 11
41.9994097168219
 21
63.88183644100291
 31
0.0
  0
LINE
  5
311
330
1F
100
AcDbEntity
  8
3
  6
DASHED
100
AcDbLine
 10
38.75859909537667
 20
45.5668818647793
 30
0.0
 11
41.24022033826713
 21
45.5668818647793
 31
0.0
  0
LWPOLYLINE
  5
312
330
1F
100
AcDbEntity
  8
3
  6
DASHED
100
AcDbPolyline
 90
       23
 70
     0
 43
0.0
 10
38.75859909537667
 20
45.5668818647793
 10
38.71574435132334
 20
45.64197690255525
 10
38.6342029617922
 20
45.79013356728984
 10
38.55808253554505
 20
45.93577093564355
 10
38.52200796587158
 20
46.00771458593198
 10
38.48723401138932
 20
46.07911094768292
 10
38.42152436198967
 20
46.22036701794638
 10
38.36083580406967
 20
46.35974511189687
 10
38.30506512314878
 20
46.4974447581851
 10
38.25412310488264
 20
46.63366000728098
 10
38.20793406655503
 20
46.76858034621164
 10
38.18660187028263
 20
46.83561310836512
 10
38.16643548361071
 20
46.9023915784964
 10
38.12957770737057
 20
47.03527667787613
 10
38.09732377124601
 20
47.16741662408671
 10
38.0696492839129
 20
47.29899122871393
 10
38.04654240902574
 20
47.4301799590898
 10
38.02800393216148
 20
47.56116276824286
 10
38.02045157631255
 20
47.62663352781544
 10
38.01404741684428
 20
47.69212093910525
 10
38.00469945269106
 20
47.82323795150887
 10
37.99999999999909
 20
47.95470038098471
 10
37.9994097168219
 20
48.02062050883524
  0
LWPOLYLINE
  5
313
330
1F
100
AcDbEntity
  8
3
  6
DASHED
100
AcDbPolyline
 90
       23
 70
     0
 43
0.0
 10
41.24022033826713
 20
50.47435915289111
 10
41.28307508232047
 20
50.39926411511515
 10
41.3646164718516
 20
50.25110745038057
 10
41.44073689809874
 20
50.10547008202689
 10
41.47681146777222
 20
50.03352643173847
 10
41.51158542225448
 20
49.9621300699875
 10
41.57729507165413
 20
49.82087399972403
 10
41.63798362957414
 20
49.68149590577354
 10
41.69375431049502
 20
49.54379625948533
 10
41.74469632876117
 20
49.40758101038944
 10
41.79088536708877
 20
49.27266067145876
 10
41.81221756336117
 20
49.20562790930529
 10
41.83238395003309
 20
49.13884943917404
 10
41.86924172627323
 20
49.00596433979427
 10
41.90149566239779
 20
48.87382439358373
 10
41.9291701497309
 20
48.74224978895648
 10
41.95227702461806
 20
48.61106105858062
 10
41.97081550148232
 20
48.48007824942758
 10
41.97836785733125
 20
48.41460748985497
 10
41.98477201679952
 20
48.34912007856519
 10
41.99411998095274
 20
48.21800306616154
 10
41.99881943364426
 20
48.08654063668569
 10
41.9994097168219
 20
48.0206205088352
  0
LWPOLYLINE
  5
314
330
1F
100
AcDbEntity
  8
3
  6
DASHED
100
AcDbPolyline
 90
       23
 70
     0
 43
0.0
 10
41.9994097168219
 20
48.0206205088352
 10
41.99881943364471
 20
47.95470038098471
 10
41.99411998095274
 20
47.82323795150887
 10
41.98477201679952
 20
47.69212093910525
 10
41.97836785733125
 20
47.62663352781544
 10
41.97081550148232
 20
47.56116276824286
 10
41.95227702461806
 20
47.4301799590898
 10
41.9291701497309
 20
47.29899122871393
 10
41.90149566239779
 20
47.16741662408671
 10
41.86924172627323
 20
47.03527667787613
 10
41.83238395003309
 20
46.9023915784964
 10
41.81221756336117
 20
46.83561310836512
 10
41.79088536708877
 20
46.76858034621164
 10
41.74469632876117
 20
46.63366000728098
 10
41.69375431049502
 20
46.4974447581851
 10
41.63798362957414
 20
46.35974511189687
 10
41.57729507165413
 20
46.22036701794638
 10
41.51158542225448
 20
46.07911094768292
 10
41.47681146777222
 20
46.00771458593198
 10
41.44073689809874
 20
45.93577093564355
 10
41.3646164718516
 20
45.79013356728984
 10
41.28307508232047
 20
45.64197690255525
 10
41.24022033826713
 20
45.5668818647793
  0
LINE
  5
315
330
1F
100
AcDbEntity
  8
3
  6
DASHED
100
AcDbLine
 10
38.75859909537667
 20
50.47435915289111
 30
0.0
 11
41.24022033826713
 21
50.47435915289111
 31
0.0
  0
LWPOLYLINE
  5
316
330
1F
100
AcDbEntity
  8
3
  6
DASHED
100
AcDbPolyline
 90
       23
 70
     0
 43
0.0
 10
41.24022033826713
 20
60.28931372911478
 10
41.28307508232047
 20
60.13912365356282
 10
41.3646164718516
 20
59.84281032409365
 10
41.44073689809874
 20
59.55153558738627
 10
41.47681146777222
 20
59.40764828680944
 10
41.51158542225448
 20
59.26485556330755
 10
41.57729507165413
 20
58.98234342278062
 10
41.63798362957414
 20
58.70358723487965
 10
41.69375431049502
 20
58.42818794230317
 10
41.74469632876117
 20
58.15575744411143
 10
41.79088536708877
 20
57.88591676625009
 10
41.81221756336117
 20
57.75185124194308
 10
41.83238395003309
 20
57.61829430168058
 10
41.86924172627323
 20
57.35252410292111
 10
41.90149566239779
 20
57.08824421049996
 10
41.9291701497309
 20
56.82509500124547
 10
41.95227702461806
 20
56.56271754049374
 10
41.97081550148232
 20
56.30075192218765
 10
41.97836785733125
 20
56.1698104030425
 10
41.98477201679952
 20
56.03883558046286
 10
41.99411998095274
 20
55.77660155565562
 10
41.99881943364426
 20
55.51367669670395
 10
41.9994097168219
 20
55.38183644100294
  0
LINE
  5
317
330
1F
100
AcDbEntity
  8
3
  6
DASHED
100
AcDbLine
 10
38.75859909537667
 20
60.28931372911478
 30
0.0
 11
41.24022033826713
 21
60.28931372911478
 31
0.0
  0
LWPOLYLINE
  5
318
330
1F
100
AcDbEntity
  8
3
  6
DASHED
100
AcDbPolyline
 90
       23
 70
     0
 43
0.0
 10
37.9994097168219
 20
62.74305237317065
 10
37.99999999999909
 20
62.80897250102118
 10
38.00469945269106
 20
62.94043493049702
 10
38.01404741684428
 20
63.07155194290061
 10
38.02045157631255
 20
63.13703935419045
 10
38.02800393216148
 20
63.20251011376303
 10
38.04654240902574
 20
63.33349292291609
 10
38.0696492839129
 20
63.46468165329193
 10
38.09732377124601
 20
63.59625625791918
 10
38.12957770737057
 20
63.72839620412975
 10
38.16643548361071
 20
63.86128130350948
 10
38.18660187028263
 20
63.92805977364074
 10
38.20793406655503
 20
63.99509253579424
 10
38.25412310488264
 20
64.13001287472491
 10
38.30506512314878
 20
64.26622812382078
 10
38.36083580406967
 20
64.40392777010902
 10
38.42152436198967
 20
64.54330586405951
 10
38.48723401138932
 20
64.68456193432297
 10
38.52200796587158
 20
64.75595829607391
 10
38.55808253554505
 20
64.82790194636232
 10
38.6342029617922
 20
64.97353931471605
 10
38.71574435132334
 20
65.12169597945064
 10
38.75859909537667
 20
65.19679101722658
  0
LINE
  5
319
330
1F
100
AcDbEntity
  8
3
  6
DASHED
100
AcDbLine
 10
38.75859909537667
 20
65.19679101722658
 30
0.0
 11
41.24022033826713
 21
65.19679101722658
 31
0.0
  0
LWPOLYLINE
  5
31A
330
1F
100
AcDbEntity
  8
3
  6
DASHED
100
AcDbPolyline
 90
       23
 70
     0
 43
0.0
 10
41.24022033826713
 20
65.19679101722658
 10
41.28307508232047
 20
65.12169597945064
 10
41.3646164718516
 20
64.97353931471605
 10
41.44073689809874
 20
64.82790194636232
 10
41.47681146777222
 20
64.75595829607391
 10
41.51158542225448
 20
64.68456193432297
 10
41.57729507165413
 20
64.54330586405951
 10
41.63798362957414
 20
64.40392777010902
 10
41.69375431049502
 20
64.26622812382078
 10
41.74469632876117
 20
64.13001287472491
 10
41.79088536708877
 20
63.99509253579424
 10
41.81221756336117
 20
63.92805977364074
 10
41.83238395003309
 20
63.86128130350948
 10
41.86924172627323
 20
63.72839620412975
 10
41.90149566239779
 20
63.59625625791915
 10
41.9291701497309
 20
63.46468165329193
 10
41.95227702461806
 20
63.33349292291609
 10
41.97081550148232
 20
63.20251011376303
 10
41.97836785733125
 20
63.13703935419045
 10
41.98477201679952
 20
63.07155194290061
 10
41.99411998095274
 20
62.94043493049702
 10
41.99881943364426
 20
62.80897250102118
 10
41.9994097168219
 20
62.74305237317065
  0
LINE
  5
31B
330
1F
100
AcDbEntity
  8
3
  6
DASHED
100
AcDbLine
 10
61.29676796415151
 20
61.38183644100291
 30
0.0
 11
41.9994097168219
 21
61.38183644100291
 31
0.0
  0
LINE
  5
31C
330
1F
100
AcDbEntity
  8
3
  6
DASHED
100
AcDbLine
 10
64.79676796415152
 20
52.93183644100293
 30
0.0
 11
87.7967679641515
 21
52.93183644100293
 31
0.0
  0
LINE
  5
31D
330
1F
100
AcDbEntity
  8
3
  6
DASHED
100
AcDbLine
 10
87.7967679641515
 20
57.83183644100294
 30
0.0
 11
64.79676796415152
 21
57.83183644100294
 31
0.0
  0
ARC
  5
31E
330
1F
100
AcDbEntity
  8
3
  6
DASHED
100
AcDbCircle
 10
64.39676796415142
 20
58.97571939209661
 30
0.0
 40
0.4000000000000004
100
AcDbArc
 50
0.0
 51
87.99999999999636
  0
ARC
  5
31F
330
1F
100
AcDbEntity
  8
3
  6
DASHED
100
AcDbCircle
 10
64.39676796415142
 20
51.78795348990928
 30
0.0
 40
0.3999999999999999
100
AcDbArc
 50
272.0000000000037
 51
359.9999991462263
  0
LINE
  5
320
330
1F
100
AcDbEntity
  8
3
  6
DASHED
100
AcDbLine
 10
62.79676796415151
 20
51.33183644100296
 30
0.0
 11
64.41072776283272
 21
51.38819715910162
 31
0.0
  0
LINE
  5
321
330
1F
100
AcDbEntity
  8
3
  6
DASHED
100
AcDbLine
 10
64.41072776283272
 20
59.37547572290424
 30
0.0
 11
62.79676796415151
 21
59.43183644100293
 31
0.0
  0
LINE
  5
322
330
1F
100
AcDbEntity
  8
3
  6
DASHED
100
AcDbLine
 10
22.79676796415151
 20
49.38183644100295
 30
0.0
 11
31.00059028317713
 21
49.38183644100295
 31
0.0
  0
LINE
  5
323
330
1F
100
AcDbEntity
  8
3
  6
DASHED
100
AcDbLine
 10
41.9994097168219
 20
49.38183644100295
 30
0.0
 11
61.29676796415151
 21
49.38183644100291
 31
0.0
  0
LINE
  5
324
330
1F
100
AcDbEntity
  8
3
  6
DASHED
100
AcDbLine
 10
31.00059028317713
 20
61.38183644100294
 30
0.0
 11
22.79676796415151
 21
61.38183644100294
 31
0.0
  0
LINE
  5
325
330
1F
100
AcDbEntity
  8
3
  6
DASHED
100
AcDbLine
 10
61.29676796415151
 20
50.08183644100293
 30
0.0
 11
62.79676796415151
 21
50.08183644100293
 31
0.0
  0
LINE
  5
326
330
1F
100
AcDbEntity
  8
3
  6
DASHED
100
AcDbLine
 10
62.79676796415151
 20
60.68183644100293
 30
0.0
 11
61.29676796415151
 21
60.68183644100293
 31
0.0
  0
LINE
  5
327
330
1F
100
AcDbEntity
  8
3
  6
DASHED
100
AcDbLine
 10
87.7967679641515
 20
57.83183644100294
 30
0.0
 11
87.7967679641515
 21
52.93183644100293
 31
0.0
  0
LINE
  5
328
330
1F
100
AcDbEntity
  8
3
  6
DASHED
100
AcDbLine
 10
64.79676796415152
 20
58.97571939209661
 30
0.0
 11
64.79676796415152
 21
51.78795348990928
 31
0.0
  0
LINE
  5
329
330
1F
100
AcDbEntity
  8
3
  6
DASHED
100
AcDbLine
 10
61.29676796415151
 20
61.38183644100291
 30
0.0
 11
61.29676796415151
 21
49.38183644100291
 31
0.0
  0
LINE
  5
32A
330
1F
100
AcDbEntity
  8
3
  6
DASHED
100
AcDbLine
 10
22.79676796415151
 20
61.38183644100294
 30
0.0
 11
22.79676796415151
 21
49.38183644100295
 31
0.0
  0
LINE
  5
32B
330
1F
100
AcDbEntity
  8
3
  6
DASHED
100
AcDbLine
 10
62.79676796415151
 20
60.68183644100293
 30
0.0
 11
62.79676796415151
 21
50.08183644100293
 31
0.0
  0
LINE
  5
32C
330
1F
100
AcDbEntity
  8
1
100
AcDbLine
 10
91.24999999999948
 20
55.24999618530194
 30
0.0
 11
19.74999999999943
 21
55.24999618530194
 31
0.0
  0
CIRCLE
  5
32D
330
1F
100
AcDbEntity
  8
3
  6
DASHED
100
AcDbCircle
 10
200.0000010000001
 20
55.38183644100294
 30
0.0
 40
8.500000000000005
  0
LINE
  5
32E
330
1F
100
AcDbEntity
  8
3
  6
DASHED
100
AcDbLine
 10
208.5000010000001
 20
60.28931372911478
 30
0.0
 11
200.0000010000001
 21
65.19679101722658
 31
0.0
  0
LINE
  5
32F
330
1F
100
AcDbEntity
  8
3
  6
DASHED
100
AcDbLine
 10
200.0000010000001
 20
65.19679101722658
 30
0.0
 11
191.5000010000001
 21
60.28931372911478
 31
0.0
  0
LINE
  5
330
330
1F
100
AcDbEntity
  8
3
  6
DASHED
100
AcDbLine
 10
191.5000010000001
 20
60.28931372911478
 30
0.0
 11
191.5000010000001
 21
50.47435915289113
 31
0.0
  0
LINE
  5
331
330
1F
100
AcDbEntity
  8
3
  6
DASHED
100
AcDbLine
 10
200.0000010000001
 20
45.5668818647793
 30
0.0
 11
208.5000010000001
 21
50.47435915289113
 31
0.0
  0
LINE
  5
332
330
1F
100
AcDbEntity
  8
3
  6
DASHED
100
AcDbLine
 10
191.5000010000001
 20
50.47435915289113
 30
0.0
 11
200.0000010000001
 21
45.5668818647793
 31
0.0
  0
LINE
  5
333
330
1F
100
AcDbEntity
  8
3
  6
DASHED
100
AcDbLine
 10
208.5000010000001
 20
50.47435915289113
 30
0.0
 11
208.5000010000001
 21
60.28931372911478
 31
0.0
  0
CIRCLE
  5
334
330
1F
100
AcDbEntity
  8
3
  6
DASHED
100
AcDbCircle
 10
200.0000010000001
 20
55.38183644100297
 30
0.0
 40
5.999999999999996
  0
CIRCLE
  5
335
330
1F
100
AcDbEntity
  8
3
  6
DASHED
100
AcDbCircle
 10
200.0000010000001
 20
55.38183644100294
 30
0.0
 40
5.3
  0
CIRCLE
  5
336
330
1F
100
AcDbEntity
  8
3
  6
DASHED
100
AcDbCircle
 10
200.0000010000001
 20
55.38183644100297
 30
0.0
 40
2.449999999999995
  0
LINE
  5
337
330
1F
100
AcDbEntity
  8
1
100
AcDbLine
 10
190.7408478790801
 20
55.38183644100294
 30
0.0
 11
209.2591541209201
 21
55.38183644100294
 31
0.0
  0
LINE
  5
338
330
1F
100
AcDbEntity
  8
2
100
AcDbLine
 10
73.99996619508517
 20
-41.43900083212223
 30
0.0
 11
73.99997592006849
 21
-61.21052398464257
 31
0.0
  0
ARC
  5
339
330
1F
100
AcDbEntity
  8
2
100
AcDbCircle
 10
58.32671261156008
 20
-14.99997047672309
 30
0.0
 40
9.999999
100
AcDbArc
 50
15.00005930951998
 51
89.99998430951869
  0
ARC
  5
33A
330
1F
100
AcDbEntity
  8
2
100
AcDbCircle
 10
23.99996508169261
 20
-41.43899406524539
 30
0.0
 40
50.000004
100
AcDbArc
 50
359.9999993095161
 51
15.00000930951757
  0
LINE
  5
33B
330
1F
100
AcDbEntity
  8
1
100
AcDbLine
 10
93.57668771694074
 20
-42.49996688654542
 30
0.0
 11
71.67973644127568
 21
-42.49996688654542
 31
0.0
  0
LINE
  5
33C
330
1F
100
AcDbEntity
  8
2
100
AcDbLine
 10
74.43606271694097
 20
-37.74996688654542
 30
0.0
 11
74.43606271694097
 21
-47.24996688654542
 31
0.0
  0
LINE
  5
33D
330
1F
100
AcDbEntity
  8
2
100
AcDbLine
 10
77.4999667169406
 20
-37.49996688654543
 30
0.0
 11
77.4999667169406
 21
-47.49996688654542
 31
0.0
  0
LINE
  5
33E
330
1F
100
AcDbEntity
  8
2
100
AcDbLine
 10
89.99996671694038
 20
-37.49996688654543
 30
0.0
 11
89.99996671694038
 21
-47.49996688654542
 31
0.0
  0
LINE
  5
33F
330
1F
100
AcDbEntity
  8
2
100
AcDbLine
 10
89.99996671694038
 20
-37.49996688654543
 30
0.0
 11
77.4999667169406
 21
-37.49996688654543
 31
0.0
  0
LINE
  5
340
330
1F
100
AcDbEntity
  8
2
100
AcDbLine
 10
77.4999667169406
 20
-37.74996688654542
 30
0.0
 11
73.86369416882394
 21
-37.74996688654542
 31
0.0
  0
LINE
  5
341
330
1F
100
AcDbEntity
  8
2
100
AcDbLine
 10
89.99996671694038
 20
-47.49996688654542
 30
0.0
 11
77.4999667169406
 21
-47.49996688654542
 31
0.0
  0
LINE
  5
342
330
1F
100
AcDbEntity
  8
2
100
AcDbLine
 10
77.4999667169406
 20
-47.24996688654542
 30
0.0
 11
73.99996671694037
 21
-47.24996688654542
 31
0.0
  0
CIRCLE
  5
343
330
1F
100
AcDbEntity
  8
2
100
AcDbCircle
 10
200.000001
 20
-42.49996688654542
 30
0.0
 40
5.0
  0
LINE
  5
344
330
1F
100
AcDbEntity
  8
1
100
AcDbLine
 10
207.2390152450309
 20
-42.49996688654542
 30
0.0
 11
192.7609867549692
 21
-42.49996688654542
 31
0.0
  0
LINE
  5
345
330
1F
100
AcDbEntity
  8
2
100
AcDbLine
 10
273.9999661950852
 20
-41.43900083212223
 30
0.0
 11
273.9999759200507
 21
-61.21048758640879
 31
0.0
  0
ARC
  5
346
330
1F
100
AcDbEntity
  8
2
100
AcDbCircle
 10
223.9999650816927
 20
-41.43899406524539
 30
0.0
 40
50.000004
100
AcDbArc
 50
359.9999993095161
 51
15.00000930951757
  0
LINE
  5
347
330
1F
100
AcDbEntity
  8
2
100
AcDbLine
 10
-73.99996619508522
 20
-41.43900083212211
 30
0.0
 11
-73.9999759200507
 21
-61.2104875864081
 31
0.0
  0
ARC
  5
348
330
1F
100
AcDbEntity
  8
2
100
AcDbCircle
 10
-23.9999650816927
 20
-41.43899406524536
 30
0.0
 40
50.000004
100
AcDbArc
 50
164.9999906904824
 51
180.0000006904838
  0
LINE
  5
349
330
1F
100
AcDbEntity
  8
2
100
AcDbLine
 10
132.0139927032629
 20
-12.41169000000002
 30
0.0
 11
127.7036827032628
 21
-28.49795999999981
 31
0.0
  0
LINE
  5
34A
330
1F
100
AcDbEntity
  8
2
100
AcDbLine
 10
126.0000358049149
 20
-41.43900083212223
 30
0.0
 11
126.000026079919
 21
-61.21054956181317
 31
0.0
  0
ARC
  5
34B
330
1F
100
AcDbEntity
  8
2
100
AcDbCircle
 10
176.0000369183074
 20
-41.43899406524539
 30
0.0
 40
50.000004
100
AcDbArc
 50
164.9999906904824
 51
180.0000006904838
  0
CIRCLE
  5
34C
330
1F
100
AcDbEntity
  8
2
100
AcDbCircle
 10
0.0
 20
200.0
 30
0.0
 40
73.99997592005958
  0
LINE
  5
352
330
1F
100
AcDbEntity
  8
0
  6
DASHED
100
AcDbLine
 10
175.000001
 20
3.0
 30
0.0
 11
188.000001
 21
3.0
 31
0.0
  0
LINE
  5
353
330
1F
100
AcDbEntity
  8
0
  6
DASHED
100
AcDbLine
 10
212.0000010000001
 20
3.0
 30
0.0
 11
224.999999
 21
3.0
 31
0.0
  0
VIEWPORT
  5
71
330
55
100
AcDbEntity
 67
     1
  8
0
100
AcDbViewport
 10
133.3499908447266
 20
101.5999970436096
 30
0.0
 40
381.3957395593835
 41
218.2856291881582
 68
     1
 69
     1
 12
133.3499908447266
 22
101.5999970436096
 13
0.0
 23
0.0
 14
10.0
 24
10.0
 15
10.0
 25
10.0
 16
0.0
 26
0.0
 36
1.0
 17
0.0
 27
0.0
 37
0.0
 42
50.0
 43
0.0
 44
0.0
 45
218.2856291881582
 50
0.0
 51
0.0
 72
   100
 90
    32800
  1

281
     0
 71
     1
 74
     0
110
0.0
120
0.0
130
0.0
111
1.0
121
0.0
131
0.0
112
0.0
122
1.0
132
0.0
 79
     0
146
0.0
170
     0
 61
     5
348
379
292
     1
282
     1
141
0.0
142
0.0
 63
   250
421
  3355443
  0
VIEWPORT
  5
73
330
55
100
AcDbEntity
 67
     1
  8
0
100
AcDbViewport
 10
133.3499939441681
 20
101.5999939441681
 30
0.0
 40
213.3599903106689
 41
162.5599903106689
 68
     2
 69
     2
 12
210.0
 22
148.5
 13
0.0
 23
0.0
 14
10.0
 24
10.0
 15
10.0
 25
10.0
 16
0.0
 26
0.0
 36
1.0
 17
0.0
 27
0.0
 37
0.0
 42
50.0
 43
0.0
 44
0.0
 45
324.0677920111345
 50
0.0
 51
0.0
 72
   100
 90
    32864
  1

281
     0
 71
     1
 74
     0
110
0.0
120
0.0
130
0.0
111
1.0
121
0.0
131
0.0
112
0.0
122
1.0
132
0.0
 79
     0
146
0.0
170
     0
 61
     5
348
379
292
     1
282
     1
141
0.0
142
0.0
 63
   250
421
  3355443
  0
ENDSEC
  0
SECTION
  2
OBJECTS
  0
DICTIONARY
  5
C
330
0
100
AcDbDictionary
281
     1
  3
ACAD_COLOR
350
387
  3
ACAD_GROUP
350
D
  3
ACAD_LAYOUT
350
1A
  3
ACAD_MATERIAL
350
35A
  3
ACAD_MLEADERSTYLE
350
39C
  3
ACAD_MLINESTYLE
350
17
  3
ACAD_PLOTSETTINGS
350
19
  3
ACAD_PLOTSTYLENAME
350
E
  3
ACAD_SCALELIST
350
38A
  3
ACAD_TABLESTYLE
350
388
  3
ACAD_VISUALSTYLE
350
373
  3
ACDB_RECOMPOSE_DATA
350
3AD
  3
AcDbVariableDictionary
350
5E
  0
DICTIONARY
  5
9B
330
2
100
AcDbDictionary
280
     1
281
     1
  3
ACAD_LAYERSTATES
360
9C
  0
DICTIONARY
  5
3A0
330
10
100
AcDbDictionary
280
     1
281
     1
  3
ADSK_XREC_LAYER_RECONCILED
360
3A1
  0
DICTIONARY
  5
91
330
90
100
AcDbDictionary
280
     1
281
     1
  3
ADSK_XREC_LAYER_RECONCILED
360
92
  0
DICTIONARY
  5
94
330
93
100
AcDbDictionary
280
     1
281
     1
  3
ADSK_XREC_LAYER_RECONCILED
360
95
  0
DICTIONARY
  5
3A2
330
96
100
AcDbDictionary
280
     1
281
     1
  3
ADSK_XREC_LAYER_RECONCILED
360
3A3
  0
DICTIONARY
  5
387
102
{ACAD_REACTORS
330
C
102
}
330
C
100
AcDbDictionary
281
     1
  0
DICTIONARY
  5
D
102
{ACAD_REACTORS
330
C
102
}
330
C
100
AcDbDictionary
281
     1
  0
DICTIONARY
  5
1A
102
{ACAD_REACTORS
330
C
102
}
330
C
100
AcDbDictionary
281
     1
  3
Model
350
22
  3
ﾚｲｱｳﾄ1
350
51
  3
ﾚｲｱｳﾄ2
350
56
  0
DICTIONARY
  5
35A
102
{ACAD_REACTORS
330
C
102
}
330
C
100
AcDbDictionary
281
     1
  3
ByBlock
350
363
  3
ByLayer
350
35B
  3
Global
350
36B
  0
DICTIONARY
  5
39C
102
{ACAD_REACTORS
330
C
102
}
330
C
100
AcDbDictionary
281
     1
  3
Standard
350
39D
  0
DICTIONARY
  5
17
102
{ACAD_REACTORS
330
C
102
}
330
C
100
AcDbDictionary
281
     1
  3
Standard
350
18
  0
DICTIONARY
  5
19
102
{ACAD_REACTORS
330
C
102
}
330
C
100
AcDbDictionary
281
     1
  0
ACDBDICTIONARYWDFLT
  5
E
102
{ACAD_REACTORS
330
C
102
}
330
C
100
AcDbDictionary
281
     1
  3
Normal
350
F
100
AcDbDictionaryWithDefault
340
F
  0
DICTIONARY
  5
38A
102
{ACAD_REACTORS
330
C
102
}
330
C
100
AcDbDictionary
281
     1
  3
A0
350
38B
  3
A1
350
38C
  3
A2
350
38D
  3
A3
350
38E
  3
A4
350
38F
  3
A5
350
390
  3
A6
350
391
  3
A7
350
392
  3
A8
350
393
  3
A9
350
394
  3
B0
350
395
  3
B1
350
396
  3
B2
350
397
  3
B3
350
398
  3
B4
350
399
  3
B5
350
39A
  3
B6
350
39B
  0
DICTIONARY
  5
388
102
{ACAD_REACTORS
330
C
102
}
330
C
100
AcDbDictionary
281
     1
  3
Standard
350
389
  0
DICTIONARY
  5
373
102
{ACAD_REACTORS
330
C
102
}
330
C
100
AcDbDictionary
281
     1
  3
2dWireframe
350
379
  3
3D Hidden
350
37B
  3
3dWireframe
350
37A
  3
Basic
350
378
  3
Brighten
350
37F
  3
ColorChange
350
383
  3
Conceptual
350
37C
  3
Dim
350
37E
  3
EdgeColorOff
350
386
  3
Facepattern
350
382
  3
Flat
350
374
  3
FlatWithEdges
350
375
  3
Gouraud
350
376
  3
GouraudWithEdges
350
377
  3
JitterOff
350
384
  3
Linepattern
350
381
  3
OverhangOff
350
385
  3
Realistic
350
37D
  3
Thicken
350
380
  0
XRECORD
  5
3AD
102
{ACAD_REACTORS
330
C
102
}
330
C
100
AcDbXrecord
280
     1
 90
        1
330
389
  0
DICTIONARY
  5
5E
102
{ACAD_REACTORS
330
C
102
}
330
C
100
AcDbDictionary
281
     1
  3
CANNOSCALE
350
3A7
  3
CMLEADERSTYLE
350
3A5
  3
CTABLESTYLE
350
3A4
  3
DIMASSOC
350
5F
  3
HIDETEXT
350
63
  3
LAYEREVAL
350
3A9
  3
LAYERNOTIFY
350
3AA
  3
LIGHTINGUNITS
350
3A8
  3
MSLTSCALE
350
3A6
  0
DICTIONARY
  5
9C
102
{ACAD_REACTORS
330
9B
102
}
330
9B
100
AcDbDictionary
281
     1
  0
XRECORD
  5
3A1
102
{ACAD_REACTORS
330
3A0
102
}
330
3A0
100
AcDbXrecord
280
     1
290
     1
  0
XRECORD
  5
92
102
{ACAD_REACTORS
330
91
102
}
330
91
100
AcDbXrecord
280
     1
290
     1
  0
XRECORD
  5
95
102
{ACAD_REACTORS
330
94
102
}
330
94
100
AcDbXrecord
280
     1
290
     1
  0
XRECORD
  5
3A3
102
{ACAD_REACTORS
330
3A2
102
}
330
3A2
100
AcDbXrecord
280
     1
290
     1
  0
LAYOUT
  5
22
102
{ACAD_REACTORS
330
1A
102
}
330
1A
100
AcDbPlotSettings
  1

  2
none_device
  4
ANSI_A_(8.50_x_11.00_Inches)
  6

 40
6.349999904632568
 41
19.04999923706055
 42
6.350006103515625
 43
19.04998779296875
 44
215.8999938964844
 45
279.3999938964844
 46
0.0
 47
0.0
 48
0.0
 49
0.0
140
0.0
141
0.0
142
1.0
143
78.436453180766
 70
 11952
 72
     0
 73
     1
 74
     0
  7

 75
     0
147
0.0127491741332998
 76
     0
 77
     2
 78
   300
148
0.0
149
0.0
100
AcDbLayout
  1
Model
 70
     1
 71
     0
 10
0.0
 20
0.0
 11
12.0
 21
9.0
 12
0.0
 22
0.0
 32
0.0
 14
0.0
 24
0.0
 34
0.0
 15
0.0
 25
0.0
 35
0.0
146
0.0
 13
0.0
 23
0.0
 33
0.0
 16
1.0
 26
0.0
 36
0.0
 17
0.0
 27
1.0
 37
0.0
 76
     0
330
1F
331
358
  0
LAYOUT
  5
51
102
{ACAD_REACTORS
330
1A
102
}
330
1A
100
AcDbPlotSettings
  1

  2
none_device
  4
Letter_(8.50_x_11.00_Inches)
  6

 40
6.349999904632568
 41
6.349999904632568
 42
6.350006103515625
 43
6.350006103515625
 44
215.8999938964844
 45
279.3999938964844
 46
0.0
 47
0.0
 48
0.0
 49
0.0
140
0.0
141
0.0
142
1.0
143
1.0
 70
   688
 72
     1
 73
     1
 74
     5
  7

 75
    16
147
1.0
 76
     0
 77
     2
 78
   300
148
0.0
149
0.0
100
AcDbLayout
  1
ﾚｲｱｳﾄ1
 70
     1
 71
     1
 10
-6.350006103515625
 20
-6.349999904632568
 11
273.0499877929688
 21
209.5499939918518
 12
0.0
 22
0.0
 32
0.0
 14
26.66076962115563
 24
20.31135699206658
 34
-0.0015258207003583
 15
240.039213369355
 25
182.8886381005154
 35
0.0000000349246037
146
0.0
 13
0.0
 23
0.0
 33
0.0
 16
1.0
 26
0.0
 36
0.0
 17
0.0
 27
1.0
 37
0.0
 76
     0
330
50
331
6B
  0
LAYOUT
  5
56
102
{ACAD_REACTORS
330
1A
102
}
330
1A
100
AcDbPlotSettings
  1

  2
none_device
  4
Letter_(8.50_x_11.00_Inches)
  6

 40
6.349999904632568
 41
6.349999904632568
 42
6.350006103515625
 43
6.350006103515625
 44
215.8999938964844
 45
279.3999938964844
 46
0.0
 47
0.0
 48
0.0
 49
0.0
140
0.0
141
0.0
142
1.0
143
1.0
 70
   688
 72
     1
 73
     1
 74
     5
  7

 75
    16
147
1.0
 76
     0
 77
     2
 78
   300
148
0.0
149
0.0
100
AcDbLayout
  1
ﾚｲｱｳﾄ2
 70
     1
 71
     2
 10
-6.350006103515625
 20
-6.349999904632568
 11
273.0499877929688
 21
209.5499939918518
 12
0.0
 22
0.0
 32
0.0
 14
26.66076962115563
 24
20.31135699206658
 34
-0.0015258207003583
 15
240.039213369355
 25
182.8886381005154
 35
0.0000000349246037
146
0.0
 13
0.0
 23
0.0
 33
0.0
 16
1.0
 26
0.0
 36
0.0
 17
0.0
 27
1.0
 37
0.0
 76
     0
330
55
331
71
  0
MATERIAL
  5
363
102
{ACAD_XDICTIONARY
360
364
102
}
102
{ACAD_REACTORS
330
35A
102
}
330
35A
100
AcDbMaterial
  1
ByBlock
 72
     0
 43
0.0008202099737533
 43
0.0
 43
0.0
 43
0.0
 43
0.0
 43
0.0008202099737533
 43
0.0
 43
0.0
 43
0.0
 43
0.0
 43
1.0
 43
0.0
 43
0.0
 43
0.0
 43
0.0
 43
1.0
 77
     0
 47
0.0008202099737533
 47
0.0
 47
0.0
 47
0.0
 47
0.0
 47
0.0008202099737533
 47
0.0
 47
0.0
 47
0.0
 47
0.0
 47
1.0
 47
0.0
 47
0.0
 47
0.0
 47
0.0
 47
1.0
171
     0
 49
0.0008202099737533
 49
0.0
 49
0.0
 49
0.0
 49
0.0
 49
0.0008202099737533
 49
0.0
 49
0.0
 49
0.0
 49
0.0
 49
1.0
 49
0.0
 49
0.0
 49
0.0
 49
0.0
 49
1.0
175
     0
142
0.0008202099737533
142
0.0
142
0.0
142
0.0
142
0.0
142
0.0008202099737533
142
0.0
142
0.0
142
0.0
142
0.0
142
1.0
142
0.0
142
0.0
142
0.0
142
0.0
142
1.0
179
     0
144
0.0008202099737533
144
0.0
144
0.0
144
0.0
144
0.0
144
0.0008202099737533
144
0.0
144
0.0
144
0.0
144
0.0
144
1.0
144
0.0
144
0.0
144
0.0
144
0.0
144
1.0
147
0.0008202099737533
147
0.0
147
0.0
147
0.0
147
0.0
147
0.0008202099737533
147
0.0
147
0.0
147
0.0
147
0.0
147
1.0
147
0.0
147
0.0
147
0.0
147
0.0
147
1.0
  0
MATERIAL
  5
35B
102
{ACAD_XDICTIONARY
360
35C
102
}
102
{ACAD_REACTORS
330
35A
102
}
330
35A
100
AcDbMaterial
  1
ByLayer
 72
     0
 43
0.0008202099737533
 43
0.0
 43
0.0
 43
0.0
 43
0.0
 43
0.0008202099737533
 43
0.0
 43
0.0
 43
0.0
 43
0.0
 43
1.0
 43
0.0
 43
0.0
 43
0.0
 43
0.0
 43
1.0
 77
     0
 47
0.0008202099737533
 47
0.0
 47
0.0
 47
0.0
 47
0.0
 47
0.0008202099737533
 47
0.0
 47
0.0
 47
0.0
 47
0.0
 47
1.0
 47
0.0
 47
0.0
 47
0.0
 47
0.0
 47
1.0
171
     0
 49
0.0008202099737533
 49
0.0
 49
0.0
 49
0.0
 49
0.0
 49
0.0008202099737533
 49
0.0
 49
0.0
 49
0.0
 49
0.0
 49
1.0
 49
0.0
 49
0.0
 49
0.0
 49
0.0
 49
1.0
175
     0
142
0.0008202099737533
142
0.0
142
0.0
142
0.0
142
0.0
142
0.0008202099737533
142
0.0
142
0.0
142
0.0
142
0.0
142
1.0
142
0.0
142
0.0
142
0.0
142
0.0
142
1.0
179
     0
144
0.0008202099737533
144
0.0
144
0.0
144
0.0
144
0.0
144
0.0008202099737533
144
0.0
144
0.0
144
0.0
144
0.0
144
1.0
144
0.0
144
0.0
144
0.0
144
0.0
144
1.0
147
0.0008202099737533
147
0.0
147
0.0
147
0.0
147
0.0
147
0.0008202099737533
147
0.0
147
0.0
147
0.0
147
0.0
147
1.0
147
0.0
147
0.0
147
0.0
147
0.0
147
1.0
  0
MATERIAL
  5
36B
102
{ACAD_XDICTIONARY
360
36C
102
}
102
{ACAD_REACTORS
330
35A
102
}
330
35A
100
AcDbMaterial
  1
Global
 72
     0
 43
0.0008202099737533
 43
0.0
 43
0.0
 43
0.0
 43
0.0
 43
0.0008202099737533
 43
0.0
 43
0.0
 43
0.0
 43
0.0
 43
1.0
 43
0.0
 43
0.0
 43
0.0
 43
0.0
 43
1.0
 77
     0
 47
0.0008202099737533
 47
0.0
 47
0.0
 47
0.0
 47
0.0
 47
0.0008202099737533
 47
0.0
 47
0.0
 47
0.0
 47
0.0
 47
1.0
 47
0.0
 47
0.0
 47
0.0
 47
0.0
 47
1.0
171
     0
 49
0.0008202099737533
 49
0.0
 49
0.0
 49
0.0
 49
0.0
 49
0.0008202099737533
 49
0.0
 49
0.0
 49
0.0
 49
0.0
 49
1.0
 49
0.0
 49
0.0
 49
0.0
 49
0.0
 49
1.0
175
     0
142
0.0008202099737533
142
0.0
142
0.0
142
0.0
142
0.0
142
0.0008202099737533
142
0.0
142
0.0
142
0.0
142
0.0
142
1.0
142
0.0
142
0.0
142
0.0
142
0.0
142
1.0
179
     0
144
0.0008202099737533
144
0.0
144
0.0
144
0.0
144
0.0
144
0.0008202099737533
144
0.0
144
0.0
144
0.0
144
0.0
144
1.0
144
0.0
144
0.0
144
0.0
144
0.0
144
1.0
147
0.0008202099737533
147
0.0
147
0.0
147
0.0
147
0.0
147
0.0008202099737533
147
0.0
147
0.0
147
0.0
147
0.0
147
1.0
147
0.0
147
0.0
147
0.0
147
0.0
147
1.0
  0
MLEADERSTYLE
  5
39D
102
{ACAD_REACTORS
330
39C
102
}
330
39C
100
AcDbMLeaderStyle
179
     2
170
     2
171
     1
172
     0
 90
        2
 40
0.0
 41
0.0
173
     1
 91
-1056964608
340
14
 92
       -2
290
     1
 42
2.0
291
     1
 43
0.36
  3
Standard
 44
4.0
300

342
11
174
     1
178
     6
175
     1
176
     0
 93
-1056964608
 45
4.0
292
     0
297
     0
 46
4.0
 94
-1056964608
 47
1.0
 49
1.0
140
1.0
293
     1
141
0.0
294
     1
177
     0
142
1.0
295
     1
296
     0
143
0.125
271
     0
272
     9
273
     9
  0
MLINESTYLE
  5
18
102
{ACAD_REACTORS
330
17
102
}
330
17
100
AcDbMlineStyle
  2
STANDARD
 70
     0
  3

 62
   256
 51
90.0
 52
90.0
 71
     2
 49
0.5
 62
   256
  6
BYLAYER
 49
-0.5
 62
   256
  6
BYLAYER
  0
ACDBPLACEHOLDER
  5
F
102
{ACAD_REACTORS
330
E
102
}
330
E
  0
SCALE
  5
38B
102
{ACAD_REACTORS
330
38A
102
}
330
38A
100
AcDbScale
 70
     0
300
1:1
140
1.0
141
1.0
290
     1
  0
SCALE
  5
38C
102
{ACAD_REACTORS
330
38A
102
}
330
38A
100
AcDbScale
 70
     0
300
1:2
140
1.0
141
2.0
290
     0
  0
SCALE
  5
38D
102
{ACAD_REACTORS
330
38A
102
}
330
38A
100
AcDbScale
 70
     0
300
1:4
140
1.0
141
4.0
290
     0
  0
SCALE
  5
38E
102
{ACAD_REACTORS
330
38A
102
}
330
38A
100
AcDbScale
 70
     0
300
1:5
140
1.0
141
5.0
290
     0
  0
SCALE
  5
38F
102
{ACAD_REACTORS
330
38A
102
}
330
38A
100
AcDbScale
 70
     0
300
1:8
140
1.0
141
8.0
290
     0
  0
SCALE
  5
390
102
{ACAD_REACTORS
330
38A
102
}
330
38A
100
AcDbScale
 70
     0
300
1:10
140
1.0
141
10.0
290
     0
  0
SCALE
  5
391
102
{ACAD_REACTORS
330
38A
102
}
330
38A
100
AcDbScale
 70
     0
300
1:16
140
1.0
141
16.0
290
     0
  0
SCALE
  5
392
102
{ACAD_REACTORS
330
38A
102
}
330
38A
100
AcDbScale
 70
     0
300
1:20
140
1.0
141
20.0
290
     0
  0
SCALE
  5
393
102
{ACAD_REACTORS
330
38A
102
}
330
38A
100
AcDbScale
 70
     0
300
1:30
140
1.0
141
30.0
290
     0
  0
SCALE
  5
394
102
{ACAD_REACTORS
330
38A
102
}
330
38A
100
AcDbScale
 70
     0
300
1:40
140
1.0
141
40.0
290
     0
  0
SCALE
  5
395
102
{ACAD_REACTORS
330
38A
102
}
330
38A
100
AcDbScale
 70
     0
300
1:50
140
1.0
141
50.0
290
     0
  0
SCALE
  5
396
102
{ACAD_REACTORS
330
38A
102
}
330
38A
100
AcDbScale
 70
     0
300
1:100
140
1.0
141
100.0
290
     0
  0
SCALE
  5
397
102
{ACAD_REACTORS
330
38A
102
}
330
38A
100
AcDbScale
 70
     0
300
2:1
140
2.0
141
1.0
290
     0
  0
SCALE
  5
398
102
{ACAD_REACTORS
330
38A
102
}
330
38A
100
AcDbScale
 70
     0
300
4:1
140
4.0
141
1.0
290
     0
  0
SCALE
  5
399
102
{ACAD_REACTORS
330
38A
102
}
330
38A
100
AcDbScale
 70
     0
300
8:1
140
8.0
141
1.0
290
     0
  0
SCALE
  5
39A
102
{ACAD_REACTORS
330
38A
102
}
330
38A
100
AcDbScale
 70
     0
300
10:1
140
10.0
141
1.0
290
     0
  0
SCALE
  5
39B
102
{ACAD_REACTORS
330
38A
102
}
330
38A
100
AcDbScale
 70
     0
300
100:1
140
100.0
141
1.0
290
     0
  0
TABLESTYLE
  5
389
102
{ACAD_XDICTIONARY
360
3AB
102
}
102
{ACAD_REACTORS
330
388
102
}
330
388
100
AcDbTableStyle
280
     0
  3
Standard
 70
     0
 71
     0
 40
1.5
 41
1.5
280
     0
281
     0
  7
Standard
140
4.5
170
     2
 62
     0
 63
     7
283
     0
 90
      512
 91
        0
  1

274
    -2
284
     1
 64
     0
275
    -2
285
     1
 65
     0
276
    -2
286
     1
 66
     0
277
    -2
287
     1
 67
     0
278
    -2
288
     1
 68
     0
279
    -2
289
     1
 69
     0
  7
Standard
140
6.0
170
     5
 62
     0
 63
     7
283
     0
 90
      512
 91
        0
  1

274
    -2
284
     1
 64
     0
275
    -2
285
     1
 65
     0
276
    -2
286
     1
 66
     0
277
    -2
287
     1
 67
     0
278
    -2
288
     1
 68
     0
279
    -2
289
     1
 69
     0
  7
Standard
140
4.5
170
     5
 62
     0
 63
     7
283
     0
 90
      512
 91
        0
  1

274
    -2
284
     1
 64
     0
275
    -2
285
     1
 65
     0
276
    -2
286
     1
 66
     0
277
    -2
287
     1
 67
     0
278
    -2
288
     1
 68
     0
279
    -2
289
     1
 69
     0
  0
VISUALSTYLE
  5
379
102
{ACAD_REACTORS
330
373
102
}
330
373
100
AcDbVisualStyle
  2
2dWireframe
 70
     4
177
     2
291
     0
 71
     0
176
     1
 72
     2
176
     1
 73
     0
176
     1
 90
        0
176
     1
 40
0.6
176
     1
 41
30.0
176
     1
 63
     7
421
 16777215
176
     1
 74
     1
176
     1
 91
        4
176
     1
 64
     7
176
     1
 65
   257
176
     1
 75
     1
176
     1
175
     1
176
     1
 42
1.0
176
     1
 92
        0
176
     1
 66
   257
176
     1
 43
1.0
176
     1
 76
     1
176
     1
 77
     6
176
     1
 78
     2
176
     1
 67
     7
176
     1
 79
     5
176
     1
170
     0
176
     1
171
     0
176
     1
290
     0
176
     1
 93
        1
176
     1
 44
0.0
176
     1
173
     0
176
     1
  0
VISUALSTYLE
  5
37B
102
{ACAD_REACTORS
330
373
102
}
330
373
100
AcDbVisualStyle
  2
3D Hidden
 70
     6
177
     2
291
     0
 71
     1
176
     1
 72
     2
176
     1
 73
     2
176
     1
 90
        0
176
     1
 40
0.6
176
     1
 41
30.0
176
     1
 63
     7
421
 16777215
176
     1
 74
     2
176
     1
 91
        2
176
     1
 64
     7
176
     1
 65
   257
176
     1
 75
     2
176
     1
175
     1
176
     1
 42
179.0
176
     1
 92
        0
176
     1
 66
   257
176
     1
 43
1.0
176
     1
 76
     1
176
     1
 77
     6
176
     1
 78
     2
176
     1
 67
     7
176
     1
 79
     3
176
     1
170
     0
176
     1
171
     0
176
     1
290
     0
176
     1
 93
        1
176
     1
 44
0.0
176
     1
173
     0
176
     1
  0
VISUALSTYLE
  5
37A
102
{ACAD_REACTORS
330
373
102
}
330
373
100
AcDbVisualStyle
  2
3dWireframe
 70
     5
177
     2
291
     0
 71
     0
176
     1
 72
     2
176
     1
 73
     0
176
     1
 90
        0
176
     1
 40
0.6
176
     1
 41
30.0
176
     1
 63
     7
421
 16777215
176
     1
 74
     1
176
     1
 91
        4
176
     1
 64
     7
176
     1
 65
   257
176
     1
 75
     1
176
     1
175
     1
176
     1
 42
1.0
176
     1
 92
        0
176
     1
 66
   257
176
     1
 43
1.0
176
     1
 76
     1
176
     1
 77
     6
176
     1
 78
     2
176
     1
 67
     7
176
     1
 79
     5
176
     1
170
     0
176
     1
171
     0
176
     1
290
     0
176
     1
 93
        1
176
     1
 44
0.0
176
     1
173
     0
176
     1
  0
VISUALSTYLE
  5
378
102
{ACAD_REACTORS
330
373
102
}
330
373
100
AcDbVisualStyle
  2
Basic
 70
     7
177
     2
291
     1
 71
     1
176
     1
 72
     0
176
     1
 73
     1
176
     1
 90
        0
176
     1
 40
0.6
176
     1
 41
30.0
176
     1
 63
     7
421
 16777215
176
     1
 74
     0
176
     1
 91
        4
176
     1
 64
     7
176
     1
 65
   257
176
     1
 75
     1
176
     1
175
     1
176
     1
 42
1.0
176
     1
 92
        8
176
     1
 66
     7
176
     1
 43
1.0
176
     1
 76
     1
176
     1
 77
     6
176
     1
 78
     2
176
     1
 67
     7
176
     1
 79
     5
176
     1
170
     0
176
     1
171
     0
176
     1
290
     0
176
     1
 93
        1
176
     1
 44
0.0
176
     1
173
     0
176
     1
  0
VISUALSTYLE
  5
37F
102
{ACAD_REACTORS
330
373
102
}
330
373
100
AcDbVisualStyle
  2
Brighten
 70
    12
177
     2
291
     1
 71
     2
176
     1
 72
     2
176
     1
 73
     0
176
     1
 90
        0
176
     1
 40
0.6
176
     1
 41
30.0
176
     1
 63
     7
421
 16777215
176
     1
 74
     1
176
     1
 91
        4
176
     1
 64
     7
176
     1
 65
   257
176
     1
 75
     1
176
     1
175
     1
176
     1
 42
1.0
176
     1
 92
        8
176
     1
 66
     7
176
     1
 43
1.0
176
     1
 76
     1
176
     1
 77
     6
176
     1
 78
     2
176
     1
 67
     7
176
     1
 79
     5
176
     1
170
     0
176
     1
171
     0
176
     1
290
     0
176
     1
 93
        1
176
     1
 44
50.0
176
     1
173
     0
176
     1
  0
VISUALSTYLE
  5
383
102
{ACAD_REACTORS
330
373
102
}
330
373
100
AcDbVisualStyle
  2
ColorChange
 70
    16
177
     2
291
     1
 71
     2
176
     1
 72
     2
176
     1
 73
     3
176
     1
 90
        0
176
     1
 40
0.6
176
     1
 41
30.0
176
     1
 63
     8
421
  8421504
176
     1
 74
     1
176
     1
 91
        4
176
     1
 64
     7
176
     1
 65
   257
176
     1
 75
     1
176
     1
175
     1
176
     1
 42
1.0
176
     1
 92
        8
176
     1
 66
     8
424
  8421504
176
     1
 43
1.0
176
     1
 76
     1
176
     1
 77
     6
176
     1
 78
     2
176
     1
 67
     7
176
     1
 79
     5
176
     1
170
     0
176
     1
171
     0
176
     1
290
     0
176
     1
 93
        1
176
     1
 44
0.0
176
     1
173
     0
176
     1
  0
VISUALSTYLE
  5
37C
102
{ACAD_REACTORS
330
373
102
}
330
373
100
AcDbVisualStyle
  2
Conceptual
 70
     9
177
     2
291
     0
 71
     3
176
     1
 72
     2
176
     1
 73
     0
176
     1
 90
        0
176
     1
 40
0.6
176
     1
 41
30.0
176
     1
 63
     7
421
 16777215
176
     1
 74
     2
176
     1
 91
        2
176
     1
 64
     7
176
     1
 65
   257
176
     1
 75
     1
176
     1
175
     1
176
     1
 42
179.0
176
     1
 92
        8
176
     1
 66
     7
176
     1
 43
1.0
176
     1
 76
     1
176
     1
 77
     6
176
     1
 78
     2
176
     1
 67
     7
176
     1
 79
     3
176
     1
170
     0
176
     1
171
     0
176
     1
290
     0
176
     1
 93
        1
176
     1
 44
0.0
176
     1
173
     0
176
     1
  0
VISUALSTYLE
  5
37E
102
{ACAD_REACTORS
330
373
102
}
330
373
100
AcDbVisualStyle
  2
Dim
 70
    11
177
     2
291
     1
 71
     2
176
     1
 72
     2
176
     1
 73
     0
176
     1
 90
        0
176
     1
 40
0.6
176
     1
 41
30.0
176
     1
 63
     7
421
 16777215
176
     1
 74
     1
176
     1
 91
        4
176
     1
 64
     7
176
     1
 65
   257
176
     1
 75
     1
176
     1
175
     1
176
     1
 42
1.0
176
     1
 92
        8
176
     1
 66
     7
176
     1
 43
1.0
176
     1
 76
     1
176
     1
 77
     6
176
     1
 78
     2
176
     1
 67
     7
176
     1
 79
     5
176
     1
170
     0
176
     1
171
     0
176
     1
290
     0
176
     1
 93
        1
176
     1
 44
-50.0
176
     1
173
     0
176
     1
  0
VISUALSTYLE
  5
386
102
{ACAD_REACTORS
330
373
102
}
330
373
100
AcDbVisualStyle
  2
EdgeColorOff
 70
    22
177
     2
291
     1
 71
     2
176
     0
 72
     2
176
     0
 73
     0
176
     0
 90
        0
176
     0
 40
0.6
176
     0
 41
30.0
176
     0
 63
     7
421
 16777215
176
     0
 74
     1
176
     0
 91
        4
176
     0
 64
     7
176
     0
 65
   257
176
     0
 75
     1
176
     0
175
     1
176
     0
 42
1.0
176
     0
 92
        8
176
     2
 66
     7
176
     0
 43
1.0
176
     0
 76
     1
176
     0
 77
     6
176
     0
 78
     2
176
     0
 67
     7
176
     0
 79
     5
176
     0
170
     0
176
     0
171
     0
176
     0
290
     0
176
     0
 93
        1
176
     0
 44
0.0
176
     0
173
     0
176
     0
  0
VISUALSTYLE
  5
382
102
{ACAD_REACTORS
330
373
102
}
330
373
100
AcDbVisualStyle
  2
Facepattern
 70
    15
177
     2
291
     1
 71
     2
176
     1
 72
     2
176
     1
 73
     0
176
     1
 90
        0
176
     1
 40
0.6
176
     1
 41
30.0
176
     1
 63
     7
421
 16777215
176
     1
 74
     1
176
     1
 91
        4
176
     1
 64
     7
176
     1
 65
   257
176
     1
 75
     1
176
     1
175
     1
176
     1
 42
1.0
176
     1
 92
        8
176
     1
 66
     7
176
     1
 43
1.0
176
     1
 76
     1
176
     1
 77
     6
176
     1
 78
     2
176
     1
 67
     7
176
     1
 79
     5
176
     1
170
     0
176
     1
171
     0
176
     1
290
     0
176
     1
 93
        1
176
     1
 44
0.0
176
     1
173
     0
176
     1
  0
VISUALSTYLE
  5
374
102
{ACAD_REACTORS
330
373
102
}
330
373
100
AcDbVisualStyle
  2
Flat
 70
     0
177
     2
291
     1
 71
     2
176
     1
 72
     1
176
     1
 73
     1
176
     1
 90
        2
176
     1
 40
0.6
176
     1
 41
30.0
176
     1
 63
     7
421
 16777215
176
     1
 74
     0
176
     1
 91
        4
176
     1
 64
     7
176
     1
 65
   257
176
     1
 75
     1
176
     1
175
     1
176
     1
 42
1.0
176
     1
 92
        8
176
     1
 66
     7
176
     1
 43
1.0
176
     1
 76
     1
176
     1
 77
     6
176
     1
 78
     2
176
     1
 67
     7
176
     1
 79
     5
176
     1
170
     0
176
     1
171
     0
176
     1
290
     0
176
     1
 93
       13
176
     1
 44
0.0
176
     1
173
     0
176
     1
  0
VISUALSTYLE
  5
375
102
{ACAD_REACTORS
330
373
102
}
330
373
100
AcDbVisualStyle
  2
FlatWithEdges
 70
     1
177
     2
291
     1
 71
     2
176
     1
 72
     1
176
     1
 73
     1
176
     1
 90
        2
176
     1
 40
0.6
176
     1
 41
30.0
176
     1
 63
     7
421
 16777215
176
     1
 74
     1
176
     1
 91
        4
176
     1
 64
     7
176
     1
 65
   257
176
     1
 75
     1
176
     1
175
     1
176
     1
 42
1.0
176
     1
 92
        0
176
     1
 66
   257
176
     1
 43
1.0
176
     1
 76
     1
176
     1
 77
     6
176
     1
 78
     2
176
     1
 67
     7
176
     1
 79
     5
176
     1
170
     0
176
     1
171
     0
176
     1
290
     0
176
     1
 93
       13
176
     1
 44
0.0
176
     1
173
     0
176
     1
  0
VISUALSTYLE
  5
376
102
{ACAD_REACTORS
330
373
102
}
330
373
100
AcDbVisualStyle
  2
Gouraud
 70
     2
177
     2
291
     1
 71
     2
176
     1
 72
     2
176
     1
 73
     1
176
     1
 90
        2
176
     1
 40
0.6
176
     1
 41
30.0
176
     1
 63
     7
421
 16777215
176
     1
 74
     0
176
     1
 91
        4
176
     1
 64
     7
176
     1
 65
   257
176
     1
 75
     1
176
     1
175
     1
176
     1
 42
1.0
176
     1
 92
        0
176
     1
 66
     7
176
     1
 43
1.0
176
     1
 76
     1
176
     1
 77
     6
176
     1
 78
     2
176
     1
 67
     7
176
     1
 79
     5
176
     1
170
     0
176
     1
171
     0
176
     1
290
     0
176
     1
 93
       13
176
     1
 44
0.0
176
     1
173
     0
176
     1
  0
VISUALSTYLE
  5
377
102
{ACAD_REACTORS
330
373
102
}
330
373
100
AcDbVisualStyle
  2
GouraudWithEdges
 70
     3
177
     2
291
     1
 71
     2
176
     1
 72
     2
176
     1
 73
     1
176
     1
 90
        2
176
     1
 40
0.6
176
     1
 41
30.0
176
     1
 63
     7
421
 16777215
176
     1
 74
     1
176
     1
 91
        4
176
     1
 64
     7
176
     1
 65
   257
176
     1
 75
     1
176
     1
175
     1
176
     1
 42
1.0
176
     1
 92
        0
176
     1
 66
   257
176
     1
 43
1.0
176
     1
 76
     1
176
     1
 77
     6
176
     1
 78
     2
176
     1
 67
     7
176
     1
 79
     5
176
     1
170
     0
176
     1
171
     0
176
     1
290
     0
176
     1
 93
       13
176
     1
 44
0.0
176
     1
173
     0
176
     1
  0
VISUALSTYLE
  5
384
102
{ACAD_REACTORS
330
373
102
}
330
373
100
AcDbVisualStyle
  2
JitterOff
 70
    20
177
     2
291
     1
 71
     2
176
     0
 72
     2
176
     0
 73
     0
176
     0
 90
        0
176
     0
 40
0.6
176
     0
 41
30.0
176
     0
 63
     7
421
 16777215
176
     0
 74
     1
176
     0
 91
        4
176
     0
 64
     7
176
     0
 65
   257
176
     0
 75
     1
176
     0
175
     1
176
     0
 42
1.0
176
     0
 92
       10
176
     2
 66
     7
176
     0
 43
1.0
176
     0
 76
     1
176
     0
 77
     6
176
     0
 78
     2
176
     0
 67
     7
176
     0
 79
     5
176
     0
170
     0
176
     0
171
     0
176
     0
290
     0
176
     0
 93
        1
176
     0
 44
0.0
176
     0
173
     0
176
     0
  0
VISUALSTYLE
  5
381
102
{ACAD_REACTORS
330
373
102
}
330
373
100
AcDbVisualStyle
  2
Linepattern
 70
    14
177
     2
291
     1
 71
     2
176
     1
 72
     2
176
     1
 73
     0
176
     1
 90
        0
176
     1
 40
0.6
176
     1
 41
30.0
176
     1
 63
     7
421
 16777215
176
     1
 74
     1
176
     1
 91
        4
176
     1
 64
     7
176
     1
 65
   257
176
     1
 75
     7
176
     1
175
     7
176
     1
 42
1.0
176
     1
 92
        8
176
     1
 66
     7
176
     1
 43
1.0
176
     1
 76
     1
176
     1
 77
     6
176
     1
 78
     2
176
     1
 67
     7
176
     1
 79
     5
176
     1
170
     0
176
     1
171
     0
176
     1
290
     0
176
     1
 93
        1
176
     1
 44
0.0
176
     1
173
     0
176
     1
  0
VISUALSTYLE
  5
385
102
{ACAD_REACTORS
330
373
102
}
330
373
100
AcDbVisualStyle
  2
OverhangOff
 70
    21
177
     2
291
     1
 71
     2
176
     0
 72
     2
176
     0
 73
     0
176
     0
 90
        0
176
     0
 40
0.6
176
     0
 41
30.0
176
     0
 63
     7
421
 16777215
176
     0
 74
     1
176
     0
 91
        4
176
     0
 64
     7
176
     0
 65
   257
176
     0
 75
     1
176
     0
175
     1
176
     0
 42
1.0
176
     0
 92
        9
176
     2
 66
     7
176
     0
 43
1.0
176
     0
 76
     1
176
     0
 77
     6
176
     0
 78
     2
176
     0
 67
     7
176
     0
 79
     5
176
     0
170
     0
176
     0
171
     0
176
     0
290
     0
176
     0
 93
        1
176
     0
 44
0.0
176
     0
173
     0
176
     0
  0
VISUALSTYLE
  5
37D
102
{ACAD_REACTORS
330
373
102
}
330
373
100
AcDbVisualStyle
  2
Realistic
 70
     8
177
     2
291
     0
 71
     2
176
     1
 72
     2
176
     1
 73
     0
176
     1
 90
        0
176
     1
 40
0.6
176
     1
 41
30.0
176
     1
 63
     7
421
 16777215
176
     1
 74
     1
176
     1
 91
        0
176
     1
 64
     7
176
     1
 65
   257
176
     1
 75
     1
176
     1
175
     1
176
     1
 42
1.0
176
     1
 92
        8
176
     1
 66
     8
424
  7895160
176
     1
 43
1.0
176
     1
 76
     1
176
     1
 77
     6
176
     1
 78
     2
176
     1
 67
     7
176
     1
 79
     5
176
     1
170
     0
176
     1
171
     0
176
     1
290
     0
176
     1
 93
       13
176
     1
 44
0.0
176
     1
173
     0
176
     1
  0
VISUALSTYLE
  5
380
102
{ACAD_REACTORS
330
373
102
}
330
373
100
AcDbVisualStyle
  2
Thicken
 70
    13
177
     2
291
     1
 71
     2
176
     1
 72
     2
176
     1
 73
     0
176
     1
 90
        0
176
     1
 40
0.6
176
     1
 41
30.0
176
     1
 63
     7
421
 16777215
176
     1
 74
     1
176
     1
 91
        4
176
     1
 64
     7
176
     1
 65
   257
176
     1
 75
     1
176
     1
175
     1
176
     1
 42
1.0
176
     1
 92
       12
176
     1
 66
     7
176
     1
 43
1.0
176
     1
 76
     1
176
     1
 77
     6
176
     1
 78
     2
176
     1
 67
     7
176
     1
 79
     5
176
     1
170
     0
176
     1
171
     0
176
     1
290
     0
176
     1
 93
        1
176
     1
 44
0.0
176
     1
173
     0
176
     1
  0
DICTIONARYVAR
  5
3A7
102
{ACAD_REACTORS
330
5E
102
}
330
5E
100
DictionaryVariables
280
     0
  1
1:1
  0
DICTIONARYVAR
  5
3A5
102
{ACAD_REACTORS
330
5E
102
}
330
5E
100
DictionaryVariables
280
     0
  1
STANDARD
  0
DICTIONARYVAR
  5
3A4
102
{ACAD_REACTORS
330
5E
102
}
330
5E
100
DictionaryVariables
280
     0
  1
STANDARD
  0
DICTIONARYVAR
  5
5F
102
{ACAD_REACTORS
330
5E
102
}
330
5E
100
DictionaryVariables
280
     0
  1
2
  0
DICTIONARYVAR
  5
63
102
{ACAD_REACTORS
330
5E
102
}
330
5E
100
DictionaryVariables
280
     0
  1
1
  0
DICTIONARYVAR
  5
3A9
102
{ACAD_REACTORS
330
5E
102
}
330
5E
100
DictionaryVariables
280
     0
  1
1
  0
DICTIONARYVAR
  5
3AA
102
{ACAD_REACTORS
330
5E
102
}
330
5E
100
DictionaryVariables
280
     0
  1
15
  0
DICTIONARYVAR
  5
3A8
102
{ACAD_REACTORS
330
5E
102
}
330
5E
100
DictionaryVariables
280
     0
  1
0
  0
DICTIONARYVAR
  5
3A6
102
{ACAD_REACTORS
330
5E
102
}
330
5E
100
DictionaryVariables
280
     0
  1
0
  0
DICTIONARY
  5
364
330
363
100
AcDbDictionary
280
     1
281
     1
  3
BUMPTILE
360
366
  3
DIFFUSETILE
360
365
  3
OPACITYTILE
360
369
  3
REFLECTIONTILE
360
368
  3
REFRACTIONTILE
360
36A
  3
SPECULARTILE
360
367
  0
DICTIONARY
  5
35C
330
35B
100
AcDbDictionary
280
     1
281
     1
  3
BUMPTILE
360
35E
  3
DIFFUSETILE
360
35D
  3
OPACITYTILE
360
361
  3
REFLECTIONTILE
360
360
  3
REFRACTIONTILE
360
362
  3
SPECULARTILE
360
35F
  0
DICTIONARY
  5
36C
330
36B
100
AcDbDictionary
280
     1
281
     1
  3
BUMPTILE
360
36E
  3
DIFFUSETILE
360
36D
  3
OPACITYTILE
360
371
  3
REFLECTIONTILE
360
370
  3
REFRACTIONTILE
360
372
  3
SPECULARTILE
360
36F
  0
DICTIONARY
  5
3AB
330
389
100
AcDbDictionary
280
     1
281
     1
  3
ACAD_ROUNDTRIP_2008_TABLESTYLE_CELLSTYLEMAP
360
3AC
  0
XRECORD
  5
366
102
{ACAD_REACTORS
330
364
102
}
330
364
100
AcDbXrecord
280
     1
270
     1
271
     1
  0
XRECORD
  5
365
102
{ACAD_REACTORS
330
364
102
}
330
364
100
AcDbXrecord
280
     1
270
     1
271
     1
  0
XRECORD
  5
369
102
{ACAD_REACTORS
330
364
102
}
330
364
100
AcDbXrecord
280
     1
270
     1
271
     1
  0
XRECORD
  5
368
102
{ACAD_REACTORS
330
364
102
}
330
364
100
AcDbXrecord
280
     1
270
     1
271
     1
  0
XRECORD
  5
36A
102
{ACAD_REACTORS
330
364
102
}
330
364
100
AcDbXrecord
280
     1
270
     1
271
     1
  0
XRECORD
  5
367
102
{ACAD_REACTORS
330
364
102
}
330
364
100
AcDbXrecord
280
     1
270
     1
271
     1
  0
XRECORD
  5
35E
102
{ACAD_REACTORS
330
35C
102
}
330
35C
100
AcDbXrecord
280
     1
270
     1
271
     1
  0
XRECORD
  5
35D
102
{ACAD_REACTORS
330
35C
102
}
330
35C
100
AcDbXrecord
280
     1
270
     1
271
     1
  0
XRECORD
  5
361
102
{ACAD_REACTORS
330
35C
102
}
330
35C
100
AcDbXrecord
280
     1
270
     1
271
     1
  0
XRECORD
  5
360
102
{ACAD_REACTORS
330
35C
102
}
330
35C
100
AcDbXrecord
280
     1
270
     1
271
     1
  0
XRECORD
  5
362
102
{ACAD_REACTORS
330
35C
102
}
330
35C
100
AcDbXrecord
280
     1
270
     1
271
     1
  0
XRECORD
  5
35F
102
{ACAD_REACTORS
330
35C
102
}
330
35C
100
AcDbXrecord
280
     1
270
     1
271
     1
  0
XRECORD
  5
36E
102
{ACAD_REACTORS
330
36C
102
}
330
36C
100
AcDbXrecord
280
     1
270
     1
271
     1
  0
XRECORD
  5
36D
102
{ACAD_REACTORS
330
36C
102
}
330
36C
100
AcDbXrecord
280
     1
270
     1
271
     1
  0
XRECORD
  5
371
102
{ACAD_REACTORS
330
36C
102
}
330
36C
100
AcDbXrecord
280
     1
270
     1
271
     1
  0
XRECORD
  5
370
102
{ACAD_REACTORS
330
36C
102
}
330
36C
100
AcDbXrecord
280
     1
270
     1
271
     1
  0
XRECORD
  5
372
102
{ACAD_REACTORS
330
36C
102
}
330
36C
100
AcDbXrecord
280
     1
270
     1
271
     1
  0
XRECORD
  5
36F
102
{ACAD_REACTORS
330
36C
102
}
330
36C
100
AcDbXrecord
280
     1
270
     1
271
     1
  0
CELLSTYLEMAP
  5
3AC
102
{ACAD_REACTORS
330
3AB
102
}
330
3AB
100
AcDbCellStyleMap
 90
        3
300
CELLSTYLE
  1
TABLEFORMAT_BEGIN
 90
        5
170
     1
 91
        0
 92
    32768
 62
   257
 93
        1
300
CONTENTFORMAT
  1
CONTENTFORMAT_BEGIN
 90
        0
 91
        0
 92
      512
 93
        0
300

 40
0.0
140
1.0
 94
        5
 62
     0
340
11
144
6.0
309
CONTENTFORMAT_END
171
     1
301
MARGIN
  1
CELLMARGIN_BEGIN
 40
1.5
 40
1.5
 40
1.5
 40
1.5
 40
4.5
 40
4.5
309
CELLMARGIN_END
 94
        6
 95
        1
302
GRIDFORMAT
  1
GRIDFORMAT_BEGIN
 90
        0
 91
        1
 62
     0
 92
       -2
340
0
 93
        0
 40
1.125
309
GRIDFORMAT_END
 95
        2
302
GRIDFORMAT
  1
GRIDFORMAT_BEGIN
 90
        0
 91
        1
 62
     0
 92
       -2
340
0
 93
        0
 40
1.125
309
GRIDFORMAT_END
 95
        4
302
GRIDFORMAT
  1
GRIDFORMAT_BEGIN
 90
        0
 91
        1
 62
     0
 92
       -2
340
0
 93
        0
 40
1.125
309
GRIDFORMAT_END
 95
        8
302
GRIDFORMAT
  1
GRIDFORMAT_BEGIN
 90
        0
 91
        1
 62
     0
 92
       -2
340
0
 93
        0
 40
1.125
309
GRIDFORMAT_END
 95
       16
302
GRIDFORMAT
  1
GRIDFORMAT_BEGIN
 90
        0
 91
        1
 62
     0
 92
       -2
340
0
 93
        0
 40
1.125
309
GRIDFORMAT_END
 95
       32
302
GRIDFORMAT
  1
GRIDFORMAT_BEGIN
 90
        0
 91
        1
 62
     0
 92
       -2
340
0
 93
        0
 40
1.125
309
GRIDFORMAT_END
309
TABLEFORMAT_END
  1
CELLSTYLE_BEGIN
 90
        1
 91
        1
300
_TITLE
309
CELLSTYLE_END
300
CELLSTYLE
  1
TABLEFORMAT_BEGIN
 90
        5
170
     1
 91
        0
 92
        0
 62
   257
 93
        1
300
CONTENTFORMAT
  1
CONTENTFORMAT_BEGIN
 90
        0
 91
        0
 92
      512
 93
        0
300

 40
0.0
140
1.0
 94
        5
 62
     0
340
11
144
4.5
309
CONTENTFORMAT_END
171
     1
301
MARGIN
  1
CELLMARGIN_BEGIN
 40
1.5
 40
1.5
 40
1.5
 40
1.5
 40
4.5
 40
4.5
309
CELLMARGIN_END
 94
        6
 95
        1
302
GRIDFORMAT
  1
GRIDFORMAT_BEGIN
 90
        0
 91
        1
 62
     0
 92
       -2
340
0
 93
        0
 40
1.125
309
GRIDFORMAT_END
 95
        2
302
GRIDFORMAT
  1
GRIDFORMAT_BEGIN
 90
        0
 91
        1
 62
     0
 92
       -2
340
0
 93
        0
 40
1.125
309
GRIDFORMAT_END
 95
        4
302
GRIDFORMAT
  1
GRIDFORMAT_BEGIN
 90
        0
 91
        1
 62
     0
 92
       -2
340
0
 93
        0
 40
1.125
309
GRIDFORMAT_END
 95
        8
302
GRIDFORMAT
  1
GRIDFORMAT_BEGIN
 90
        0
 91
        1
 62
     0
 92
       -2
340
0
 93
        0
 40
1.125
309
GRIDFORMAT_END
 95
       16
302
GRIDFORMAT
  1
GRIDFORMAT_BEGIN
 90
        0
 91
        1
 62
     0
 92
       -2
340
0
 93
        0
 40
1.125
309
GRIDFORMAT_END
 95
       32
302
GRIDFORMAT
  1
GRIDFORMAT_BEGIN
 90
        0
 91
        1
 62
     0
 92
       -2
340
0
 93
        0
 40
1.125
309
GRIDFORMAT_END
309
TABLEFORMAT_END
  1
CELLSTYLE_BEGIN
 90
        2
 91
        1
300
_HEADER
309
CELLSTYLE_END
300
CELLSTYLE
  1
TABLEFORMAT_BEGIN
 90
        5
170
     1
 91
        0
 92
        0
 62
   257
 93
        1
300
CONTENTFORMAT
  1
CONTENTFORMAT_BEGIN
 90
        0
 91
        0
 92
      512
 93
        0
300

 40
0.0
140
1.0
 94
        2
 62
     0
340
11
144
4.5
309
CONTENTFORMAT_END
171
     1
301
MARGIN
  1
CELLMARGIN_BEGIN
 40
1.5
 40
1.5
 40
1.5
 40
1.5
 40
4.5
 40
4.5
309
CELLMARGIN_END
 94
        6
 95
        1
302
GRIDFORMAT
  1
GRIDFORMAT_BEGIN
 90
        0
 91
        1
 62
     0
 92
       -2
340
0
 93
        0
 40
1.125
309
GRIDFORMAT_END
 95
        2
302
GRIDFORMAT
  1
GRIDFORMAT_BEGIN
 90
        0
 91
        1
 62
     0
 92
       -2
340
0
 93
        0
 40
1.125
309
GRIDFORMAT_END
 95
        4
302
GRIDFORMAT
  1
GRIDFORMAT_BEGIN
 90
        0
 91
        1
 62
     0
 92
       -2
340
0
 93
        0
 40
1.125
309
GRIDFORMAT_END
 95
        8
302
GRIDFORMAT
  1
GRIDFORMAT_BEGIN
 90
        0
 91
        1
 62
     0
 92
       -2
340
0
 93
        0
 40
1.125
309
GRIDFORMAT_END
 95
       16
302
GRIDFORMAT
  1
GRIDFORMAT_BEGIN
 90
        0
 91
        1
 62
     0
 92
       -2
340
0
 93
        0
 40
1.125
309
GRIDFORMAT_END
 95
       32
302
GRIDFORMAT
  1
GRIDFORMAT_BEGIN
 90
        0
 91
        1
 62
     0
 92
       -2
340
0
 93
        0
 40
1.125
309
GRIDFORMAT_END
309
TABLEFORMAT_END
  1
CELLSTYLE_BEGIN
 90
        3
 91
        2
300
_DATA
309
CELLSTYLE_END
  0
ENDSEC
  0
EOF
