  0
SECTION
  2
HEADER
  9
$ACADVER
  1
AC1024
  9
$ACADMAINTVER
 70
     6
  9
$DWGCODEPAGE
  3
ANSI_932
  9
$LASTSAVEDBY
  1
kanatani
  9
$INSBASE
 10
0.0
 20
0.0
 30
0.0
  9
$EXTMIN
 10
-53.50001525878315
 20
-51.10130938070563
 30
0.0
  9
$EXTMAX
 10
253.5000152587831
 20
109.2867751469213
 30
0.0
  9
$LIMMIN
 10
0.0
 20
0.0
  9
$LIMMAX
 10
420.0
 20
297.0
  9
$ORTHOMODE
 70
     0
  9
$REGENMODE
 70
     1
  9
$FILLMODE
 70
     1
  9
$QTEXTMODE
 70
     0
  9
$MIRRTEXT
 70
     1
  9
$LTSCALE
 40
0.2
  9
$ATTMODE
 70
     1
  9
$TEXTSIZE
 40
2.5
  9
$TRACEWID
 40
1.0
  9
$TEXTSTYLE
  7
Standard
  9
$CLAYER
  8
0
  9
$CELTYPE
  6
ByLayer
  9
$CECOLOR
 62
   256
  9
$CELTSCALE
 40
1.0
  9
$DISPSILH
 70
     0
  9
$DIMSCALE
 40
1.0
  9
$DIMASZ
 40
2.5
  9
$DIMEXO
 40
0.625
  9
$DIMDLI
 40
3.75
  9
$DIMRND
 40
0.0
  9
$DIMDLE
 40
0.0
  9
$DIMEXE
 40
1.25
  9
$DIMTP
 40
0.0
  9
$DIMTM
 40
0.0
  9
$DIMTXT
 40
2.5
  9
$DIMCEN
 40
2.5
  9
$DIMTSZ
 40
0.0
  9
$DIMTOL
 70
     0
  9
$DIMLIM
 70
     0
  9
$DIMTIH
 70
     0
  9
$DIMTOH
 70
     0
  9
$DIMSE1
 70
     0
  9
$DIMSE2
 70
     0
  9
$DIMTAD
 70
     1
  9
$DIMZIN
 70
     8
  9
$DIMBLK
  1

  9
$DIMASO
 70
     1
  9
$DIMSHO
 70
     1
  9
$DIMPOST
  1

  9
$DIMAPOST
  1

  9
$DIMALT
 70
     0
  9
$DIMALTD
 70
     3
  9
$DIMALTF
 40
0.03937007874016
  9
$DIMLFAC
 40
1.0
  9
$DIMTOFL
 70
     1
  9
$DIMTVP
 40
0.0
  9
$DIMTIX
 70
     0
  9
$DIMSOXD
 70
     0
  9
$DIMSAH
 70
     0
  9
$DIMBLK1
  1

  9
$DIMBLK2
  1

  9
$DIMSTYLE
  2
ISO-25
  9
$DIMCLRD
 70
     0
  9
$DIMCLRE
 70
     0
  9
$DIMCLRT
 70
     0
  9
$DIMTFAC
 40
1.0
  9
$DIMGAP
 40
0.625
  9
$DIMJUST
 70
     0
  9
$DIMSD1
 70
     0
  9
$DIMSD2
 70
     0
  9
$DIMTOLJ
 70
     0
  9
$DIMTZIN
 70
     8
  9
$DIMALTZ
 70
     0
  9
$DIMALTTZ
 70
     0
  9
$DIMUPT
 70
     0
  9
$DIMDEC
 70
     2
  9
$DIMTDEC
 70
     2
  9
$DIMALTU
 70
     2
  9
$DIMALTTD
 70
     3
  9
$DIMTXSTY
  7
Standard
  9
$DIMAUNIT
 70
     0
  9
$DIMADEC
 70
     0
  9
$DIMALTRND
 40
0.0
  9
$DIMAZIN
 70
     0
  9
$DIMDSEP
 70
    44
  9
$DIMATFIT
 70
     3
  9
$DIMFRAC
 70
     0
  9
$DIMLDRBLK
  1

  9
$DIMLUNIT
 70
     2
  9
$DIMLWD
 70
    -2
  9
$DIMLWE
 70
    -2
  9
$DIMTMOVE
 70
     0
  9
$DIMFXL
 40
1.0
  9
$DIMFXLON
 70
     0
  9
$DIMJOGANG
 40
0.7853981633974483
  9
$DIMTFILL
 70
     0
  9
$DIMTFILLCLR
 70
     0
  9
$DIMARCSYM
 70
     0
  9
$DIMLTYPE
  6

  9
$DIMLTEX1
  6

  9
$DIMLTEX2
  6

  9
$DIMTXTDIRECTION
 70
     0
  9
$LUNITS
 70
     2
  9
$LUPREC
 70
     4
  9
$SKETCHINC
 40
1.0
  9
$FILLETRAD
 40
10.0
  9
$AUNITS
 70
     0
  9
$AUPREC
 70
     0
  9
$MENU
  1
.
  9
$ELEVATION
 40
0.0
  9
$PELEVATION
 40
0.0
  9
$THICKNESS
 40
0.0
  9
$LIMCHECK
 70
     0
  9
$CHAMFERA
 40
10.0
  9
$CHAMFERB
 40
10.0
  9
$CHAMFERC
 40
20.0
  9
$CHAMFERD
 40
0.0
  9
$SKPOLY
 70
     0
  9
$TDCREATE
 40
2456874.593217083
  9
$TDUCREATE
 40
2456874.218217083
  9
$TDUPDATE
 40
2456910.408787454
  9
$TDUUPDATE
 40
2456910.033787454
  9
$TDINDWG
 40
0.0029932176
  9
$TDUSRTIMER
 40
0.0029932060
  9
$USRTIMER
 70
     1
  9
$ANGBASE
 50
0.0
  9
$ANGDIR
 70
     0
  9
$PDMODE
 70
     0
  9
$PDSIZE
 40
0.0
  9
$PLINEWID
 40
0.0
  9
$SPLFRAME
 70
     0
  9
$SPLINETYPE
 70
     6
  9
$SPLINESEGS
 70
     8
  9
$HANDSEED
  5
3FA
  9
$SURFTAB1
 70
     6
  9
$SURFTAB2
 70
     6
  9
$SURFTYPE
 70
     6
  9
$SURFU
 70
     6
  9
$SURFV
 70
     6
  9
$UCSBASE
  2

  9
$UCSNAME
  2

  9
$UCSORG
 10
0.0
 20
0.0
 30
0.0
  9
$UCSXDIR
 10
1.0
 20
0.0
 30
0.0
  9
$UCSYDIR
 10
0.0
 20
1.0
 30
0.0
  9
$UCSORTHOREF
  2

  9
$UCSORTHOVIEW
 70
     0
  9
$UCSORGTOP
 10
0.0
 20
0.0
 30
0.0
  9
$UCSORGBOTTOM
 10
0.0
 20
0.0
 30
0.0
  9
$UCSORGLEFT
 10
0.0
 20
0.0
 30
0.0
  9
$UCSORGRIGHT
 10
0.0
 20
0.0
 30
0.0
  9
$UCSORGFRONT
 10
0.0
 20
0.0
 30
0.0
  9
$UCSORGBACK
 10
0.0
 20
0.0
 30
0.0
  9
$PUCSBASE
  2

  9
$PUCSNAME
  2

  9
$PUCSORG
 10
0.0
 20
0.0
 30
0.0
  9
$PUCSXDIR
 10
1.0
 20
0.0
 30
0.0
  9
$PUCSYDIR
 10
0.0
 20
1.0
 30
0.0
  9
$PUCSORTHOREF
  2

  9
$PUCSORTHOVIEW
 70
     0
  9
$PUCSORGTOP
 10
0.0
 20
0.0
 30
0.0
  9
$PUCSORGBOTTOM
 10
0.0
 20
0.0
 30
0.0
  9
$PUCSORGLEFT
 10
0.0
 20
0.0
 30
0.0
  9
$PUCSORGRIGHT
 10
0.0
 20
0.0
 30
0.0
  9
$PUCSORGFRONT
 10
0.0
 20
0.0
 30
0.0
  9
$PUCSORGBACK
 10
0.0
 20
0.0
 30
0.0
  9
$USERI1
 70
     0
  9
$USERI2
 70
     0
  9
$USERI3
 70
     0
  9
$USERI4
 70
     0
  9
$USERI5
 70
     0
  9
$USERR1
 40
0.0
  9
$USERR2
 40
0.0
  9
$USERR3
 40
0.0
  9
$USERR4
 40
0.0
  9
$USERR5
 40
0.0
  9
$WORLDVIEW
 70
     1
  9
$SHADEDGE
 70
     3
  9
$SHADEDIF
 70
    70
  9
$TILEMODE
 70
     1
  9
$MAXACTVP
 70
    64
  9
$PINSBASE
 10
0.0
 20
0.0
 30
0.0
  9
$PLIMCHECK
 70
     0
  9
$PEXTMIN
 10
26.66076962115563
 20
20.31135699206658
 30
-0.0015258207003583
  9
$PEXTMAX
 10
240.039213369355
 20
182.8886381005154
 30
0.0000000349246037
  9
$PLIMMIN
 10
-6.350006103515625
 20
-6.349999904632568
  9
$PLIMMAX
 10
273.0499877929688
 20
209.5499939918518
  9
$UNITMODE
 70
     0
  9
$VISRETAIN
 70
     1
  9
$PLINEGEN
 70
     0
  9
$PSLTSCALE
 70
     1
  9
$TREEDEPTH
 70
  3020
  9
$CMLSTYLE
  2
Standard
  9
$CMLJUST
 70
     0
  9
$CMLSCALE
 40
20.0
  9
$PROXYGRAPHICS
 70
     1
  9
$MEASUREMENT
 70
     1
  9
$CELWEIGHT
370
    -1
  9
$ENDCAPS
280
     0
  9
$JOINSTYLE
280
     0
  9
$LWDISPLAY
290
     0
  9
$INSUNITS
 70
     4
  9
$HYPERLINKBASE
  1

  9
$STYLESHEET
  1

  9
$XEDIT
290
     1
  9
$CEPSNTYPE
380
     0
  9
$PSTYLEMODE
290
     1
  9
$FINGERPRINTGUID
  2
{FDEAD578-A652-11D2-9A35-0060089B3A3F}
  9
$VERSIONGUID
  2
{B719D8A5-A823-4F6D-872D-9BE5B37F2005}
  9
$EXTNAMES
290
     1
  9
$PSVPSCALE
 40
0.0
  9
$OLESTARTUP
290
     0
  9
$SORTENTS
280
   127
  9
$INDEXCTL
280
     0
  9
$HIDETEXT
280
     1
  9
$XCLIPFRAME
280
     2
  9
$HALOGAP
280
     0
  9
$OBSCOLOR
 70
   257
  9
$OBSLTYPE
280
     0
  9
$INTERSECTIONDISPLAY
280
     0
  9
$INTERSECTIONCOLOR
 70
   257
  9
$DIMASSOC
280
     2
  9
$PROJECTNAME
  1

  9
$CAMERADISPLAY
290
     0
  9
$LENSLENGTH
 40
50.0
  9
$CAMERAHEIGHT
 40
0.0
  9
$STEPSPERSEC
 40
2.0
  9
$STEPSIZE
 40
6.0
  9
$3DDWFPREC
 40
2.0
  9
$PSOLWIDTH
 40
0.25
  9
$PSOLHEIGHT
 40
4.0
  9
$LOFTANG1
 40
1.570796326794896
  9
$LOFTANG2
 40
1.570796326794896
  9
$LOFTMAG1
 40
0.0
  9
$LOFTMAG2
 40
0.0
  9
$LOFTPARAM
 70
     7
  9
$LOFTNORMALS
280
     1
  9
$LATITUDE
 40
37.795
  9
$LONGITUDE
 40
-122.394
  9
$NORTHDIRECTION
 40
0.0
  9
$TIMEZONE
 70
 -8000
  9
$LIGHTGLYPHDISPLAY
280
     1
  9
$TILEMODELIGHTSYNCH
280
     1
  9
$CMATERIAL
347
3A9
  9
$SOLIDHIST
280
     1
  9
$SHOWHIST
280
     1
  9
$DWFFRAME
280
     2
  9
$DGNFRAME
280
     0
  9
$REALWORLDSCALE
290
     1
  9
$INTERFERECOLOR
 62
     1
  9
$INTERFEREOBJVS
345
3CB
  9
$INTERFEREVPVS
346
3C8
  9
$CSHADOW
280
     0
  9
$SHADOWPLANELOCATION
 40
0.0
  0
ENDSEC
  0
SECTION
  2
CLASSES
  0
CLASS
  1
ACDBDICTIONARYWDFLT
  2
AcDbDictionaryWithDefault
  3
ObjectDBX Classes
 90
        0
 91
        1
280
     0
281
     0
  0
CLASS
  1
DICTIONARYVAR
  2
AcDbDictionaryVar
  3
ObjectDBX Classes
 90
        0
 91
        9
280
     0
281
     0
  0
CLASS
  1
MATERIAL
  2
AcDbMaterial
  3
ObjectDBX Classes
 90
     1153
 91
        3
280
     0
281
     0
  0
CLASS
  1
VISUALSTYLE
  2
AcDbVisualStyle
  3
ObjectDBX Classes
 90
     4095
 91
       19
280
     0
281
     0
  0
CLASS
  1
TABLESTYLE
  2
AcDbTableStyle
  3
ObjectDBX Classes
 90
     4095
 91
        1
280
     0
281
     0
  0
CLASS
  1
SCALE
  2
AcDbScale
  3
ObjectDBX Classes
 90
     1153
 91
       17
280
     0
281
     0
  0
CLASS
  1
MLEADERSTYLE
  2
AcDbMLeaderStyle
  3
ACDB_MLEADERSTYLE_CLASS
 90
     4095
 91
        1
280
     0
281
     0
  0
CLASS
  1
CELLSTYLEMAP
  2
AcDbCellStyleMap
  3
ObjectDBX Classes
 90
     1152
 91
        1
280
     0
281
     0
  0
ENDSEC
  0
SECTION
  2
TABLES
  0
TABLE
  2
VPORT
  5
8
330
0
100
AcDbSymbolTable
 70
     1
  0
VPORT
  5
3A6
330
8
100
AcDbSymbolTableRecord
100
AcDbViewportTableRecord
  2
*Active
 70
     0
 10
0.0
 20
0.0
 11
1.0
 21
1.0
 12
99.99574546774297
 22
33.2729528046214
 13
0.0
 23
0.0
 14
10.0
 24
10.0
 15
10.0
 25
10.0
 16
0.0
 26
0.0
 36
1.0
 17
0.0
 27
0.0
 37
0.0
 40
169.7972199643321
 41
1.857142857142857
 42
50.0
 43
0.0
 44
0.0
 50
0.0
 51
0.0
 71
     0
 72
   100
 73
     1
 74
     3
 75
     0
 76
     0
 77
     0
 78
     0
281
     0
 65
     1
110
0.0
120
0.0
130
0.0
111
1.0
121
0.0
131
0.0
112
0.0
122
1.0
132
0.0
 79
     0
146
0.0
348
3C7
 60
     3
 61
     5
292
     1
282
     1
141
0.0
142
0.0
 63
   250
421
  3355443
  0
ENDTAB
  0
TABLE
  2
LTYPE
  5
5
330
0
100
AcDbSymbolTable
 70
     3
  0
LTYPE
  5
14
330
5
100
AcDbSymbolTableRecord
100
AcDbLinetypeTableRecord
  2
ByBlock
 70
     0
  3

 72
    65
 73
     0
 40
0.0
  0
LTYPE
  5
15
330
5
100
AcDbSymbolTableRecord
100
AcDbLinetypeTableRecord
  2
ByLayer
 70
     0
  3

 72
    65
 73
     0
 40
0.0
  0
LTYPE
  5
16
330
5
100
AcDbSymbolTableRecord
100
AcDbLinetypeTableRecord
  2
Continuous
 70
     0
  3
Solid line
 72
    65
 73
     0
 40
0.0
  0
LTYPE
  5
8D
330
5
100
AcDbSymbolTableRecord
100
AcDbLinetypeTableRecord
  2
CENTER
 70
     0
  3
Center ____ _ ____ _ ____ _ ____ _ ____ _ ____
 72
    65
 73
     4
 40
50.8
 49
31.75
 74
     0
 49
-6.349999999999999
 74
     0
 49
6.349999999999999
 74
     0
 49
-6.349999999999999
 74
     0
  0
LTYPE
  5
8E
330
5
100
AcDbSymbolTableRecord
100
AcDbLinetypeTableRecord
  2
PHANTOM
 70
     0
  3
Phantom ______  __  __  ______  __  __  ______
 72
    65
 73
     6
 40
63.5
 49
31.75
 74
     0
 49
-6.349999999999999
 74
     0
 49
6.349999999999999
 74
     0
 49
-6.349999999999999
 74
     0
 49
6.349999999999999
 74
     0
 49
-6.349999999999999
 74
     0
  0
ENDTAB
  0
TABLE
  2
LAYER
  5
2
102
{ACAD_XDICTIONARY
360
97
102
}
330
0
100
AcDbSymbolTable
 70
     3
  0
LAYER
  5
10
102
{ACAD_XDICTIONARY
360
3EE
102
}
330
2
100
AcDbSymbolTableRecord
100
AcDbLayerTableRecord
  2
0
 70
     0
 62
     7
  6
Continuous
370
    -3
390
F
347
3B9
  0
LAYER
  5
8F
102
{ACAD_XDICTIONARY
360
90
102
}
330
2
100
AcDbSymbolTableRecord
100
AcDbLayerTableRecord
  2
2
 70
     0
 62
     2
  6
PHANTOM
370
    -3
390
F
347
3B9
1001
AcAecLayerStandard
1000

1000

1001
ACCMTRANSPARENCY
1071
        0
  0
LAYER
  5
92
102
{ACAD_XDICTIONARY
360
93
102
}
330
2
100
AcDbSymbolTableRecord
100
AcDbLayerTableRecord
  2
1
 70
     0
 62
     5
  6
CENTER
370
    -3
390
F
347
3B9
1001
AcAecLayerStandard
1000

1000

1001
ACCMTRANSPARENCY
1071
        0
  0
ENDTAB
  0
TABLE
  2
STYLE
  5
3
330
0
100
AcDbSymbolTable
 70
     1
  0
STYLE
  5
11
330
3
100
AcDbSymbolTableRecord
100
AcDbTextStyleTableRecord
  2
Standard
 70
     0
 40
0.0
 41
1.0
 50
0.0
 71
     0
 42
2.5
  3
txt
  4

  0
ENDTAB
  0
TABLE
  2
VIEW
  5
6
330
0
100
AcDbSymbolTable
 70
     0
  0
ENDTAB
  0
TABLE
  2
UCS
  5
7
330
0
100
AcDbSymbolTable
 70
     0
  0
ENDTAB
  0
TABLE
  2
APPID
  5
9
330
0
100
AcDbSymbolTable
 70
     3
  0
APPID
  5
12
330
9
100
AcDbSymbolTableRecord
100
AcDbRegAppTableRecord
  2
ACAD
 70
     0
  0
APPID
  5
95
330
9
100
AcDbSymbolTableRecord
100
AcDbRegAppTableRecord
  2
AcAecLayerStandard
 70
     0
  0
APPID
  5
96
330
9
100
AcDbSymbolTableRecord
100
AcDbRegAppTableRecord
  2
ACCMTRANSPARENCY
 70
     0
  0
ENDTAB
  0
TABLE
  2
DIMSTYLE
  5
A
330
0
100
AcDbSymbolTable
 70
     1
100
AcDbDimStyleTable
 71
     0
  0
DIMSTYLE
105
27
330
A
100
AcDbSymbolTableRecord
100
AcDbDimStyleTableRecord
  2
ISO-25
 70
     0
 41
2.5
 42
0.625
 43
3.75
 44
1.25
 73
     0
 74
     0
 77
     1
 78
     8
140
2.5
141
2.5
143
0.03937007874016
147
0.625
171
     3
172
     1
271
     2
272
     2
274
     3
278
    44
283
     0
284
     8
340
11
  0
ENDTAB
  0
TABLE
  2
BLOCK_RECORD
  5
1
330
0
100
AcDbSymbolTable
 70
     1
  0
BLOCK_RECORD
  5
1F
330
1
100
AcDbSymbolTableRecord
100
AcDbBlockTableRecord
  2
*Model_Space
340
22
 70
     0
280
     1
281
     0
  0
BLOCK_RECORD
  5
55
330
1
100
AcDbSymbolTableRecord
100
AcDbBlockTableRecord
  2
*Paper_Space
340
56
 70
     0
280
     1
281
     0
  0
BLOCK_RECORD
  5
50
330
1
100
AcDbSymbolTableRecord
100
AcDbBlockTableRecord
  2
*Paper_Space0
340
51
 70
     0
280
     1
281
     0
  0
ENDTAB
  0
ENDSEC
  0
SECTION
  2
BLOCKS
  0
BLOCK
  5
20
330
1F
100
AcDbEntity
  8
0
100
AcDbBlockBegin
  2
*Model_Space
 70
     0
 10
0.0
 20
0.0
 30
0.0
  3
*Model_Space
  1

  0
ENDBLK
  5
21
330
1F
100
AcDbEntity
  8
0
100
AcDbBlockEnd
  0
BLOCK
  5
57
330
55
100
AcDbEntity
 67
     1
  8
0
100
AcDbBlockBegin
  2
*Paper_Space
 70
     0
 10
0.0
 20
0.0
 30
0.0
  3
*Paper_Space
  1

  0
ENDBLK
  5
58
330
55
100
AcDbEntity
 67
     1
  8
0
100
AcDbBlockEnd
  0
BLOCK
  5
52
330
50
100
AcDbEntity
 67
     1
  8
0
100
AcDbBlockBegin
  2
*Paper_Space0
 70
     0
 10
0.0
 20
0.0
 30
0.0
  3
*Paper_Space0
  1

  0
VIEWPORT
  5
6B
330
50
100
AcDbEntity
 67
     1
  8
0
100
AcDbViewport
 10
133.3499908447266
 20
101.5999970436096
 30
0.0
 40
381.3957395593835
 41
218.2856291881582
 68
     0
 69
     0
 12
133.3499908447266
 22
101.5999970436096
 13
0.0
 23
0.0
 14
10.0
 24
10.0
 15
10.0
 25
10.0
 16
0.0
 26
0.0
 36
1.0
 17
0.0
 27
0.0
 37
0.0
 42
50.0
 43
0.0
 44
0.0
 45
218.2856291881582
 50
0.0
 51
0.0
 72
   100
 90
    32800
  1

281
     0
 71
     1
 74
     0
110
0.0
120
0.0
130
0.0
111
1.0
121
0.0
131
0.0
112
0.0
122
1.0
132
0.0
 79
     0
146
0.0
170
     0
 61
     5
348
3C7
292
     1
282
     1
141
0.0
142
0.0
 63
   250
421
  3355443
  0
VIEWPORT
  5
6D
330
50
100
AcDbEntity
 67
     1
  8
0
100
AcDbViewport
 10
133.3499939441681
 20
101.5999939441681
 30
0.0
 40
213.3599903106689
 41
162.5599903106689
 68
     0
 69
     0
 12
210.0
 22
148.5
 13
0.0
 23
0.0
 14
10.0
 24
10.0
 15
10.0
 25
10.0
 16
0.0
 26
0.0
 36
1.0
 17
0.0
 27
0.0
 37
0.0
 42
50.0
 43
0.0
 44
0.0
 45
324.0677920111345
 50
0.0
 51
0.0
 72
   100
 90
    32864
  1

281
     0
 71
     1
 74
     0
110
0.0
120
0.0
130
0.0
111
1.0
121
0.0
131
0.0
112
0.0
122
1.0
132
0.0
 79
     0
146
0.0
170
     0
 61
     5
348
3C7
292
     1
282
     1
141
0.0
142
0.0
 63
   250
421
  3355443
  0
ENDBLK
  5
53
330
50
100
AcDbEntity
 67
     1
  8
0
100
AcDbBlockEnd
  0
ENDSEC
  0
SECTION
  2
ENTITIES
  0
LINE
  5
21E
330
1F
100
AcDbEntity
  8
0
100
AcDbLine
 10
152.0
 20
18.75
 30
0.0
 11
152.0
 21
3.250000000000028
 31
0.0
  0
LINE
  5
21F
330
1F
100
AcDbEntity
  8
0
100
AcDbLine
 10
151.5
 20
3.75
 30
0.0
 11
151.5
 21
18.25000000000003
 31
0.0
  0
LINE
  5
220
330
1F
100
AcDbEntity
  8
0
100
AcDbLine
 10
151.5
 20
18.25000000000003
 30
0.0
 11
152.0
 21
18.75000000000003
 31
0.0
  0
LINE
  5
221
330
1F
100
AcDbEntity
  8
0
100
AcDbLine
 10
151.5
 20
3.75
 30
0.0
 11
152.0
 21
3.250000000000028
 31
0.0
  0
ELLIPSE
  5
222
330
1F
100
AcDbEntity
  8
0
100
AcDbEllipse
 10
200.0
 20
4.979482671904406
 30
0.0
 11
41.61725312650747
 21
-0.0000000000000034
 31
0.0
210
0.0
220
0.0
230
1.0
 40
0.707106781186548
 41
2.64499474147157
 42
2.664220784788852
  0
LINE
  5
223
330
1F
100
AcDbEntity
  8
0
100
AcDbLine
 10
237.4499999999998
 20
18.50000000000003
 30
0.0
 11
163.0353279446831
 21
18.50000000000003
 31
0.0
  0
LINE
  5
224
330
1F
100
AcDbEntity
  8
0
100
AcDbLine
 10
236.9499999999998
 20
19.00000000000003
 30
0.0
 11
237.4499999999998
 21
18.50000000000003
 31
0.0
  0
LINE
  5
225
330
1F
100
AcDbEntity
  8
0
100
AcDbLine
 10
236.9499999833042
 20
19.00000000000003
 30
0.0
 11
162.5500000000002
 21
19.00000000000003
 31
0.0
  0
LINE
  5
226
330
1F
100
AcDbEntity
  8
0
100
AcDbLine
 10
227.0
 20
0.4000000000000341
 30
0.0
 11
162.5500000000002
 21
0.4000000000000341
 31
0.0
  0
SPLINE
  5
227
330
1F
100
AcDbEntity
  8
0
100
AcDbSpline
210
0.0
220
0.0
230
1.0
 70
    12
 71
     2
 72
     6
 73
     3
 74
     0
 42
0.0000000001
 43
0.0000000001
 40
0.1054752458882525
 40
0.1054752458882525
 40
0.1054752458882525
 40
0.873501767693099
 40
0.873501767693099
 40
0.873501767693099
 10
164.8097669800268
 20
15.42264973081038
 30
0.0
 41
1.001674137162284
 10
168.5036557658991
 20
13.36369025796841
 30
0.0
 41
1.007057305187695
 10
171.5438934497356
 20
11.69874049453727
 30
0.0
 41
1.002071291686724
  0
LINE
  5
228
330
1F
100
AcDbEntity
  8
0
100
AcDbLine
 10
163.8944117564179
 20
16.4848275613185
 30
0.0
 11
162.5500000000002
 21
16.48482755730146
 31
0.0
  0
LINE
  5
229
330
1F
100
AcDbEntity
  8
0
100
AcDbLine
 10
172.6001824823593
 20
5.51517244269857
 30
0.0
 11
162.5500000000002
 21
5.51517244269857
 31
0.0
  0
LINE
  5
22A
330
1F
100
AcDbEntity
  8
0
100
AcDbLine
 10
172.6001824823593
 20
9.966689686968408
 30
0.0
 11
172.6001824823593
 21
5.51517244269857
 31
0.0
  0
ELLIPSE
  5
22B
330
1F
100
AcDbEntity
  8
0
100
AcDbEllipse
 10
200.0
 20
0.0303448853971133
 30
0.0
 11
-29.0
 21
0.0
 31
0.0
210
0.0
220
0.0
230
1.0
 40
0.5773502691896255
 41
5.949437628833165
 42
6.141178746862669
  0
LINE
  5
22C
330
1F
100
AcDbEntity
  8
0
100
AcDbLine
 10
162.5500000000002
 20
19.00000000000003
 30
0.0
 11
162.5500000000002
 21
0.4000000000000341
 31
0.0
  0
ELLIPSE
  5
22D
330
1F
100
AcDbEntity
  8
0
100
AcDbEllipse
 10
200.0
 20
21.96965511460291
 30
0.0
 11
37.45
 21
0.0
 31
0.0
210
0.0
220
0.0
230
1.0
 40
0.5773502691896266
 41
3.302759930851243
 42
3.366165695779872
  0
SPLINE
  5
22E
330
1F
100
AcDbEntity
  8
0
100
AcDbSpline
210
0.0
220
0.0
230
1.0
 70
     8
 71
     3
 72
     8
 73
     4
 74
     0
 42
0.0000000001
 43
0.0000000001
 40
1.737805135501306
 40
1.737805135501306
 40
1.737805135501306
 40
1.737805135501306
 40
1.868563051604685
 40
1.868563051604685
 40
1.868563051604685
 40
1.868563051604685
 10
163.8944117573087
 20
16.48482755908893
 30
0.0
 10
163.716122734816
 20
16.70138193034958
 30
0.0
 10
163.5749804691186
 20
16.94091368648284
 30
0.0
 10
163.4903966429829
 20
17.15470053837927
 30
0.0
  0
SPLINE
  5
22F
330
1F
100
AcDbEntity
  8
0
100
AcDbSpline
210
0.0
220
0.0
230
1.0
 70
     8
 71
     3
 72
    12
 73
     8
 74
     0
 42
0.0000000001
 43
0.0000000001
 40
1.008243053756292
 40
1.008243053756292
 40
1.008243053756292
 40
1.008243053756292
 40
1.059695397765773
 40
1.059695397765773
 40
1.134191607805929
 40
1.134191607805929
 40
1.14327182746678
 40
1.14327182746678
 40
1.14327182746678
 40
1.14327182746678
 10
164.8097669800263
 20
15.42264973081074
 30
0.0
 10
164.6480835541606
 20
15.51277145363048
 30
0.0
 10
164.4933320663704
 20
15.63027071469633
 30
0.0
 10
164.1934389084622
 20
15.92407349648434
 30
0.0
 10
164.0250136580712
 20
16.16989436621722
 30
0.0
 10
163.916646091372
 20
16.42654159373791
 30
0.0
 10
163.9052581254273
 20
16.45531899960721
 30
0.0
 10
163.8944117572005
 20
16.48482756159913
 30
0.0
  0
SPLINE
  5
230
330
1F
100
AcDbEntity
  8
0
100
AcDbSpline
210
0.0
220
0.0
230
1.0
 70
     8
 71
     3
 72
    12
 73
     8
 74
     0
 42
0.0000000001
 43
0.0000000001
 40
0.6075048664290732
 40
0.6075048664290732
 40
0.6075048664290732
 40
0.6075048664290732
 40
0.6802691005280912
 40
0.6802691005280912
 40
0.7551843261637754
 40
0.7551843261637754
 40
0.8079257794219568
 40
0.8079257794219568
 40
0.8079257794219568
 40
0.8079257794219568
 10
172.6001824823597
 20
9.966689686968408
 30
0.0
 10
172.6001824823597
 20
10.20923713396513
 30
0.0
 10
172.541020670083
 20
10.49421787049385
 30
0.0
 10
172.3472444353001
 20
10.94673910636803
 30
0.0
 10
172.1758750764261
 20
11.1925626189778
 30
0.0
 10
171.8699602788947
 20
11.48834181524194
 30
0.0
 10
171.7102208603273
 20
11.60765327974826
 30
0.0
 10
171.5438934497356
 20
11.69874049453727
 30
0.0
  0
SPLINE
  5
231
330
1F
100
AcDbEntity
  8
0
100
AcDbSpline
210
0.0
220
0.0
230
1.0
 70
     8
 71
     3
 72
    16
 73
    12
 74
     0
 42
0.0000000001
 43
0.0000000001
 40
1.395777172106388
 40
1.395777172106388
 40
1.395777172106388
 40
1.395777172106388
 40
1.424026555352483
 40
1.424026555352483
 40
1.455561775030465
 40
1.455561775030465
 40
1.54331947667599
 40
1.54331947667599
 40
1.672261000487118
 40
1.672261000487118
 40
1.846967490207732
 40
1.846967490207732
 40
1.846967490207732
 40
1.846967490207732
 10
173.0075924510474
 20
0.4000000000000341
 30
0.0
 10
172.9134278402271
 20
0.4000000000000341
 30
0.0
 10
172.8017285308288
 20
0.4085397122386781
 30
0.0
 10
172.6109581841019
 20
0.4373494077358942
 30
0.0
 10
172.4972210176479
 20
0.4646229216695872
 30
0.0
 10
172.1626343964526
 20
0.5720610490892853
 30
0.0
 10
171.9391462947896
 20
0.7074084683339095
 30
0.0
 10
171.5730249038652
 20
1.018743031827142
 30
0.0
 10
171.414247628546
 20
1.264102177696003
 30
0.0
 10
171.2291026354914
 20
1.761643454490098
 30
0.0
 10
171.2203562716977
 20
2.111029065931234
 30
0.0
 10
171.2919139629002
 20
2.400000000000005
 30
0.0
  0
ARC
  5
232
330
1F
100
AcDbEntity
  8
0
100
AcDbCircle
 10
235.4499999999998
 20
17.15470053837927
 30
0.0
 40
2.0
100
AcDbArc
 50
299.9999999999997
 51
0.0
  0
ARC
  5
233
330
1F
100
AcDbEntity
  8
0
100
AcDbCircle
 10
231.0
 20
9.966689686968408
 30
0.0
 40
2.0
100
AcDbArc
 50
119.9999999999997
 51
180.0
  0
ARC
  5
234
330
1F
100
AcDbEntity
  8
0
100
AcDbCircle
 10
227.0
 20
2.400000000000005
 30
0.0
 40
2.0
100
AcDbArc
 50
270.0
 51
0.0
  0
LINE
  5
235
330
1F
100
AcDbEntity
  8
0
100
AcDbLine
 10
162.5500000000002
 20
3.250000000000028
 30
0.0
 11
152.0
 21
3.250000000000028
 31
0.0
  0
LINE
  5
236
330
1F
100
AcDbEntity
  8
0
100
AcDbLine
 10
162.5500000000002
 20
18.75000000000003
 30
0.0
 11
152.0
 21
18.75000000000003
 31
0.0
  0
LINE
  5
237
330
1F
100
AcDbEntity
  8
0
100
AcDbLine
 10
230.0
 20
11.69874049453727
 30
0.0
 11
236.4499999999998
 21
15.42264973081038
 31
0.0
  0
LINE
  5
238
330
1F
100
AcDbEntity
  8
0
100
AcDbLine
 10
229.0
 20
9.966689686968408
 30
0.0
 11
229.0
 21
2.400000000000005
 31
0.0
  0
LINE
  5
239
330
1F
100
AcDbEntity
  8
0
100
AcDbLine
 10
237.4499999999998
 20
17.15470053837927
 30
0.0
 11
237.4499999999998
 21
18.50000000000003
 31
0.0
  0
LINE
  5
23A
330
1F
100
AcDbEntity
  8
0
100
AcDbLine
 10
163.6551394382763
 20
34.51085149098626
 30
0.0
 11
163.3794810098748
 21
34.51085149098626
 31
0.0
  0
LINE
  5
23B
330
1F
100
AcDbEntity
  8
0
100
AcDbLine
 10
236.6205189901252
 20
34.51085149098626
 30
0.0
 11
236.3448605617236
 21
34.51085149098626
 31
0.0
  0
LINE
  5
23C
330
1F
100
AcDbEntity
  8
0
100
AcDbLine
 10
170.7668325189152
 20
34.51085149098626
 30
0.0
 11
166.282022394173
 21
34.51085149098626
 31
0.0
  0
LINE
  5
23D
330
1F
100
AcDbEntity
  8
0
100
AcDbLine
 10
233.7179776058265
 20
34.51085149098626
 30
0.0
 11
229.2331674810848
 21
34.51085149098626
 31
0.0
  0
LINE
  5
23E
330
1F
100
AcDbEntity
  8
0
100
AcDbLine
 10
185.7115292183139
 20
34.51085149098626
 30
0.0
 11
177.9436102199625
 21
34.51085149098626
 31
0.0
  0
LINE
  5
23F
330
1F
100
AcDbEntity
  8
0
100
AcDbLine
 10
222.0563897800375
 20
34.51085149098626
 30
0.0
 11
214.2884707816857
 21
34.51085149098626
 31
0.0
  0
LINE
  5
240
330
1F
100
AcDbEntity
  8
0
100
AcDbLine
 10
204.4848101247417
 20
34.51085149098626
 30
0.0
 11
195.5151898752583
 21
34.51085149098626
 31
0.0
  0
LINE
  5
241
330
1F
100
AcDbEntity
  8
0
100
AcDbLine
 10
163.3794810098748
 20
34.51085149098626
 30
0.0
 11
163.3749043295129
 21
34.50627481062466
 31
0.0
  0
LINE
  5
242
330
1F
100
AcDbEntity
  8
0
100
AcDbLine
 10
236.6205189901252
 20
34.51085149098626
 30
0.0
 11
236.6250956704866
 21
34.50627481062466
 31
0.0
  0
LINE
  5
243
330
1F
100
AcDbEntity
  8
0
100
AcDbLine
 10
235.725877465477
 20
76.62754838882216
 30
0.0
 11
236.6205189901252
 21
34.51085149098626
 31
0.0
  0
LINE
  5
244
330
1F
100
AcDbEntity
  8
0
100
AcDbLine
 10
164.274122534523
 20
76.62754838882216
 30
0.0
 11
163.3794810098748
 21
34.51085149098626
 31
0.0
  0
ARC
  5
245
330
1F
100
AcDbEntity
  8
0
100
AcDbCircle
 10
226.128042594557
 20
76.42367148833608
 30
0.0
 40
9.599999999999978
100
AcDbArc
 50
1.216892103551548
 51
65.9050083776184
  0
ARC
  5
246
330
1F
100
AcDbEntity
  8
0
100
AcDbCircle
 10
173.871957405443
 20
76.42367148833608
 30
0.0
 40
9.59999999999998
100
AcDbArc
 50
114.0949916223816
 51
178.7831078964484
  0
ARC
  5
247
330
1F
100
AcDbEntity
  8
0
100
AcDbCircle
 10
200.0
 20
18.0
 30
0.0
 40
73.59999999999998
100
AcDbArc
 50
65.9050083776184
 51
114.0949916223816
  0
SPLINE
  5
248
330
1F
100
AcDbEntity
  8
0
100
AcDbSpline
210
0.0
220
0.0
230
1.0
 70
    12
 71
     2
 72
     6
 73
     3
 74
     0
 42
0.0000000001
 43
0.0000000001
 40
0.0
 40
0.0
 40
0.0
 40
0.2128103359009415
 40
0.2128103359009415
 40
0.2128103359009415
 10
163.6551394382763
 20
34.51085149098626
 30
0.0
 41
1.0
 10
163.3245255008378
 20
34.30208283403298
 30
0.0
 41
1.000437150519239
 10
162.9884167264254
 20
34.03389122389584
 30
0.0
 41
1.000051599651662
  0
SPLINE
  5
249
330
1F
100
AcDbEntity
  8
0
100
AcDbSpline
210
0.0
220
0.0
230
1.0
 70
    12
 71
     2
 72
     6
 73
     3
 74
     0
 42
0.0000000001
 43
0.0000000001
 40
0.0133474178829831
 40
0.0133474178829831
 40
0.0133474178829831
 40
0.2238297226898242
 40
0.2238297226898242
 40
0.2238297226898242
 10
162.956815677011
 20
34.03389122389581
 30
0.0
 41
1.000051599651694
 10
163.1677795986479
 20
34.29915007975939
 30
0.0
 41
1.000432932799512
 10
163.3749043295129
 20
34.50627481062466
 30
0.0
 41
1.000009465930869
  0
SPLINE
  5
24A
330
1F
100
AcDbEntity
  8
0
100
AcDbSpline
210
0.0
220
0.0
230
1.0
 70
     8
 71
     3
 72
    10
 73
     6
 74
     0
 42
0.0000000001
 43
0.0000000001
 40
0.528127761265401
 40
0.528127761265401
 40
0.528127761265401
 40
0.528127761265401
 40
0.5331245581478905
 40
0.5331245581478905
 40
0.5543391985750573
 40
0.5543391985750573
 40
0.5543391985750573
 40
0.5543391985750573
 10
162.956815677011
 20
34.03389122389581
 30
0.0
 10
162.9534394709335
 20
34.02964609726794
 30
0.0
 10
162.9504593752976
 20
34.02577908599611
 30
0.0
 10
162.9369885931414
 20
34.00756667106151
 30
0.0
 10
162.9335699336584
 20
33.99999999999986
 30
0.0
 10
162.937887009708
 20
33.99999999999986
 30
0.0
  0
SPLINE
  5
24B
330
1F
100
AcDbEntity
  8
0
100
AcDbSpline
210
0.0
220
0.0
230
1.0
 70
     8
 71
     3
 72
    10
 73
     6
 74
     0
 42
0.0000000001
 43
0.0000000001
 40
0.5543391985750573
 40
0.5543391985750573
 40
0.5543391985750573
 40
0.5543391985750573
 40
0.575553839002224
 40
0.575553839002224
 40
0.5805506358847165
 40
0.5805506358847165
 40
0.5805506358847165
 40
0.5805506358847165
 10
162.937887009708
 20
33.99999999999986
 30
0.0
 10
162.9422040857571
 20
33.99999999999986
 30
0.0
 10
162.9543041793404
 20
34.00756667106151
 30
0.0
 10
162.9781533960304
 20
34.02577908599611
 30
0.0
 10
162.9830965588507
 20
34.02964609726797
 30
0.0
 10
162.9884167264254
 20
34.03389122389584
 30
0.0
  0
SPLINE
  5
24C
330
1F
100
AcDbEntity
  8
0
100
AcDbSpline
210
0.0
220
0.0
230
1.0
 70
    12
 71
     2
 72
     6
 73
     3
 74
     0
 42
0.0000000001
 43
0.0000000001
 40
0.0
 40
0.0
 40
0.0
 40
0.2128103359009462
 40
0.2128103359009462
 40
0.2128103359009462
 10
170.7668325189152
 20
34.51085149098626
 30
0.0
 41
1.0
 10
169.9932118992892
 20
34.30208283403294
 30
0.0
 41
1.00043715051984
 10
169.2085427037173
 20
34.03389122389584
 30
0.0
 41
1.000051599651732
  0
SPLINE
  5
24D
330
1F
100
AcDbEntity
  8
0
100
AcDbSpline
210
0.0
220
0.0
230
1.0
 70
    12
 71
     2
 72
     6
 73
     3
 74
     0
 42
0.0000000001
 43
0.0000000001
 40
0.0133474178829778
 40
0.0133474178829778
 40
0.0133474178829778
 40
0.2238297226898233
 40
0.2238297226898233
 40
0.2238297226898233
 10
168.9228390967264
 20
34.03389122389581
 30
0.0
 41
1.00005159965171
 10
168.6007285110167
 20
34.29915007975933
 30
0.0
 41
1.000432932799652
 10
168.2817367333227
 20
34.50627481062466
 30
0.0
 41
1.000009465930872
  0
SPLINE
  5
24E
330
1F
100
AcDbEntity
  8
0
100
AcDbSpline
210
0.0
220
0.0
230
1.0
 70
     8
 71
     3
 72
    10
 73
     6
 74
     0
 42
0.0000000001
 43
0.0000000001
 40
0.5281277612654011
 40
0.5281277612654011
 40
0.5281277612654011
 40
0.5281277612654011
 40
0.533124558147891
 40
0.533124558147891
 40
0.5543391985750576
 40
0.5543391985750576
 40
0.5543391985750576
 40
0.5543391985750576
 10
168.9228390967264
 20
34.03389122389581
 30
0.0
 10
168.9279940621281
 20
34.02964609726794
 30
0.0
 10
168.9335583416014
 20
34.02577908599611
 30
0.0
 10
168.9648844254489
 20
34.00756667106151
 30
0.0
 10
168.9976461196047
 20
33.99999999999986
 30
0.0
 10
169.0366766018778
 20
33.99999999999986
 30
0.0
  0
SPLINE
  5
24F
330
1F
100
AcDbEntity
  8
0
100
AcDbSpline
210
0.0
220
0.0
230
1.0
 70
     8
 71
     3
 72
    10
 73
     6
 74
     0
 42
0.0000000001
 43
0.0000000001
 40
0.5543391985750576
 40
0.5543391985750576
 40
0.5543391985750576
 40
0.5543391985750576
 40
0.5755538390022242
 40
0.5755538390022242
 40
0.5805506358847169
 40
0.5805506358847169
 40
0.5805506358847169
 40
0.5805506358847169
 10
169.0366766018778
 20
33.99999999999986
 30
0.0
 10
169.0757070841505
 20
33.99999999999986
 30
0.0
 10
169.1214338288969
 20
34.00756667106151
 30
0.0
 10
169.183938685358
 20
34.02577908599611
 30
0.0
 10
169.1961224043107
 20
34.02964609726797
 30
0.0
 10
169.2085427037173
 20
34.03389122389584
 30
0.0
  0
SPLINE
  5
250
330
1F
100
AcDbEntity
  8
0
100
AcDbSpline
210
0.0
220
0.0
230
1.0
 70
    12
 71
     2
 72
     6
 73
     3
 74
     0
 42
0.0000000001
 43
0.0000000001
 40
0.0133474178829746
 40
0.0133474178829746
 40
0.0133474178829746
 40
0.2238297226898233
 40
0.2238297226898233
 40
0.2238297226898233
 10
233.0835164182827
 20
34.03389122389581
 30
0.0
 41
1.000051599651719
 10
232.3960056017331
 20
34.29915007975939
 30
0.0
 41
1.000432932799725
 10
231.7182632666768
 20
34.50627481062466
 30
0.0
 41
1.000009465930874
  0
SPLINE
  5
251
330
1F
100
AcDbEntity
  8
0
100
AcDbSpline
210
0.0
220
0.0
230
1.0
 70
     8
 71
     3
 72
    10
 73
     6
 74
     0
 42
0.0000000001
 43
0.0000000001
 40
0.5281277612654016
 40
0.5281277612654016
 40
0.5281277612654016
 40
0.5281277612654016
 40
0.5331245581478913
 40
0.5331245581478913
 40
0.5543391985750582
 40
0.5543391985750582
 40
0.5543391985750582
 40
0.5543391985750582
 10
233.0835164182827
 20
34.03389122389581
 30
0.0
 10
233.0945191441474
 20
34.02964609726794
 30
0.0
 10
233.1052451006731
 20
34.02577908599611
 30
0.0
 10
233.1599032636327
 20
34.00756667106151
 30
0.0
 10
233.1985862497067
 20
33.99999999999986
 30
0.0
 10
233.2301393369216
 20
33.99999999999986
 30
0.0
  0
SPLINE
  5
252
330
1F
100
AcDbEntity
  8
0
100
AcDbSpline
210
0.0
220
0.0
230
1.0
 70
     8
 71
     3
 72
    10
 73
     6
 74
     0
 42
0.0000000001
 43
0.0000000001
 40
0.5543391985750582
 40
0.5543391985750582
 40
0.5543391985750582
 40
0.5543391985750582
 40
0.5755538390022248
 40
0.5755538390022248
 40
0.5805506358847171
 40
0.5805506358847171
 40
0.5805506358847171
 40
0.5805506358847171
 10
233.2301393369216
 20
33.99999999999986
 30
0.0
 10
233.261692424137
 20
33.99999999999986
 30
0.0
 10
233.2864611920213
 20
34.00756667106151
 30
0.0
 10
233.3076579934541
 20
34.02577908599611
 30
0.0
 10
233.3112799032524
 20
34.02964609726797
 30
0.0
 10
233.3144854021143
 20
34.03389122389584
 30
0.0
  0
SPLINE
  5
253
330
1F
100
AcDbEntity
  8
0
100
AcDbSpline
210
0.0
220
0.0
230
1.0
 70
    12
 71
     2
 72
     6
 73
     3
 74
     0
 42
0.0000000001
 43
0.0000000001
 40
0.0
 40
0.0
 40
0.0
 40
0.2128103359009515
 40
0.2128103359009515
 40
0.2128103359009515
 10
233.7179776058265
 20
34.51085149098626
 30
0.0
 41
1.0
 10
233.516997123535
 20
34.30208283403294
 30
0.0
 41
1.000437150519928
 10
233.3144854021143
 20
34.03389122389584
 30
0.0
 41
1.000051599651743
  0
SPLINE
  5
254
330
1F
100
AcDbEntity
  8
0
100
AcDbSpline
210
0.0
220
0.0
230
1.0
 70
    12
 71
     2
 72
     6
 73
     3
 74
     0
 42
0.0000000001
 43
0.0000000001
 40
0.0
 40
0.0
 40
0.0
 40
0.2128103359009507
 40
0.2128103359009507
 40
0.2128103359009507
 10
185.7115292183143
 20
34.51085149098626
 30
0.0
 41
1.0
 10
184.7021929367784
 20
34.302082834033
 30
0.0
 41
1.00043715051978
 10
183.6792147973251
 20
34.03389122389584
 30
0.0
 41
1.000051599651725
  0
SPLINE
  5
255
330
1F
100
AcDbEntity
  8
0
100
AcDbSpline
210
0.0
220
0.0
230
1.0
 70
    12
 71
     2
 72
     6
 73
     3
 74
     0
 42
0.0000000001
 43
0.0000000001
 40
0.0133474178829656
 40
0.0133474178829656
 40
0.0133474178829656
 40
0.2238297226898245
 40
0.2238297226898245
 40
0.2238297226898245
 10
183.2159626835264
 20
34.03389122389581
 30
0.0
 41
1.000051599651808
 10
182.4470868617841
 20
34.29915007975933
 30
0.0
 41
1.000432932800467
 10
181.6874521647564
 20
34.50627481062466
 30
0.0
 41
1.00000946593089
  0
SPLINE
  5
256
330
1F
100
AcDbEntity
  8
0
100
AcDbSpline
210
0.0
220
0.0
230
1.0
 70
     8
 71
     3
 72
    10
 73
     6
 74
     0
 42
0.0000000001
 43
0.0000000001
 40
0.5281277612654005
 40
0.5281277612654005
 40
0.5281277612654005
 40
0.5281277612654005
 40
0.5331245581478905
 40
0.5331245581478905
 40
0.5543391985750573
 40
0.5543391985750573
 40
0.5543391985750573
 40
0.5543391985750573
 10
183.2159626835264
 20
34.03389122389581
 30
0.0
 10
183.2282675515912
 20
34.02964609726794
 30
0.0
 10
183.2408852619819
 20
34.02577908599611
 30
0.0
 10
183.3086144129643
 20
34.00756667106151
 30
0.0
 10
183.368777991267
 20
33.99999999999986
 30
0.0
 10
183.4320636935576
 20
33.99999999999986
 30
0.0
  0
SPLINE
  5
257
330
1F
100
AcDbEntity
  8
0
100
AcDbSpline
210
0.0
220
0.0
230
1.0
 70
     8
 71
     3
 72
    10
 73
     6
 74
     0
 42
0.0000000001
 43
0.0000000001
 40
0.5543391985750573
 40
0.5543391985750573
 40
0.5543391985750573
 40
0.5543391985750573
 40
0.5755538390022239
 40
0.5755538390022239
 40
0.5805506358847161
 40
0.5805506358847161
 40
0.5805506358847161
 40
0.5805506358847161
 10
183.4320636935576
 20
33.99999999999986
 30
0.0
 10
183.4953493958487
 20
33.99999999999986
 30
0.0
 10
183.5624503474314
 20
34.00756667106151
 30
0.0
 10
183.646862717851
 20
34.02577908599611
 30
0.0
 10
183.6630223752827
 20
34.02964609726797
 30
0.0
 10
183.6792147973251
 20
34.03389122389584
 30
0.0
  0
SPLINE
  5
258
330
1F
100
AcDbEntity
  8
0
100
AcDbSpline
210
0.0
220
0.0
230
1.0
 70
    12
 71
     2
 72
     6
 73
     3
 74
     0
 42
0.0000000001
 43
0.0000000001
 40
0.0133474178829778
 40
0.0133474178829778
 40
0.0133474178829778
 40
0.2238297226898235
 40
0.2238297226898235
 40
0.2238297226898235
 10
220.2591470065154
 20
34.03389122389581
 30
0.0
 41
1.00005159965171
 10
219.2793072631362
 20
34.29915007975933
 30
0.0
 41
1.000432932799652
 10
218.3125478352431
 20
34.50627481062466
 30
0.0
 41
1.000009465930872
  0
SPLINE
  5
259
330
1F
100
AcDbEntity
  8
0
100
AcDbSpline
210
0.0
220
0.0
230
1.0
 70
     8
 71
     3
 72
    10
 73
     6
 74
     0
 42
0.0000000001
 43
0.0000000001
 40
0.5281277612654005
 40
0.5281277612654005
 40
0.5281277612654005
 40
0.5281277612654005
 40
0.533124558147891
 40
0.533124558147891
 40
0.5543391985750576
 40
0.5543391985750576
 40
0.5543391985750576
 40
0.5543391985750576
 10
220.2591470065154
 20
34.03389122389581
 30
0.0
 10
220.2748280806577
 20
34.02964609726794
 30
0.0
 10
220.2904258866843
 20
34.02577908599611
 30
0.0
 10
220.3716258198229
 20
34.00756667106151
 30
0.0
 10
220.4352080576082
 20
33.99999999999989
 30
0.0
 10
220.4941766838501
 20
33.99999999999989
 30
0.0
  0
SPLINE
  5
25A
330
1F
100
AcDbEntity
  8
0
100
AcDbSpline
210
0.0
220
0.0
230
1.0
 70
     8
 71
     3
 72
    10
 73
     6
 74
     0
 42
0.0000000001
 43
0.0000000001
 40
0.5543391985750576
 40
0.5543391985750576
 40
0.5543391985750576
 40
0.5543391985750576
 40
0.5755538390022242
 40
0.5755538390022242
 40
0.5805506358847166
 40
0.5805506358847166
 40
0.5805506358847166
 40
0.5805506358847166
 10
220.4941766838501
 20
33.99999999999989
 30
0.0
 10
220.5531453100912
 20
33.99999999999989
 30
0.0
 10
220.6081461680906
 20
34.00756667106151
 30
0.0
 10
220.6687093218206
 20
34.02577908599611
 30
0.0
 10
220.6799258164324
 20
34.02964609726797
 30
0.0
 10
220.6907980708993
 20
34.03389122389584
 30
0.0
  0
SPLINE
  5
25B
330
1F
100
AcDbEntity
  8
0
100
AcDbSpline
210
0.0
220
0.0
230
1.0
 70
    12
 71
     2
 72
     6
 73
     3
 74
     0
 42
0.0000000001
 43
0.0000000001
 40
0.0
 40
0.0
 40
0.0
 40
0.2128103359009462
 40
0.2128103359009462
 40
0.2128103359009462
 10
222.0563897800375
 20
34.51085149098626
 30
0.0
 41
1.0
 10
221.3776674359406
 20
34.30208283403294
 30
0.0
 41
1.00043715051984
 10
220.6907980708993
 20
34.03389122389584
 30
0.0
 41
1.000051599651732
  0
SPLINE
  5
25C
330
1F
100
AcDbEntity
  8
0
100
AcDbSpline
210
0.0
220
0.0
230
1.0
 70
    12
 71
     2
 72
     6
 73
     3
 74
     0
 42
0.0000000001
 43
0.0000000001
 40
0.0
 40
0.0
 40
0.0
 40
0.2128103359009484
 40
0.2128103359009484
 40
0.2128103359009484
 10
204.4848101247417
 20
34.51085149098626
 30
0.0
 41
1.0
 10
203.5102090228247
 20
34.302082834033
 30
0.0
 41
1.00043715051981
 10
202.5230281058316
 20
34.03389122389584
 30
0.0
 41
1.000051599651729
  0
SPLINE
  5
25D
330
1F
100
AcDbEntity
  8
0
100
AcDbSpline
210
0.0
220
0.0
230
1.0
 70
    12
 71
     2
 72
     6
 73
     3
 74
     0
 42
0.0000000001
 43
0.0000000001
 40
0.0133474178829851
 40
0.0133474178829851
 40
0.0133474178829851
 40
0.2238297226898256
 40
0.2238297226898256
 40
0.2238297226898256
 10
202.0063555150091
 20
34.03389122389581
 30
0.0
 41
1.000051599651663
 10
200.9967341127504
 20
34.29915007975936
 30
0.0
 41
1.000432932799256
 10
200.0
 20
34.50627481062466
 30
0.0
 41
1.000009465930863
  0
SPLINE
  5
25E
330
1F
100
AcDbEntity
  8
0
100
AcDbSpline
210
0.0
220
0.0
230
1.0
 70
     8
 71
     3
 72
    10
 73
     6
 74
     0
 42
0.0000000001
 43
0.0000000001
 40
0.5281277612654004
 40
0.5281277612654004
 40
0.5281277612654004
 40
0.5281277612654004
 40
0.5331245581478901
 40
0.5331245581478901
 40
0.5543391985750568
 40
0.5543391985750568
 40
0.5543391985750568
 40
0.5543391985750568
 10
202.0063555150091
 20
34.03389122389581
 30
0.0
 10
202.022513206276
 20
34.02964609726794
 30
0.0
 10
202.0388034422749
 20
34.02577908599611
 30
0.0
 10
202.1247876890821
 20
34.00756667106151
 30
0.0
 10
202.1962323693115
 20
33.99999999999986
 30
0.0
 10
202.2668159387995
 20
33.99999999999986
 30
0.0
  0
SPLINE
  5
25F
330
1F
100
AcDbEntity
  8
0
100
AcDbSpline
210
0.0
220
0.0
230
1.0
 70
     8
 71
     3
 72
    10
 73
     6
 74
     0
 42
0.0000000001
 43
0.0000000001
 40
0.5543391985750568
 40
0.5543391985750568
 40
0.5543391985750568
 40
0.5543391985750568
 40
0.5755538390022235
 40
0.5755538390022235
 40
0.5805506358847153
 40
0.5805506358847153
 40
0.5805506358847153
 40
0.5805506358847153
 10
202.2668159387995
 20
33.99999999999986
 30
0.0
 10
202.3373995082875
 20
33.99999999999986
 30
0.0
 10
202.4078950209182
 20
34.00756667106151
 30
0.0
 10
202.4915966788117
 20
34.02577908599611
 30
0.0
 10
202.5074023075631
 20
34.02964609726797
 30
0.0
 10
202.5230281058316
 20
34.03389122389584
 30
0.0
  0
SPLINE
  5
260
330
1F
100
AcDbEntity
  8
0
100
AcDbSpline
210
0.0
220
0.0
230
1.0
 70
    12
 71
     2
 72
     6
 73
     3
 74
     0
 42
0.0000000001
 43
0.0000000001
 40
0.0
 40
0.0
 40
0.0
 40
0.2116020978239972
 40
0.2116020978239972
 40
0.2116020978239972
 10
232.0001940384254
 20
19.00000000000003
 30
0.0
 41
1.0
 10
232.676721055011
 20
19.20047854618602
 30
0.0
 41
1.000400910301095
 10
233.3606234394897
 20
19.45711127581128
 30
0.0
 41
1.00006129682892
  0
SPLINE
  5
261
330
1F
100
AcDbEntity
  8
0
100
AcDbSpline
210
0.0
220
0.0
230
1.0
 70
    12
 71
     2
 72
     6
 73
     3
 74
     0
 42
0.0000000001
 43
0.0000000001
 40
0.0175153561006373
 40
0.0175153561006373
 40
0.0175153561006373
 40
0.2291174539242752
 40
0.2291174539242752
 40
0.2291174539242752
 10
233.5915924233213
 20
19.45711127581128
 30
0.0
 41
1.00006129682885
 10
233.8037102538201
 20
19.20047854618644
 30
0.0
 41
1.000400910300625
 10
234.0122203088081
 20
19.00000000000003
 30
0.0
 41
1.0
  0
SPLINE
  5
262
330
1F
100
AcDbEntity
  8
0
100
AcDbSpline
210
0.0
220
0.0
230
1.0
 70
     8
 71
     3
 72
    14
 73
    10
 74
     0
 42
0.0000000001
 43
0.0000000001
 40
0.1579735430055513
 40
0.1579735430055513
 40
0.1579735430055513
 40
0.1579735430055513
 40
0.1631561247759689
 40
0.1631561247759689
 40
0.1840421045220367
 40
0.1840421045220367
 40
0.2049280842681045
 40
0.2049280842681045
 40
0.2101106660385203
 40
0.2101106660385203
 40
0.2101106660385203
 40
0.2101106660385203
 10
233.5915924233213
 20
19.45711127581128
 30
0.0
 10
233.5880683076143
 20
19.46137495996905
 30
0.0
 10
233.5841051325155
 20
19.46523708943098
 30
0.0
 10
233.5619674360641
 20
19.48256260107953
 30
0.0
 10
233.5370487271112
 20
19.48959993390787
 30
0.0
 10
233.474920203862
 20
19.48959993390787
 30
0.0
 10
233.4370487069878
 20
19.48256260107953
 30
0.0
 10
233.3830503799309
 20
19.46523708943098
 30
0.0
 10
233.3719857616939
 20
19.46137495996907
 30
0.0
 10
233.3606234394897
 20
19.45711127581128
 30
0.0
  0
SPLINE
  5
263
330
1F
100
AcDbEntity
  8
0
100
AcDbSpline
210
0.0
220
0.0
230
1.0
 70
    12
 71
     2
 72
     6
 73
     3
 74
     0
 42
0.0000000001
 43
0.0000000001
 40
0.0175153561006366
 40
0.0175153561006366
 40
0.0175153561006366
 40
0.2291174539242736
 40
0.2291174539242736
 40
0.2291174539242736
 10
162.679354774375
 20
19.45711127581128
 30
0.0
 41
1.000061296828861
 10
163.0037457508542
 20
19.20047854618644
 30
0.0
 41
1.000400910300701
 10
163.3252843450891
 20
19.00000000000003
 30
0.0
 41
1.0
  0
SPLINE
  5
264
330
1F
100
AcDbEntity
  8
0
100
AcDbSpline
210
0.0
220
0.0
230
1.0
 70
     8
 71
     3
 72
    14
 73
    10
 74
     0
 42
0.0000000001
 43
0.0000000001
 40
0.1579735430055517
 40
0.1579735430055517
 40
0.1579735430055517
 40
0.1579735430055517
 40
0.1631561247759693
 40
0.1631561247759693
 40
0.1840421045220371
 40
0.1840421045220371
 40
0.2049280842681049
 40
0.2049280842681049
 40
0.2101106660385202
 40
0.2101106660385202
 40
0.2101106660385202
 40
0.2101106660385202
 10
162.679354774375
 20
19.45711127581128
 30
0.0
 10
162.6739653578752
 20
19.46137495996905
 30
0.0
 10
162.6689771333476
 20
19.46523708943098
 30
0.0
 10
162.6460013500514
 20
19.48256260107951
 30
0.0
 10
162.6344826621748
 20
19.48959993390787
 30
0.0
 10
162.6259822717729
 20
19.48959993390787
 30
0.0
 10
162.6289100382014
 20
19.48256260107953
 30
0.0
 10
162.6414689326102
 20
19.46523708943098
 30
0.0
 10
162.6444010627137
 20
19.46137495996907
 30
0.0
 10
162.6477537249602
 20
19.45711127581128
 30
0.0
  0
SPLINE
  5
265
330
1F
100
AcDbEntity
  8
0
100
AcDbSpline
210
0.0
220
0.0
230
1.0
 70
    12
 71
     2
 72
     6
 73
     3
 74
     0
 42
0.0000000001
 43
0.0000000001
 40
0.0
 40
0.0
 40
0.0
 40
0.2116020978239851
 40
0.2116020978239851
 40
0.2116020978239851
 10
163.0500000166958
 20
19.00000000000003
 30
0.0
 41
1.0
 10
162.8495517081292
 20
19.20047854618602
 30
0.0
 41
1.000400910300424
 10
162.6477537249602
 20
19.45711127581128
 30
0.0
 41
1.000061296828818
  0
SPLINE
  5
266
330
1F
100
AcDbEntity
  8
0
100
AcDbSpline
210
0.0
220
0.0
230
1.0
 70
    12
 71
     2
 72
     6
 73
     3
 74
     0
 42
0.0000000001
 43
0.0000000001
 40
0.0175153561006319
 40
0.0175153561006319
 40
0.0175153561006319
 40
0.2291174539242741
 40
0.2291174539242741
 40
0.2291174539242741
 10
168.9503387212862
 20
19.45711127581123
 30
0.0
 41
1.000061296828931
 10
169.724318204564
 20
19.20047854618647
 30
0.0
 41
1.00040091030116
 10
170.4897494413608
 20
19.00000000000003
 30
0.0
 41
1.0
  0
SPLINE
  5
267
330
1F
100
AcDbEntity
  8
0
100
AcDbSpline
210
0.0
220
0.0
230
1.0
 70
     8
 71
     3
 72
    14
 73
    10
 74
     0
 42
0.0000000001
 43
0.0000000001
 40
0.1579735430055507
 40
0.1579735430055507
 40
0.1579735430055507
 40
0.1579735430055507
 40
0.1631561247759692
 40
0.1631561247759692
 40
0.184042104522037
 40
0.184042104522037
 40
0.2049280842681045
 40
0.2049280842681045
 40
0.2101106660385204
 40
0.2101106660385204
 40
0.2101106660385204
 40
0.2101106660385204
 10
168.9503387212862
 20
19.45711127581123
 30
0.0
 10
168.9374798623785
 20
19.46137495996905
 30
0.0
 10
168.9248768289585
 20
19.46523708943098
 30
0.0
 10
168.8629439084939
 20
19.48256260107953
 30
0.0
 10
168.8180742469021
 20
19.48959993390787
 30
0.0
 10
168.7412226155929
 20
19.48959993390787
 30
0.0
 10
168.7084221589257
 20
19.48256260107953
 30
0.0
 10
168.6761764750713
 20
19.46523708943098
 30
0.0
 10
168.6701904551478
 20
19.46137495996907
 30
0.0
 10
168.6646351142958
 20
19.45711127581128
 30
0.0
  0
SPLINE
  5
268
330
1F
100
AcDbEntity
  8
0
100
AcDbSpline
210
0.0
220
0.0
230
1.0
 70
    12
 71
     2
 72
     6
 73
     3
 74
     0
 42
0.0000000001
 43
0.0000000001
 40
0.0
 40
0.0
 40
0.0
 40
0.2116020978239921
 40
0.2116020978239921
 40
0.2116020978239921
 10
168.000916727673
 20
19.00000000000003
 30
0.0
 41
1.0
 10
168.3302570895303
 20
19.20047854618596
 30
0.0
 41
1.000400910300649
 10
168.6646351142958
 20
19.45711127581128
 30
0.0
 41
1.000061296828852
  0
SPLINE
  5
269
330
1F
100
AcDbEntity
  8
0
100
AcDbSpline
210
0.0
220
0.0
230
1.0
 70
    12
 71
     2
 72
     6
 73
     3
 74
     0
 42
0.0000000001
 43
0.0000000001
 40
0.0175153561006503
 40
0.0175153561006503
 40
0.0175153561006503
 40
0.2291174539242752
 40
0.2291174539242752
 40
0.2291174539242752
 10
183.5410543330886
 20
19.45711127581123
 30
0.0
 41
1.000061296828722
 10
184.5572351456621
 20
19.20047854618644
 30
0.0
 41
1.000400910299794
 10
185.5614623432593
 20
19.00000000000003
 30
0.0
 41
1.0
  0
SPLINE
  5
26A
330
1F
100
AcDbEntity
  8
0
100
AcDbSpline
210
0.0
220
0.0
230
1.0
 70
     8
 71
     3
 72
    14
 73
    10
 74
     0
 42
0.0000000001
 43
0.0000000001
 40
0.157973543005551
 40
0.157973543005551
 40
0.157973543005551
 40
0.157973543005551
 40
0.1631561247759687
 40
0.1631561247759687
 40
0.1840421045220364
 40
0.1840421045220364
 40
0.2049280842681044
 40
0.2049280842681044
 40
0.2101106660385194
 40
0.2101106660385194
 40
0.2101106660385194
 40
0.2101106660385194
 10
183.5410543330886
 20
19.45711127581123
 30
0.0
 10
183.5241715526331
 20
19.46137495996905
 30
0.0
 10
183.5073306829472
 20
19.46523708943098
 30
0.0
 10
183.4230355013378
 20
19.48256260107953
 30
0.0
 10
183.3568376556195
 20
19.48959993390787
 30
0.0
 10
183.2322271159491
 20
19.48959993390787
 30
0.0
 10
183.1724872920613
 20
19.48256260107953
 30
0.0
 10
183.1040772348924
 20
19.46523708943098
 30
0.0
 10
183.0907770141466
 20
19.46137495996907
 30
0.0
 10
183.0778022192899
 20
19.45711127581128
 30
0.0
  0
SPLINE
  5
26B
330
1F
100
AcDbEntity
  8
0
100
AcDbSpline
210
0.0
220
0.0
230
1.0
 70
    12
 71
     2
 72
     6
 73
     3
 74
     0
 42
0.0000000001
 43
0.0000000001
 40
0.0
 40
0.0
 40
0.0
 40
0.2116020978239983
 40
0.2116020978239983
 40
0.2116020978239983
 10
181.5259619600069
 20
19.00000000000003
 30
0.0
 41
1.0
 10
182.2968445082933
 20
19.20047854618599
 30
0.0
 41
1.000400910300755
 10
183.0778022192899
 20
19.45711127581128
 30
0.0
 41
1.000061296828868
  0
SPLINE
  5
26C
330
1F
100
AcDbEntity
  8
0
100
AcDbSpline
210
0.0
220
0.0
230
1.0
 70
    12
 71
     2
 72
     6
 73
     3
 74
     0
 42
0.0000000001
 43
0.0000000001
 40
0.0175153561006463
 40
0.0175153561006463
 40
0.0175153561006463
 40
0.2291174539242759
 40
0.2291174539242759
 40
0.2291174539242759
 10
202.5419311446076
 20
19.45711127581128
 30
0.0
 41
1.000061296828805
 10
203.5280284583837
 20
19.20047854618647
 30
0.0
 41
1.000400910300334
 10
204.5019697501684
 20
19.00000000000003
 30
0.0
 41
1.0
  0
SPLINE
  5
26D
330
1F
100
AcDbEntity
  8
0
100
AcDbSpline
210
0.0
220
0.0
230
1.0
 70
     8
 71
     3
 72
    14
 73
    10
 74
     0
 42
0.0000000001
 43
0.0000000001
 40
0.1579735430055513
 40
0.1579735430055513
 40
0.1579735430055513
 40
0.1579735430055513
 40
0.1631561247759692
 40
0.1631561247759692
 40
0.184042104522037
 40
0.184042104522037
 40
0.2049280842681047
 40
0.2049280842681047
 40
0.2101106660385201
 40
0.2101106660385201
 40
0.2101106660385201
 40
0.2101106660385201
 10
202.5419311446076
 20
19.45711127581128
 30
0.0
 10
202.5255481699933
 20
19.46137495996905
 30
0.0
 10
202.5089819614741
 20
19.46523708943098
 30
0.0
 10
202.424911344558
 20
19.48256260107953
 30
0.0
 10
202.3551229740133
 20
19.48959993390787
 30
0.0
 10
202.2161428194554
 20
19.48959993390787
 30
0.0
 10
202.1454708659135
 20
19.48256260107951
 30
0.0
 10
202.0592268550026
 20
19.46523708943098
 30
0.0
 10
202.0421762168421
 20
19.46137495996907
 30
0.0
 10
202.0252585537855
 20
19.45711127581128
 30
0.0
  0
SPLINE
  5
26E
330
1F
100
AcDbEntity
  8
0
100
AcDbSpline
210
0.0
220
0.0
230
1.0
 70
    12
 71
     2
 72
     6
 73
     3
 74
     0
 42
0.0000000001
 43
0.0000000001
 40
0.0
 40
0.0
 40
0.0
 40
0.211602097823982
 40
0.211602097823982
 40
0.211602097823982
 10
200.0011107660989
 20
19.00000000000003
 30
0.0
 41
1.0
 10
201.0069781445418
 20
19.20047854618599
 30
0.0
 41
1.000400910300344
 10
202.0252585537855
 20
19.45711127581128
 30
0.0
 41
1.000061296828805
  0
SPLINE
  5
26F
330
1F
100
AcDbEntity
  8
0
100
AcDbSpline
210
0.0
220
0.0
230
1.0
 70
    12
 71
     2
 72
     6
 73
     3
 74
     0
 42
0.0000000001
 43
0.0000000001
 40
0.0
 40
0.0
 40
0.0
 40
0.2116020978239921
 40
0.2116020978239921
 40
0.2116020978239921
 10
218.4759619433116
 20
19.00000000000003
 30
0.0
 41
1.0
 10
219.4472928001642
 20
19.20047854618596
 30
0.0
 41
1.000400910300649
 10
220.4300484943297
 20
19.45711127581128
 30
0.0
 41
1.000061296828852
  0
SPLINE
  5
270
330
1F
100
AcDbEntity
  8
0
100
AcDbSpline
210
0.0
220
0.0
230
1.0
 70
    12
 71
     2
 72
     6
 73
     3
 74
     0
 42
0.0000000001
 43
0.0000000001
 40
0.0175153561006319
 40
0.0175153561006319
 40
0.0175153561006319
 40
0.2291174539242741
 40
0.2291174539242741
 40
0.2291174539242741
 10
220.8616995587135
 20
19.45711127581123
 30
0.0
 41
1.000061296828931
 10
221.5534893948079
 20
19.20047854618647
 30
0.0
 41
1.00040091030116
 10
222.2361779981702
 20
19.00000000000003
 30
0.0
 41
1.0
  0
SPLINE
  5
271
330
1F
100
AcDbEntity
  8
0
100
AcDbSpline
210
0.0
220
0.0
230
1.0
 70
     8
 71
     3
 72
    14
 73
    10
 74
     0
 42
0.0000000001
 43
0.0000000001
 40
0.1579735430055513
 40
0.1579735430055513
 40
0.1579735430055513
 40
0.1579735430055513
 40
0.1631561247759692
 40
0.1631561247759692
 40
0.184042104522037
 40
0.184042104522037
 40
0.2049280842681045
 40
0.2049280842681045
 40
0.2101106660385203
 40
0.2101106660385203
 40
0.2101106660385203
 40
0.2101106660385203
 10
220.8616995587135
 20
19.45711127581123
 30
0.0
 10
220.8502061947574
 20
19.46137495996905
 30
0.0
 10
220.8383535495995
 20
19.46523708943098
 30
0.0
 10
220.7770341512869
 20
19.48256260107953
 30
0.0
 10
220.7223549934442
 20
19.48959993390787
 30
0.0
 10
220.6062448441762
 20
19.48959993390787
 30
0.0
 10
220.5435772538594
 20
19.48256260107953
 30
0.0
 10
220.4626083022822
 20
19.46523708943098
 30
0.0
 10
220.4463759514329
 20
19.46137495996907
 30
0.0
 10
220.4300484943297
 20
19.45711127581128
 30
0.0
  0
LINE
  5
272
330
1F
100
AcDbEntity
  8
0
100
AcDbLine
 10
200.0
 20
19.74476973777175
 30
0.0
 11
200.0
 21
34.50627481062466
 31
0.0
  0
LINE
  5
273
330
1F
100
AcDbEntity
  8
0
100
AcDbLine
 10
181.5329101874408
 20
19.74476973776055
 30
0.0
 11
181.6874521647564
 21
34.50627481062466
 31
0.0
  0
SPLINE
  5
274
330
1F
100
AcDbEntity
  8
0
100
AcDbSpline
210
0.0
220
0.0
230
1.0
 70
    12
 71
     2
 72
     6
 73
     3
 74
     0
 42
0.0000000001
 43
0.0000000001
 40
0.0
 40
0.0
 40
0.0
 40
0.0740529509764175
 40
0.0740529509764175
 40
0.0740529509764175
 10
181.5259619600069
 20
19.00000000000003
 30
0.0
 41
1.0
 10
181.5294371056061
 20
19.37249211434451
 30
0.0
 41
1.000000834741554
 10
181.5329101874408
 20
19.74476973776055
 30
0.0
 41
1.000001592231778
  0
LINE
  5
275
330
1F
100
AcDbEntity
  8
0
100
AcDbLine
 10
183.0778022192899
 20
19.45711127581128
 30
0.0
 11
183.2159626835264
 21
34.03389122389581
 31
0.0
  0
LINE
  5
276
330
1F
100
AcDbEntity
  8
0
100
AcDbLine
 10
168.0140621767095
 20
19.74476973774043
 30
0.0
 11
168.2817367333227
 21
34.50627481062466
 31
0.0
  0
SPLINE
  5
277
330
1F
100
AcDbEntity
  8
0
100
AcDbSpline
210
0.0
220
0.0
230
1.0
 70
    12
 71
     2
 72
     6
 73
     3
 74
     0
 42
0.0000000001
 43
0.0000000001
 40
0.0
 40
0.0
 40
0.0
 40
0.0740529514313166
 40
0.0740529514313166
 40
0.0740529514313166
 10
168.000916727673
 20
19.00000000000003
 30
0.0
 41
1.0
 10
168.0074913583903
 20
19.37249211412904
 30
0.0
 41
1.00000083448563
 10
168.0140621767095
 20
19.74476973774043
 30
0.0
 41
1.000001591743615
  0
LINE
  5
278
330
1F
100
AcDbEntity
  8
0
100
AcDbLine
 10
168.6646351142958
 20
19.45711127581128
 30
0.0
 11
168.9228390967264
 21
34.03389122389581
 31
0.0
  0
SPLINE
  5
279
330
1F
100
AcDbEntity
  8
0
100
AcDbSpline
210
0.0
220
0.0
230
1.0
 70
    12
 71
     2
 72
     6
 73
     3
 74
     0
 42
0.0000000001
 43
0.0000000001
 40
0.0492221856918689
 40
0.0492221856918689
 40
0.0492221856918689
 40
1.600362735801205
 40
1.600362735801205
 40
1.600362735801205
 10
204.4848101247417
 20
34.51085149098626
 30
0.0
 41
1.000001075779279
 10
204.4933206435776
 20
26.8022279241784
 30
0.0
 41
1.000017488425661
 10
204.5019697501684
 20
19.00000000000003
 30
0.0
 41
1.0
  0
SPLINE
  5
27A
330
1F
100
AcDbEntity
  8
0
100
AcDbSpline
210
0.0
220
0.0
230
1.0
 70
    12
 71
     2
 72
     6
 73
     3
 74
     0
 42
0.0000000001
 43
0.0000000001
 40
0.0492221857268302
 40
0.0492221857268302
 40
0.0492221857268302
 40
1.600362735801205
 40
1.600362735801205
 40
1.600362735801205
 10
222.0563897800375
 20
34.51085149098626
 30
0.0
 41
1.00000107580297
 10
222.145729159688
 20
26.80222793262033
 30
0.0
 41
1.00001748881079
 10
222.2361779981707
 20
19.00000000000003
 30
0.0
 41
1.0
  0
SPLINE
  5
27B
330
1F
100
AcDbEntity
  8
0
100
AcDbSpline
210
0.0
220
0.0
230
1.0
 70
    12
 71
     2
 72
     6
 73
     3
 74
     0
 42
0.0000000001
 43
0.0000000001
 40
0.0492221861347631
 40
0.0492221861347631
 40
0.0492221861347631
 40
1.600362735801206
 40
1.600362735801206
 40
1.600362735801206
 10
233.7179776058265
 20
34.51085149098626
 30
0.0
 41
1.000001075290688
 10
233.8642074316776
 20
26.8022279322847
 30
0.0
 41
1.000017480482716
 10
234.0122203088081
 20
19.00000000000003
 30
0.0
 41
1.0
  0
SPLINE
  5
27C
330
1F
100
AcDbEntity
  8
0
100
AcDbSpline
210
0.0
220
0.0
230
1.0
 70
    12
 71
     2
 72
     6
 73
     3
 74
     0
 42
0.0000000001
 43
0.0000000001
 40
0.0492221857983985
 40
0.0492221857983985
 40
0.0492221857983985
 40
1.600362735801205
 40
1.600362735801205
 40
1.600362735801205
 10
163.6551394382763
 20
34.51085149098626
 30
0.0
 41
1.000001075632743
 10
163.4912013297667
 20
26.80222792249228
 30
0.0
 41
1.000017486043455
 10
163.3252843450891
 20
19.00000000000003
 30
0.0
 41
1.0
  0
SPLINE
  5
27D
330
1F
100
AcDbEntity
  8
0
100
AcDbSpline
210
0.0
220
0.0
230
1.0
 70
    12
 71
     2
 72
     6
 73
     3
 74
     0
 42
0.0000000001
 43
0.0000000001
 40
0.0492221857268302
 40
0.0492221857268302
 40
0.0492221857268302
 40
1.600362735801205
 40
1.600362735801205
 40
1.600362735801205
 10
170.7668325189152
 20
34.51085149098626
 30
0.0
 41
1.00000107580297
 10
170.6291132118967
 20
26.80222793262033
 30
0.0
 41
1.00001748881079
 10
170.4897494413608
 20
19.00000000000003
 30
0.0
 41
1.0
  0
SPLINE
  5
27E
330
1F
100
AcDbEntity
  8
0
100
AcDbSpline
210
0.0
220
0.0
230
1.0
 70
    12
 71
     2
 72
     6
 73
     3
 74
     0
 42
0.0000000001
 43
0.0000000001
 40
0.049222185848
 40
0.049222185848
 40
0.049222185848
 40
1.600362735801205
 40
1.600362735801205
 40
1.600362735801205
 10
185.7115292183139
 20
34.51085149098626
 30
0.0
 41
1.000001075653813
 10
185.636930489673
 20
26.80222793289761
 30
0.0
 41
1.000017486385976
 10
185.5614623432598
 20
19.00000000000003
 30
0.0
 41
1.0
  0
LINE
  5
27F
330
1F
100
AcDbEntity
  8
0
100
AcDbLine
 10
231.9859378232895
 20
19.74476973777817
 30
0.0
 11
231.7182632666768
 21
34.50627481062466
 31
0.0
  0
SPLINE
  5
280
330
1F
100
AcDbEntity
  8
0
100
AcDbSpline
210
0.0
220
0.0
230
1.0
 70
    12
 71
     2
 72
     6
 73
     3
 74
     0
 42
0.0000000001
 43
0.0000000001
 40
0.0
 40
0.0
 40
0.0
 40
0.0740529507242906
 40
0.0740529507242906
 40
0.0740529507242906
 10
232.0001940384254
 20
19.00000000000003
 30
0.0
 41
1.0
 10
231.9930639057229
 20
19.37249211449202
 30
0.0
 41
1.000000834949697
 10
231.9859378232895
 20
19.74476973777817
 30
0.0
 41
1.000001592628801
  0
LINE
  5
281
330
1F
100
AcDbEntity
  8
0
100
AcDbLine
 10
233.3606234394897
 20
19.45711127581128
 30
0.0
 11
233.0835164182827
 21
34.03389122389581
 31
0.0
  0
LINE
  5
282
330
1F
100
AcDbEntity
  8
0
100
AcDbLine
 10
233.5915924233213
 20
19.45711127581128
 30
0.0
 11
233.3144854021143
 21
34.03389122389584
 31
0.0
  0
LINE
  5
283
330
1F
100
AcDbEntity
  8
0
100
AcDbLine
 10
218.4670898125592
 20
19.74476973776788
 30
0.0
 11
218.3125478352431
 21
34.50627481062466
 31
0.0
  0
SPLINE
  5
284
330
1F
100
AcDbEntity
  8
0
100
AcDbSpline
210
0.0
220
0.0
230
1.0
 70
    12
 71
     2
 72
     6
 73
     3
 74
     0
 42
0.0000000001
 43
0.0000000001
 40
0.0
 40
0.0
 40
0.0
 40
0.0740529514340483
 40
0.0740529514340483
 40
0.0740529514340483
 10
218.4759619433116
 20
19.00000000000003
 30
0.0
 41
1.0
 10
218.4715246400633
 20
19.3724921141428
 30
0.0
 41
1.00000083448563
 10
218.4670898125592
 20
19.74476973776788
 30
0.0
 41
1.000001591743615
  0
LINE
  5
285
330
1F
100
AcDbEntity
  8
0
100
AcDbLine
 10
220.4300484943297
 20
19.45711127581128
 30
0.0
 11
220.2591470065154
 21
34.03389122389581
 31
0.0
  0
LINE
  5
286
330
1F
100
AcDbEntity
  8
0
100
AcDbLine
 10
220.8616995587135
 20
19.45711127581123
 30
0.0
 11
220.6907980708993
 21
34.03389122389584
 31
0.0
  0
SPLINE
  5
287
330
1F
100
AcDbEntity
  8
0
100
AcDbSpline
210
0.0
220
0.0
230
1.0
 70
    12
 71
     2
 72
     6
 73
     3
 74
     0
 42
0.0000000001
 43
0.0000000001
 40
0.0
 40
0.0
 40
0.0
 40
0.0740529507944114
 40
0.0740529507944114
 40
0.0740529507944114
 10
200.0011107660985
 20
19.00000000000003
 30
0.0
 41
1.0
 10
200.0005552641196
 20
19.3724921144651
 30
0.0
 41
1.000000834931835
 10
200.0
 20
19.74476973777175
 30
0.0
 41
1.000001592594731
  0
LINE
  5
288
330
1F
100
AcDbEntity
  8
0
100
AcDbLine
 10
202.0252585537855
 20
19.45711127581128
 30
0.0
 11
202.0063555150091
 21
34.03389122389581
 31
0.0
  0
LINE
  5
289
330
1F
100
AcDbEntity
  8
0
100
AcDbLine
 10
202.5419311446076
 20
19.45711127581128
 30
0.0
 11
202.5230281058316
 21
34.03389122389584
 31
0.0
  0
LINE
  5
28A
330
1F
100
AcDbEntity
  8
0
100
AcDbLine
 10
183.5410543330886
 20
19.45711127581123
 30
0.0
 11
183.6792147973251
 21
34.03389122389584
 31
0.0
  0
LINE
  5
28B
330
1F
100
AcDbEntity
  8
0
100
AcDbLine
 10
168.9503387212862
 20
19.45711127581123
 30
0.0
 11
169.2085427037173
 21
34.03389122389584
 31
0.0
  0
LINE
  5
28C
330
1F
100
AcDbEntity
  8
0
100
AcDbLine
 10
162.679354774375
 20
19.45711127581128
 30
0.0
 11
162.9884167264254
 21
34.03389122389584
 31
0.0
  0
LINE
  5
28D
330
1F
100
AcDbEntity
  8
0
100
AcDbLine
 10
162.9360611258598
 20
34.00185440458697
 30
0.0
 11
162.6283295747125
 21
19.48782226833072
 31
0.0
  0
SPLINE
  5
28E
330
1F
100
AcDbEntity
  8
0
100
AcDbSpline
210
0.0
220
0.0
230
1.0
 70
    12
 71
     2
 72
     6
 73
     3
 74
     0
 42
0.0000000001
 43
0.0000000001
 40
0.0133474178829873
 40
0.0133474178829873
 40
0.0133474178829873
 40
0.2261577537836643
 40
0.2261577537836643
 40
0.2261577537836643
 10
237.0115832735746
 20
34.03389122389584
 30
0.0
 41
1.000051599651692
 10
236.6754744991626
 20
34.30208283403258
 30
0.0
 41
1.000437150519494
 10
236.3448605617236
 20
34.51085149098626
 30
0.0
 41
1.0
  0
SPLINE
  5
28F
330
1F
100
AcDbEntity
  8
0
100
AcDbSpline
210
0.0
220
0.0
230
1.0
 70
     8
 71
     3
 72
    10
 73
     6
 74
     0
 42
0.0000000001
 43
0.0000000001
 40
0.163072538076892
 40
0.163072538076892
 40
0.163072538076892
 40
0.163072538076892
 40
0.1680693349593846
 40
0.1680693349593846
 40
0.1892839753865513
 40
0.1892839753865513
 40
0.1892839753865513
 40
0.1892839753865513
 10
237.0115832735746
 20
34.03389122389584
 30
0.0
 10
237.0169034411492
 20
34.02964609726797
 30
0.0
 10
237.0218466039692
 20
34.02577908599611
 30
0.0
 10
237.0456958206596
 20
34.00756667106151
 30
0.0
 10
237.0577959142424
 20
33.99999999999989
 30
0.0
 10
237.062112990292
 20
33.99999999999989
 30
0.0
  0
SPLINE
  5
290
330
1F
100
AcDbEntity
  8
0
100
AcDbSpline
210
0.0
220
0.0
230
1.0
 70
     8
 71
     3
 72
    10
 73
     6
 74
     0
 42
0.0000000001
 43
0.0000000001
 40
0.1892839753865513
 40
0.1892839753865513
 40
0.1892839753865513
 40
0.1892839753865513
 40
0.210498615813718
 40
0.210498615813718
 40
0.2154954126962071
 40
0.2154954126962071
 40
0.2154954126962071
 40
0.2154954126962071
 10
237.062112990292
 20
33.99999999999989
 30
0.0
 10
237.0664300663411
 20
33.99999999999989
 30
0.0
 10
237.0630114068581
 20
34.00756667106151
 30
0.0
 10
237.0495406247019
 20
34.02577908599611
 30
0.0
 10
237.0465605290665
 20
34.02964609726794
 30
0.0
 10
237.043184322989
 20
34.03389122389581
 30
0.0
  0
SPLINE
  5
291
330
1F
100
AcDbEntity
  8
0
100
AcDbSpline
210
0.0
220
0.0
230
1.0
 70
    12
 71
     2
 72
     6
 73
     3
 74
     0
 42
0.0000000001
 43
0.0000000001
 40
0.0023280310938417
 40
0.0023280310938417
 40
0.0023280310938417
 40
0.2128103359009464
 40
0.2128103359009464
 40
0.2128103359009464
 10
236.6250956704866
 20
34.50627481062466
 30
0.0
 41
1.000009465930861
 10
236.8322204013521
 20
34.29915007975976
 30
0.0
 41
1.000432932799143
 10
237.043184322989
 20
34.03389122389581
 30
0.0
 41
1.000051599651649
  0
SPLINE
  5
292
330
1F
100
AcDbEntity
  8
0
100
AcDbSpline
210
0.0
220
0.0
230
1.0
 70
    12
 71
     2
 72
     6
 73
     3
 74
     0
 42
0.0000000001
 43
0.0000000001
 40
0.013347417882981
 40
0.013347417882981
 40
0.013347417882981
 40
0.2261577537836685
 40
0.2261577537836685
 40
0.2261577537836685
 10
166.6855145978852
 20
34.03389122389584
 30
0.0
 41
1.000051599651743
 10
166.483002876465
 20
34.30208283403249
 30
0.0
 41
1.000437150519926
 10
166.282022394173
 20
34.51085149098626
 30
0.0
 41
1.0
  0
SPLINE
  5
293
330
1F
100
AcDbEntity
  8
0
100
AcDbSpline
210
0.0
220
0.0
230
1.0
 70
     8
 71
     3
 72
    10
 73
     6
 74
     0
 42
0.0000000001
 43
0.0000000001
 40
0.1630725380768919
 40
0.1630725380768919
 40
0.1630725380768919
 40
0.1630725380768919
 40
0.1680693349593844
 40
0.1680693349593844
 40
0.1892839753865511
 40
0.1892839753865511
 40
0.1892839753865511
 40
0.1892839753865511
 10
166.6855145978852
 20
34.03389122389584
 30
0.0
 10
166.6887200967471
 20
34.02964609726797
 30
0.0
 10
166.6923420065459
 20
34.02577908599611
 30
0.0
 10
166.7135388079787
 20
34.00756667106151
 30
0.0
 10
166.738307575863
 20
33.99999999999986
 30
0.0
 10
166.7698606630779
 20
33.99999999999986
 30
0.0
  0
SPLINE
  5
294
330
1F
100
AcDbEntity
  8
0
100
AcDbSpline
210
0.0
220
0.0
230
1.0
 70
     8
 71
     3
 72
    10
 73
     6
 74
     0
 42
0.0000000001
 43
0.0000000001
 40
0.1892839753865511
 40
0.1892839753865511
 40
0.1892839753865511
 40
0.1892839753865511
 40
0.2104986158137179
 40
0.2104986158137179
 40
0.2154954126962076
 40
0.2154954126962076
 40
0.2154954126962076
 40
0.2154954126962076
 10
166.7698606630779
 20
33.99999999999986
 30
0.0
 10
166.8014137502932
 20
33.99999999999986
 30
0.0
 10
166.8400967363668
 20
34.00756667106151
 30
0.0
 10
166.8947548993265
 20
34.02577908599611
 30
0.0
 10
166.9054808558526
 20
34.02964609726794
 30
0.0
 10
166.9164835817173
 20
34.03389122389581
 30
0.0
  0
SPLINE
  5
295
330
1F
100
AcDbEntity
  8
0
100
AcDbSpline
210
0.0
220
0.0
230
1.0
 70
    12
 71
     2
 72
     6
 73
     3
 74
     0
 42
0.0000000001
 43
0.0000000001
 40
0.0023280310938434
 40
0.0023280310938434
 40
0.0023280310938434
 40
0.2128103359009541
 40
0.2128103359009541
 40
0.2128103359009541
 10
168.2817367333227
 20
34.50627481062466
 30
0.0
 41
1.000009465930871
 10
167.6039943982673
 20
34.29915007975973
 30
0.0
 41
1.000432932799592
 10
166.9164835817173
 20
34.03389122389581
 30
0.0
 41
1.000051599651702
  0
SPLINE
  5
296
330
1F
100
AcDbEntity
  8
0
100
AcDbSpline
210
0.0
220
0.0
230
1.0
 70
    12
 71
     2
 72
     6
 73
     3
 74
     0
 42
0.0000000001
 43
0.0000000001
 40
0.0133474178830041
 40
0.0133474178830041
 40
0.0133474178830041
 40
0.226157753783665
 40
0.226157753783665
 40
0.226157753783665
 10
230.7914572962827
 20
34.03389122389584
 30
0.0
 41
1.000051599651588
 10
230.0067881007117
 20
34.30208283403258
 30
0.0
 41
1.000437150518606
 10
229.2331674810848
 20
34.51085149098626
 30
0.0
 41
1.0
  0
SPLINE
  5
297
330
1F
100
AcDbEntity
  8
0
100
AcDbSpline
210
0.0
220
0.0
230
1.0
 70
     8
 71
     3
 72
    10
 73
     6
 74
     0
 42
0.0000000001
 43
0.0000000001
 40
0.1630725380768909
 40
0.1630725380768909
 40
0.1630725380768909
 40
0.1630725380768909
 40
0.1680693349593844
 40
0.1680693349593844
 40
0.1892839753865509
 40
0.1892839753865509
 40
0.1892839753865509
 40
0.1892839753865509
 10
230.7914572962827
 20
34.03389122389584
 30
0.0
 10
230.8038775956893
 20
34.02964609726797
 30
0.0
 10
230.8160613146419
 20
34.02577908599611
 30
0.0
 10
230.8785661711031
 20
34.00756667106151
 30
0.0
 10
230.9242929158495
 20
33.99999999999986
 30
0.0
 10
230.9633233981222
 20
33.99999999999986
 30
0.0
  0
SPLINE
  5
298
330
1F
100
AcDbEntity
  8
0
100
AcDbSpline
210
0.0
220
0.0
230
1.0
 70
     8
 71
     3
 72
    10
 73
     6
 74
     0
 42
0.0000000001
 43
0.0000000001
 40
0.1892839753865509
 40
0.1892839753865509
 40
0.1892839753865509
 40
0.1892839753865509
 40
0.2104986158137177
 40
0.2104986158137177
 40
0.2154954126962061
 40
0.2154954126962061
 40
0.2154954126962061
 40
0.2154954126962061
 10
230.9633233981222
 20
33.99999999999986
 30
0.0
 10
231.0023538803953
 20
33.99999999999986
 30
0.0
 10
231.0351155745507
 20
34.00756667106151
 30
0.0
 10
231.0664416583982
 20
34.02577908599611
 30
0.0
 10
231.0720059378714
 20
34.02964609726794
 30
0.0
 10
231.0771609032731
 20
34.03389122389581
 30
0.0
  0
SPLINE
  5
299
330
1F
100
AcDbEntity
  8
0
100
AcDbSpline
210
0.0
220
0.0
230
1.0
 70
    12
 71
     2
 72
     6
 73
     3
 74
     0
 42
0.0000000001
 43
0.0000000001
 40
0.0023280310938358
 40
0.0023280310938358
 40
0.0023280310938358
 40
0.2128103359009627
 40
0.2128103359009627
 40
0.2128103359009627
 10
231.7182632666768
 20
34.50627481062466
 30
0.0
 41
1.000009465930891
 10
231.3992714889837
 20
34.29915007975978
 30
0.0
 41
1.000432932800524
 10
231.0771609032731
 20
34.03389122389581
 30
0.0
 41
1.000051599651813
  0
SPLINE
  5
29A
330
1F
100
AcDbEntity
  8
0
100
AcDbSpline
210
0.0
220
0.0
230
1.0
 70
    12
 71
     2
 72
     6
 73
     3
 74
     0
 42
0.0000000001
 43
0.0000000001
 40
0.0133474178829783
 40
0.0133474178829783
 40
0.0133474178829783
 40
0.2261577537836677
 40
0.2261577537836677
 40
0.2261577537836677
 10
179.3092019291002
 20
34.03389122389584
 30
0.0
 41
1.000051599651774
 10
178.6223325640603
 20
34.30208283403252
 30
0.0
 41
1.000437150520185
 10
177.943610219962
 20
34.51085149098626
 30
0.0
 41
1.0
  0
SPLINE
  5
29B
330
1F
100
AcDbEntity
  8
0
100
AcDbSpline
210
0.0
220
0.0
230
1.0
 70
     8
 71
     3
 72
    10
 73
     6
 74
     0
 42
0.0000000001
 43
0.0000000001
 40
0.1630725380768918
 40
0.1630725380768918
 40
0.1630725380768918
 40
0.1630725380768918
 40
0.1680693349593841
 40
0.1680693349593841
 40
0.1892839753865505
 40
0.1892839753865505
 40
0.1892839753865505
 40
0.1892839753865505
 10
179.3092019291002
 20
34.03389122389584
 30
0.0
 10
179.3200741835676
 20
34.02964609726797
 30
0.0
 10
179.3312906781793
 20
34.02577908599611
 30
0.0
 10
179.391853831909
 20
34.00756667106151
 30
0.0
 10
179.4468546899083
 20
33.99999999999986
 30
0.0
 10
179.5058233161499
 20
33.99999999999986
 30
0.0
  0
SPLINE
  5
29C
330
1F
100
AcDbEntity
  8
0
100
AcDbSpline
210
0.0
220
0.0
230
1.0
 70
     8
 71
     3
 72
    10
 73
     6
 74
     0
 42
0.0000000001
 43
0.0000000001
 40
0.1892839753865505
 40
0.1892839753865505
 40
0.1892839753865505
 40
0.1892839753865505
 40
0.2104986158137173
 40
0.2104986158137173
 40
0.215495412696207
 40
0.215495412696207
 40
0.215495412696207
 40
0.215495412696207
 10
179.5058233161499
 20
33.99999999999986
 30
0.0
 10
179.5647919423913
 20
33.99999999999986
 30
0.0
 10
179.6283741801771
 20
34.00756667106151
 30
0.0
 10
179.7095741133153
 20
34.02577908599611
 30
0.0
 10
179.7251719193423
 20
34.02964609726794
 30
0.0
 10
179.7408529934841
 20
34.03389122389581
 30
0.0
  0
SPLINE
  5
29D
330
1F
100
AcDbEntity
  8
0
100
AcDbSpline
210
0.0
220
0.0
230
1.0
 70
    12
 71
     2
 72
     6
 73
     3
 74
     0
 42
0.0000000001
 43
0.0000000001
 40
0.0023280310938419
 40
0.0023280310938419
 40
0.0023280310938419
 40
0.2128103359009508
 40
0.2128103359009508
 40
0.2128103359009508
 10
181.6874521647564
 20
34.50627481062466
 30
0.0
 41
1.000009465930862
 10
180.7206927368652
 20
34.29915007975987
 30
0.0
 41
1.000432932799209
 10
179.7408529934841
 20
34.03389122389581
 30
0.0
 41
1.000051599651657
  0
SPLINE
  5
29E
330
1F
100
AcDbEntity
  8
0
100
AcDbSpline
210
0.0
220
0.0
230
1.0
 70
    12
 71
     2
 72
     6
 73
     3
 74
     0
 42
0.0000000001
 43
0.0000000001
 40
0.0133474178829984
 40
0.0133474178829984
 40
0.0133474178829984
 40
0.2261577537836685
 40
0.2261577537836685
 40
0.2261577537836685
 10
216.3207852026744
 20
34.03389122389584
 30
0.0
 41
1.000051599651622
 10
215.297807063223
 20
34.30208283403255
 30
0.0
 41
1.000437150518899
 10
214.2884707816857
 20
34.51085149098626
 30
0.0
 41
1.0
  0
SPLINE
  5
29F
330
1F
100
AcDbEntity
  8
0
100
AcDbSpline
210
0.0
220
0.0
230
1.0
 70
     8
 71
     3
 72
    10
 73
     6
 74
     0
 42
0.0000000001
 43
0.0000000001
 40
0.1630725380768924
 40
0.1630725380768924
 40
0.1630725380768924
 40
0.1630725380768924
 40
0.1680693349593846
 40
0.1680693349593846
 40
0.1892839753865514
 40
0.1892839753865514
 40
0.1892839753865514
 40
0.1892839753865514
 10
216.3207852026744
 20
34.03389122389584
 30
0.0
 10
216.3369776247169
 20
34.02964609726797
 30
0.0
 10
216.3531372821485
 20
34.02577908599611
 30
0.0
 10
216.4375496525686
 20
34.00756667106151
 30
0.0
 10
216.5046506041508
 20
33.99999999999986
 30
0.0
 10
216.5679363064419
 20
33.99999999999986
 30
0.0
  0
SPLINE
  5
2A0
330
1F
100
AcDbEntity
  8
0
100
AcDbSpline
210
0.0
220
0.0
230
1.0
 70
     8
 71
     3
 72
    10
 73
     6
 74
     0
 42
0.0000000001
 43
0.0000000001
 40
0.1892839753865514
 40
0.1892839753865514
 40
0.1892839753865514
 40
0.1892839753865514
 40
0.2104986158137182
 40
0.2104986158137182
 40
0.215495412696208
 40
0.215495412696208
 40
0.215495412696208
 40
0.215495412696208
 10
216.5679363064419
 20
33.99999999999986
 30
0.0
 10
216.631222008733
 20
33.99999999999986
 30
0.0
 10
216.6913855870357
 20
34.00756667106151
 30
0.0
 10
216.7591147380176
 20
34.02577908599611
 30
0.0
 10
216.7717324484088
 20
34.02964609726794
 30
0.0
 10
216.7840373164736
 20
34.03389122389581
 30
0.0
  0
SPLINE
  5
2A1
330
1F
100
AcDbEntity
  8
0
100
AcDbSpline
210
0.0
220
0.0
230
1.0
 70
    12
 71
     2
 72
     6
 73
     3
 74
     0
 42
0.0000000001
 43
0.0000000001
 40
0.0023280310938399
 40
0.0023280310938399
 40
0.0023280310938399
 40
0.2128103359009494
 40
0.2128103359009494
 40
0.2128103359009494
 10
218.3125478352431
 20
34.50627481062466
 30
0.0
 41
1.000009465930866
 10
217.5529131382168
 20
34.29915007975984
 30
0.0
 41
1.000432932799375
 10
216.7840373164736
 20
34.03389122389581
 30
0.0
 41
1.000051599651677
  0
SPLINE
  5
2A2
330
1F
100
AcDbEntity
  8
0
100
AcDbSpline
210
0.0
220
0.0
230
1.0
 70
    12
 71
     2
 72
     6
 73
     3
 74
     0
 42
0.0000000001
 43
0.0000000001
 40
0.0133474178829769
 40
0.0133474178829769
 40
0.0133474178829769
 40
0.2261577537836625
 40
0.2261577537836625
 40
0.2261577537836625
 10
197.4769718941684
 20
34.03389122389584
 30
0.0
 41
1.000051599651778
 10
196.4897909771762
 20
34.30208283403252
 30
0.0
 41
1.000437150520221
 10
195.5151898752583
 20
34.51085149098626
 30
0.0
 41
1.0
  0
SPLINE
  5
2A3
330
1F
100
AcDbEntity
  8
0
100
AcDbSpline
210
0.0
220
0.0
230
1.0
 70
     8
 71
     3
 72
    10
 73
     6
 74
     0
 42
0.0000000001
 43
0.0000000001
 40
0.1630725380768927
 40
0.1630725380768927
 40
0.1630725380768927
 40
0.1630725380768927
 40
0.1680693349593846
 40
0.1680693349593846
 40
0.1892839753865514
 40
0.1892839753865514
 40
0.1892839753865514
 40
0.1892839753865514
 10
197.4769718941684
 20
34.03389122389584
 30
0.0
 10
197.4925976924364
 20
34.02964609726797
 30
0.0
 10
197.5084033211878
 20
34.02577908599611
 30
0.0
 10
197.5921049790818
 20
34.00756667106151
 30
0.0
 10
197.6626004917125
 20
33.99999999999986
 30
0.0
 10
197.7331840612005
 20
33.99999999999986
 30
0.0
  0
SPLINE
  5
2A4
330
1F
100
AcDbEntity
  8
0
100
AcDbSpline
210
0.0
220
0.0
230
1.0
 70
     8
 71
     3
 72
    10
 73
     6
 74
     0
 42
0.0000000001
 43
0.0000000001
 40
0.1892839753865514
 40
0.1892839753865514
 40
0.1892839753865514
 40
0.1892839753865514
 40
0.210498615813718
 40
0.210498615813718
 40
0.2154954126962083
 40
0.2154954126962083
 40
0.2154954126962083
 40
0.2154954126962083
 10
197.7331840612005
 20
33.99999999999986
 30
0.0
 10
197.8037676306885
 20
33.99999999999986
 30
0.0
 10
197.8752123109179
 20
34.00756667106151
 30
0.0
 10
197.9611965577251
 20
34.02577908599611
 30
0.0
 10
197.977486793724
 20
34.02964609726794
 30
0.0
 10
197.9936444849904
 20
34.03389122389581
 30
0.0
  0
SPLINE
  5
2A5
330
1F
100
AcDbEntity
  8
0
100
AcDbSpline
210
0.0
220
0.0
230
1.0
 70
    12
 71
     2
 72
     6
 73
     3
 74
     0
 42
0.0000000001
 43
0.0000000001
 40
0.0023280310938381
 40
0.0023280310938381
 40
0.0023280310938381
 40
0.2128103359009634
 40
0.2128103359009634
 40
0.2128103359009634
 10
200.0
 20
34.50627481062466
 30
0.0
 41
1.000009465930893
 10
199.0032658872505
 20
34.29915007975967
 30
0.0
 41
1.000432932800613
 10
197.9936444849904
 20
34.03389122389581
 30
0.0
 41
1.000051599651824
  0
SPLINE
  5
2A6
330
1F
100
AcDbEntity
  8
0
100
AcDbSpline
210
0.0
220
0.0
230
1.0
 70
    12
 71
     2
 72
     6
 73
     3
 74
     0
 42
0.0000000001
 43
0.0000000001
 40
0.0
 40
0.0
 40
0.0
 40
0.2116020978239709
 40
0.2116020978239709
 40
0.2116020978239709
 10
229.5102505586392
 20
19.00000000000003
 30
0.0
 41
1.0
 10
230.2756817954346
 20
19.20047854618596
 30
0.0
 41
1.000400910299709
 10
231.0496612787138
 20
19.45711127581128
 30
0.0
 41
1.000061296828708
  0
SPLINE
  5
2A7
330
1F
100
AcDbEntity
  8
0
100
AcDbSpline
210
0.0
220
0.0
230
1.0
 70
    12
 71
     2
 72
     6
 73
     3
 74
     0
 42
0.0000000001
 43
0.0000000001
 40
0.0175153561006442
 40
0.0175153561006442
 40
0.0175153561006442
 40
0.2291174539242794
 40
0.2291174539242794
 40
0.2291174539242794
 10
231.3353648857042
 20
19.45711127581128
 30
0.0
 41
1.000061296828771
 10
231.6697429104688
 20
19.20047854618653
 30
0.0
 41
1.000400910300109
 10
231.999083272327
 20
19.00000000000003
 30
0.0
 41
1.0
  0
SPLINE
  5
2A8
330
1F
100
AcDbEntity
  8
0
100
AcDbSpline
210
0.0
220
0.0
230
1.0
 70
     8
 71
     3
 72
    14
 73
    10
 74
     0
 42
0.0000000001
 43
0.0000000001
 40
0.5137814663031538
 40
0.5137814663031538
 40
0.5137814663031538
 40
0.5137814663031538
 40
0.5189640480735689
 40
0.5189640480735689
 40
0.5398500278196368
 40
0.5398500278196368
 40
0.5607360075657045
 40
0.5607360075657045
 40
0.565918589336122
 40
0.565918589336122
 40
0.565918589336122
 40
0.565918589336122
 10
231.3353648857042
 20
19.45711127581128
 30
0.0
 10
231.3298095448518
 20
19.46137495996907
 30
0.0
 10
231.3238235249282
 20
19.46523708943098
 30
0.0
 10
231.2915778410743
 20
19.48256260107953
 30
0.0
 10
231.2587773844066
 20
19.48959993390787
 30
0.0
 10
231.1819257530979
 20
19.48959993390787
 30
0.0
 10
231.1370560915057
 20
19.48256260107953
 30
0.0
 10
231.075123171041
 20
19.46523708943098
 30
0.0
 10
231.0625201376211
 20
19.46137495996905
 30
0.0
 10
231.0496612787138
 20
19.45711127581128
 30
0.0
  0
SPLINE
  5
2A9
330
1F
100
AcDbEntity
  8
0
100
AcDbSpline
210
0.0
220
0.0
230
1.0
 70
    12
 71
     2
 72
     6
 73
     3
 74
     0
 42
0.0000000001
 43
0.0000000001
 40
0.0
 40
0.0
 40
0.0
 40
0.2116020978239912
 40
0.2116020978239912
 40
0.2116020978239912
 10
236.6747156549109
 20
19.00000000000003
 30
0.0
 41
1.0
 10
236.9962542491448
 20
19.20047854618599
 30
0.0
 41
1.00040091030071
 10
237.3206452256249
 20
19.45711127581128
 30
0.0
 41
1.000061296828861
  0
SPLINE
  5
2AA
330
1F
100
AcDbEntity
  8
0
100
AcDbSpline
210
0.0
220
0.0
230
1.0
 70
    12
 71
     2
 72
     6
 73
     3
 74
     0
 42
0.0000000001
 43
0.0000000001
 40
0.017515356100634
 40
0.017515356100634
 40
0.017515356100634
 40
0.2291174539242776
 40
0.2291174539242776
 40
0.2291174539242776
 10
237.3522462750397
 20
19.45711127581128
 30
0.0
 41
1.000061296828815
 10
237.1504482918713
 20
19.20047854618647
 30
0.0
 41
1.000400910300398
 10
236.9499999833042
 20
19.00000000000003
 30
0.0
 41
1.0
  0
SPLINE
  5
2AB
330
1F
100
AcDbEntity
  8
0
100
AcDbSpline
210
0.0
220
0.0
230
1.0
 70
     8
 71
     3
 72
    14
 73
    10
 74
     0
 42
0.0000000001
 43
0.0000000001
 40
0.5137814663031536
 40
0.5137814663031536
 40
0.5137814663031536
 40
0.5137814663031536
 40
0.5189640480735691
 40
0.5189640480735691
 40
0.5398500278196369
 40
0.5398500278196369
 40
0.5607360075657047
 40
0.5607360075657047
 40
0.5659185893361228
 40
0.5659185893361228
 40
0.5659185893361228
 40
0.5659185893361228
 10
237.3522462750397
 20
19.45711127581128
 30
0.0
 10
237.3555989372862
 20
19.46137495996907
 30
0.0
 10
237.3585310673898
 20
19.46523708943098
 30
0.0
 10
237.3710899617986
 20
19.48256260107953
 30
0.0
 10
237.374017728227
 20
19.48959993390787
 30
0.0
 10
237.3655173378252
 20
19.48959993390787
 30
0.0
 10
237.3539986499486
 20
19.48256260107953
 30
0.0
 10
237.3310228666523
 20
19.46523708943098
 30
0.0
 10
237.3260346421243
 20
19.46137495996905
 30
0.0
 10
237.3206452256249
 20
19.45711127581128
 30
0.0
  0
SPLINE
  5
2AC
330
1F
100
AcDbEntity
  8
0
100
AcDbSpline
210
0.0
220
0.0
230
1.0
 70
    12
 71
     2
 72
     6
 73
     3
 74
     0
 42
0.0000000001
 43
0.0000000001
 40
0.0175153561006257
 40
0.0175153561006257
 40
0.0175153561006257
 40
0.2291174539242756
 40
0.2291174539242756
 40
0.2291174539242756
 10
166.6393765605098
 20
19.45711127581128
 30
0.0
 41
1.000061296828895
 10
167.3232789449875
 20
19.20047854618653
 30
0.0
 41
1.00040091030092
 10
167.9998059615741
 20
19.00000000000003
 30
0.0
 41
1.0
  0
SPLINE
  5
2AD
330
1F
100
AcDbEntity
  8
0
100
AcDbSpline
210
0.0
220
0.0
230
1.0
 70
     8
 71
     3
 72
    14
 73
    10
 74
     0
 42
0.0000000001
 43
0.0000000001
 40
0.5137814663031533
 40
0.5137814663031533
 40
0.5137814663031533
 40
0.5137814663031533
 40
0.5189640480735687
 40
0.5189640480735687
 40
0.5398500278196366
 40
0.5398500278196366
 40
0.5607360075657044
 40
0.5607360075657044
 40
0.5659185893361221
 40
0.5659185893361221
 40
0.5659185893361221
 40
0.5659185893361221
 10
166.6393765605098
 20
19.45711127581128
 30
0.0
 10
166.6280142383057
 20
19.46137495996907
 30
0.0
 10
166.6169496200686
 20
19.46523708943098
 30
0.0
 10
166.5629512930118
 20
19.48256260107953
 30
0.0
 10
166.525079796138
 20
19.48959993390787
 30
0.0
 10
166.4629512728888
 20
19.48959993390787
 30
0.0
 10
166.4380325639358
 20
19.48256260107953
 30
0.0
 10
166.4158948674844
 20
19.46523708943098
 30
0.0
 10
166.4119316923857
 20
19.46137495996905
 30
0.0
 10
166.4084075766782
 20
19.45711127581128
 30
0.0
  0
SPLINE
  5
2AE
330
1F
100
AcDbEntity
  8
0
100
AcDbSpline
210
0.0
220
0.0
230
1.0
 70
    12
 71
     2
 72
     6
 73
     3
 74
     0
 42
0.0000000001
 43
0.0000000001
 40
0.0
 40
0.0
 40
0.0
 40
0.2116020978239962
 40
0.2116020978239962
 40
0.2116020978239962
 10
165.9877796911919
 20
19.00000000000003
 30
0.0
 41
1.0
 10
166.1962897461794
 20
19.20047854618599
 30
0.0
 41
1.000400910300671
 10
166.4084075766782
 20
19.45711127581128
 30
0.0
 41
1.000061296828855
  0
SPLINE
  5
2AF
330
1F
100
AcDbEntity
  8
0
100
AcDbSpline
210
0.0
220
0.0
230
1.0
 70
    12
 71
     2
 72
     6
 73
     3
 74
     0
 42
0.0000000001
 43
0.0000000001
 40
0.0175153561006349
 40
0.0175153561006349
 40
0.0175153561006349
 40
0.22911745392428
 40
0.22911745392428
 40
0.22911745392428
 10
179.5699515056699
 20
19.45711127581128
 30
0.0
 41
1.000061296828838
 10
180.552707199834
 20
19.20047854618653
 30
0.0
 41
1.000400910300548
 10
181.5240380566883
 20
19.00000000000003
 30
0.0
 41
1.0
  0
SPLINE
  5
2B0
330
1F
100
AcDbEntity
  8
0
100
AcDbSpline
210
0.0
220
0.0
230
1.0
 70
     8
 71
     3
 72
    14
 73
    10
 74
     0
 42
0.0000000001
 43
0.0000000001
 40
0.5137814663031534
 40
0.5137814663031534
 40
0.5137814663031534
 40
0.5137814663031534
 40
0.5189640480735689
 40
0.5189640480735689
 40
0.5398500278196367
 40
0.5398500278196367
 40
0.5607360075657044
 40
0.5607360075657044
 40
0.5659185893361223
 40
0.5659185893361223
 40
0.5659185893361223
 40
0.5659185893361223
 10
179.5699515056699
 20
19.45711127581128
 30
0.0
 10
179.5536240485671
 20
19.46137495996907
 30
0.0
 10
179.5373916977173
 20
19.46523708943098
 30
0.0
 10
179.4564227461401
 20
19.48256260107953
 30
0.0
 10
179.3937551558238
 20
19.48959993390787
 30
0.0
 10
179.2776450065553
 20
19.48959993390787
 30
0.0
 10
179.2229658487131
 20
19.48256260107951
 30
0.0
 10
179.1616464504004
 20
19.46523708943098
 30
0.0
 10
179.1497938052425
 20
19.46137495996905
 30
0.0
 10
179.138300441286
 20
19.45711127581123
 30
0.0
  0
SPLINE
  5
2B1
330
1F
100
AcDbEntity
  8
0
100
AcDbSpline
210
0.0
220
0.0
230
1.0
 70
    12
 71
     2
 72
     6
 73
     3
 74
     0
 42
0.0000000001
 43
0.0000000001
 40
0.0
 40
0.0
 40
0.0
 40
0.2116020978239784
 40
0.2116020978239784
 40
0.2116020978239784
 10
177.7638220018293
 20
19.00000000000003
 30
0.0
 41
1.0
 10
178.4465106051912
 20
19.20047854618599
 30
0.0
 41
1.000400910299804
 10
179.138300441286
 20
19.45711127581123
 30
0.0
 41
1.000061296828723
  0
SPLINE
  5
2B2
330
1F
100
AcDbEntity
  8
0
100
AcDbSpline
210
0.0
220
0.0
230
1.0
 70
    12
 71
     2
 72
     6
 73
     3
 74
     0
 42
0.0000000001
 43
0.0000000001
 40
0.0175153561006295
 40
0.0175153561006295
 40
0.0175153561006295
 40
0.2291174539242755
 40
0.2291174539242755
 40
0.2291174539242755
 10
197.9747414462145
 20
19.45711127581128
 30
0.0
 41
1.000061296828874
 10
198.9930218554564
 20
19.20047854618653
 30
0.0
 41
1.000400910300783
 10
199.998889233901
 20
19.00000000000003
 30
0.0
 41
1.0
  0
SPLINE
  5
2B3
330
1F
100
AcDbEntity
  8
0
100
AcDbSpline
210
0.0
220
0.0
230
1.0
 70
     8
 71
     3
 72
    14
 73
    10
 74
     0
 42
0.0000000001
 43
0.0000000001
 40
0.5137814663031535
 40
0.5137814663031535
 40
0.5137814663031535
 40
0.5137814663031535
 40
0.5189640480735694
 40
0.5189640480735694
 40
0.539850027819637
 40
0.539850027819637
 40
0.5607360075657049
 40
0.5607360075657049
 40
0.5659185893361225
 40
0.5659185893361225
 40
0.5659185893361225
 40
0.5659185893361225
 10
197.9747414462145
 20
19.45711127581128
 30
0.0
 10
197.9578237831579
 20
19.46137495996907
 30
0.0
 10
197.9407731449973
 20
19.46523708943098
 30
0.0
 10
197.8545291340865
 20
19.48256260107953
 30
0.0
 10
197.7838571805446
 20
19.48959993390787
 30
0.0
 10
197.6448770259867
 20
19.48959993390787
 30
0.0
 10
197.5750886554419
 20
19.48256260107953
 30
0.0
 10
197.4910180385259
 20
19.46523708943098
 30
0.0
 10
197.4744518300067
 20
19.46137495996905
 30
0.0
 10
197.4580688553919
 20
19.45711127581128
 30
0.0
  0
SPLINE
  5
2B4
330
1F
100
AcDbEntity
  8
0
100
AcDbSpline
210
0.0
220
0.0
230
1.0
 70
    12
 71
     2
 72
     6
 73
     3
 74
     0
 42
0.0000000001
 43
0.0000000001
 40
0.0
 40
0.0
 40
0.0
 40
0.2116020978239815
 40
0.2116020978239815
 40
0.2116020978239815
 10
195.4980302498315
 20
19.00000000000003
 30
0.0
 41
1.0
 10
196.471971541614
 20
19.2004785461859
 30
0.0
 41
1.000400910299992
 10
197.4580688553919
 20
19.45711127581128
 30
0.0
 41
1.000061296828752
  0
SPLINE
  5
2B5
330
1F
100
AcDbEntity
  8
0
100
AcDbSpline
210
0.0
220
0.0
230
1.0
 70
    12
 71
     2
 72
     6
 73
     3
 74
     0
 42
0.0000000001
 43
0.0000000001
 40
0.0175153561006429
 40
0.0175153561006429
 40
0.0175153561006429
 40
0.2291174539242794
 40
0.2291174539242794
 40
0.2291174539242794
 10
216.9221977807097
 20
19.45711127581128
 30
0.0
 41
1.000061296828801
 10
217.7031554917053
 20
19.20047854618656
 30
0.0
 41
1.000400910300307
 10
218.4740380399926
 20
19.00000000000003
 30
0.0
 41
1.0
  0
SPLINE
  5
2B6
330
1F
100
AcDbEntity
  8
0
100
AcDbSpline
210
0.0
220
0.0
230
1.0
 70
     8
 71
     3
 72
    14
 73
    10
 74
     0
 42
0.0000000001
 43
0.0000000001
 40
0.5137814663031529
 40
0.5137814663031529
 40
0.5137814663031529
 40
0.5137814663031529
 40
0.5189640480735689
 40
0.5189640480735689
 40
0.5398500278196367
 40
0.5398500278196367
 40
0.5607360075657044
 40
0.5607360075657044
 40
0.5659185893361217
 40
0.5659185893361217
 40
0.5659185893361217
 40
0.5659185893361217
 10
216.9221977807097
 20
19.45711127581128
 30
0.0
 10
216.9092229858534
 20
19.46137495996907
 30
0.0
 10
216.8959227651076
 20
19.46523708943098
 30
0.0
 10
216.8275127079387
 20
19.48256260107953
 30
0.0
 10
216.7677728840504
 20
19.48959993390787
 30
0.0
 10
216.6431623443805
 20
19.48959993390787
 30
0.0
 10
216.5769644986617
 20
19.48256260107953
 30
0.0
 10
216.4926693170523
 20
19.46523708943098
 30
0.0
 10
216.4758284473669
 20
19.46137495996905
 30
0.0
 10
216.4589456669109
 20
19.45711127581128
 30
0.0
  0
SPLINE
  5
2B7
330
1F
100
AcDbEntity
  8
0
100
AcDbSpline
210
0.0
220
0.0
230
1.0
 70
    12
 71
     2
 72
     6
 73
     3
 74
     0
 42
0.0000000001
 43
0.0000000001
 40
0.0
 40
0.0
 40
0.0
 40
0.2116020978239921
 40
0.2116020978239921
 40
0.2116020978239921
 10
214.4385376567402
 20
19.00000000000003
 30
0.0
 41
1.0
 10
215.442764854336
 20
19.20047854618596
 30
0.0
 41
1.000400910300527
 10
216.4589456669109
 20
19.45711127581128
 30
0.0
 41
1.000061296828833
  0
LINE
  5
2B8
330
1F
100
AcDbEntity
  8
0
100
AcDbLine
 10
216.4589456669109
 20
19.45711127581128
 30
0.0
 11
216.3207852026744
 21
34.03389122389584
 31
0.0
  0
LINE
  5
2B9
330
1F
100
AcDbEntity
  8
0
100
AcDbLine
 10
216.9221977807097
 20
19.45711127581128
 30
0.0
 11
216.7840373164736
 21
34.03389122389581
 31
0.0
  0
SPLINE
  5
2BA
330
1F
100
AcDbEntity
  8
0
100
AcDbSpline
210
0.0
220
0.0
230
1.0
 70
    12
 71
     2
 72
     6
 73
     3
 74
     0
 42
0.0000000001
 43
0.0000000001
 40
0.0
 40
0.0
 40
0.0
 40
1.551140549893245
 40
1.551140549893245
 40
1.551140549893245
 10
214.4385376567402
 20
19.00000000000003
 30
0.0
 41
1.0
 10
214.3630695103829
 20
26.80222792710367
 30
0.0
 41
1.000017484416626
 10
214.2884707816857
 20
34.51085149098626
 30
0.0
 41
1.000001075532673
  0
LINE
  5
2BB
330
1F
100
AcDbEntity
  8
0
100
AcDbLine
 10
231.0496612787138
 20
19.45711127581123
 30
0.0
 11
230.7914572962827
 21
34.03389122389584
 31
0.0
  0
LINE
  5
2BC
330
1F
100
AcDbEntity
  8
0
100
AcDbLine
 10
231.3353648857042
 20
19.45711127581128
 30
0.0
 11
231.0771609032731
 21
34.03389122389581
 31
0.0
  0
SPLINE
  5
2BD
330
1F
100
AcDbEntity
  8
0
100
AcDbSpline
210
0.0
220
0.0
230
1.0
 70
    12
 71
     2
 72
     6
 73
     3
 74
     0
 42
0.0000000001
 43
0.0000000001
 40
0.0
 40
0.0
 40
0.0
 40
1.551140549613228
 40
1.551140549613228
 40
1.551140549613228
 10
229.5102505586392
 20
19.00000000000003
 30
0.0
 41
1.0
 10
229.3708867882024
 20
26.802227927047
 30
0.0
 41
1.000017478722532
 10
229.2331674810848
 20
34.51085149098626
 30
0.0
 41
1.000001075182413
  0
LINE
  5
2BE
330
1F
100
AcDbEntity
  8
0
100
AcDbLine
 10
197.4580688553919
 20
19.45711127581128
 30
0.0
 11
197.4769718941684
 21
34.03389122389584
 31
0.0
  0
LINE
  5
2BF
330
1F
100
AcDbEntity
  8
0
100
AcDbLine
 10
197.9747414462145
 20
19.45711127581128
 30
0.0
 11
197.9936444849904
 21
34.03389122389581
 31
0.0
  0
SPLINE
  5
2C0
330
1F
100
AcDbEntity
  8
0
100
AcDbSpline
210
0.0
220
0.0
230
1.0
 70
    12
 71
     2
 72
     6
 73
     3
 74
     0
 42
0.0000000001
 43
0.0000000001
 40
1.526309784652416
 40
1.526309784652416
 40
1.526309784652416
 40
1.600362735801205
 40
1.600362735801205
 40
1.600362735801205
 10
200.0
 20
19.74476973777175
 30
0.0
 41
1.000001592174451
 10
199.9994447358799
 20
19.3724921142975
 30
0.0
 41
1.0000008347115
 10
199.998889233901
 20
19.00000000000003
 30
0.0
 41
1.0
  0
SPLINE
  5
2C1
330
1F
100
AcDbEntity
  8
0
100
AcDbSpline
210
0.0
220
0.0
230
1.0
 70
    12
 71
     2
 72
     6
 73
     3
 74
     0
 42
0.0000000001
 43
0.0000000001
 40
0.0
 40
0.0
 40
0.0
 40
1.551140549935692
 40
1.551140549935692
 40
1.551140549935692
 10
195.4980302498311
 20
19.00000000000003
 30
0.0
 41
1.0
 10
195.5066793564242
 20
26.80222792596246
 30
0.0
 41
1.000017485130622
 10
195.5151898752583
 20
34.51085149098626
 30
0.0
 41
1.000001075576592
  0
LINE
  5
2C2
330
1F
100
AcDbEntity
  8
0
100
AcDbLine
 10
237.3206452256249
 20
19.45711127581128
 30
0.0
 11
237.0115832735746
 21
34.03389122389584
 31
0.0
  0
SPLINE
  5
2C3
330
1F
100
AcDbEntity
  8
0
100
AcDbSpline
210
0.0
220
0.0
230
1.0
 70
    12
 71
     2
 72
     6
 73
     3
 74
     0
 42
0.0000000001
 43
0.0000000001
 40
0.0
 40
0.0
 40
0.0
 40
1.551140549891308
 40
1.551140549891308
 40
1.551140549891308
 10
236.6747156549109
 20
19.00000000000003
 30
0.0
 41
1.0
 10
236.5087986701151
 20
26.80222792804702
 30
0.0
 41
1.000017484499684
 10
236.3448605617236
 20
34.51085149098626
 30
0.0
 41
1.000001075537782
  0
LINE
  5
2C4
330
1F
100
AcDbEntity
  8
0
100
AcDbLine
 10
179.138300441286
 20
19.45711127581123
 30
0.0
 11
179.3092019291002
 21
34.03389122389584
 31
0.0
  0
LINE
  5
2C5
330
1F
100
AcDbEntity
  8
0
100
AcDbLine
 10
179.5699515056699
 20
19.45711127581128
 30
0.0
 11
179.7408529934841
 21
34.03389122389581
 31
0.0
  0
SPLINE
  5
2C6
330
1F
100
AcDbEntity
  8
0
100
AcDbSpline
210
0.0
220
0.0
230
1.0
 70
    12
 71
     2
 72
     6
 73
     3
 74
     0
 42
0.0000000001
 43
0.0000000001
 40
1.526309784540673
 40
1.526309784540673
 40
1.526309784540673
 40
1.600362735801205
 40
1.600362735801205
 40
1.600362735801205
 10
181.5329101874408
 20
19.74476973776055
 30
0.0
 41
1.000001592041617
 10
181.5284753599376
 20
19.37249211423884
 30
0.0
 41
1.000000834641861
 10
181.5240380566883
 20
19.00000000000003
 30
0.0
 41
1.0
  0
SPLINE
  5
2C7
330
1F
100
AcDbEntity
  8
0
100
AcDbSpline
210
0.0
220
0.0
230
1.0
 70
    12
 71
     2
 72
     6
 73
     3
 74
     0
 42
0.0000000001
 43
0.0000000001
 40
0.0
 40
0.0
 40
0.0
 40
1.551140549815727
 40
1.551140549815727
 40
1.551140549815727
 10
177.7638220018293
 20
19.00000000000003
 30
0.0
 41
1.0
 10
177.8542708403161
 20
26.80222793301451
 30
0.0
 41
1.000017483609144
 10
177.943610219962
 20
34.51085149098626
 30
0.0
 41
1.000001075483003
  0
LINE
  5
2C8
330
1F
100
AcDbEntity
  8
0
100
AcDbLine
 10
166.4084075766782
 20
19.45711127581128
 30
0.0
 11
166.6855145978852
 21
34.03389122389584
 31
0.0
  0
LINE
  5
2C9
330
1F
100
AcDbEntity
  8
0
100
AcDbLine
 10
166.6393765605098
 20
19.45711127581128
 30
0.0
 11
166.9164835817173
 21
34.03389122389581
 31
0.0
  0
SPLINE
  5
2CA
330
1F
100
AcDbEntity
  8
0
100
AcDbSpline
210
0.0
220
0.0
230
1.0
 70
    12
 71
     2
 72
     6
 73
     3
 74
     0
 42
0.0000000001
 43
0.0000000001
 40
1.526309784952639
 40
1.526309784952639
 40
1.526309784952639
 40
1.600362735801206
 40
1.600362735801206
 40
1.600362735801206
 10
168.0140621767095
 20
19.74476973774043
 30
0.0
 41
1.000001592463685
 10
168.0069360942752
 20
19.37249211440994
 30
0.0
 41
1.000000834863133
 10
167.9998059615745
 20
19.00000000000003
 30
0.0
 41
1.0
  0
SPLINE
  5
2CB
330
1F
100
AcDbEntity
  8
0
100
AcDbSpline
210
0.0
220
0.0
230
1.0
 70
    12
 71
     2
 72
     6
 73
     3
 74
     0
 42
0.0000000001
 43
0.0000000001
 40
0.0
 40
0.0
 40
0.0
 40
1.551140549844104
 40
1.551140549844104
 40
1.551140549844104
 10
165.9877796911919
 20
19.00000000000003
 30
0.0
 41
1.0
 10
166.1357925682082
 20
26.80222792628061
 30
0.0
 41
1.000017483311883
 10
166.282022394173
 20
34.51085149098626
 30
0.0
 41
1.000001075464717
  0
SPLINE
  5
2CC
330
1F
100
AcDbEntity
  8
0
100
AcDbSpline
210
0.0
220
0.0
230
1.0
 70
    12
 71
     2
 72
     6
 73
     3
 74
     0
 42
0.0000000001
 43
0.0000000001
 40
1.526309785305277
 40
1.526309785305277
 40
1.526309785305277
 40
1.600362735801204
 40
1.600362735801204
 40
1.600362735801204
 10
231.9859378232895
 20
19.74476973777817
 30
0.0
 41
1.000001593098517
 10
231.9925086416006
 20
19.37249211463862
 30
0.0
 41
1.00000083519595
 10
231.999083272327
 20
19.00000000000003
 30
0.0
 41
1.0
  0
SPLINE
  5
2CD
330
1F
100
AcDbEntity
  8
0
100
AcDbSpline
210
0.0
220
0.0
230
1.0
 70
    12
 71
     2
 72
     6
 73
     3
 74
     0
 42
0.0000000001
 43
0.0000000001
 40
1.526309784709629
 40
1.526309784709629
 40
1.526309784709629
 40
1.600362735801205
 40
1.600362735801205
 40
1.600362735801205
 10
218.4670898125592
 20
19.74476973776788
 30
0.0
 41
1.000001592180291
 10
218.4705628943939
 20
19.37249211431046
 30
0.0
 41
1.000000834714562
 10
218.4740380399926
 20
19.00000000000003
 30
0.0
 41
1.0
  0
LINE
  5
2CE
330
1F
100
AcDbEntity
  8
0
100
AcDbLine
 10
237.371670425287
 20
19.48782226833072
 30
0.0
 11
237.0639388741401
 21
34.00185440458697
 31
0.0
  0
LINE
  5
2CF
330
1F
100
AcDbEntity
  8
0
100
AcDbLine
 10
175.0
 20
0.0
 30
0.0
 11
225.0
 21
0.0
 31
0.0
  0
LINE
  5
2D0
330
1F
100
AcDbEntity
  8
0
100
AcDbLine
 10
175.0
 20
0.0
 30
0.0
 11
175.0
 21
0.4000000000000057
 31
0.0
  0
LINE
  5
2D1
330
1F
100
AcDbEntity
  8
0
100
AcDbLine
 10
225.0
 20
0.0
 30
0.0
 11
225.0
 21
0.4000000000000057
 31
0.0
  0
LINE
  5
2D2
330
1F
100
AcDbEntity
  8
0
100
AcDbLine
 10
0.8999999999962255
 20
15.00000000000003
 30
0.0
 11
-0.9000000000037289
 21
15.00000000000003
 31
0.0
  0
LINE
  5
2D3
330
1F
100
AcDbEntity
  8
0
100
AcDbLine
 10
4.04145188432335
 20
11.69041050590695
 30
0.0
 11
4.041451884322668
 21
10.30958949409307
 31
0.0
  0
LINE
  5
2D4
330
1F
100
AcDbEntity
  8
0
100
AcDbLine
 10
-4.041451884331991
 20
10.30958949409307
 30
0.0
 11
-4.041451884331308
 21
11.69041050590692
 31
0.0
  0
CIRCLE
  5
2D5
330
1F
100
AcDbEntity
  8
0
100
AcDbCircle
 10
-0.0000000000143245
 20
11.00000000000003
 30
0.0
 40
7.750000000000001
  0
CIRCLE
  5
2D6
330
1F
100
AcDbEntity
  8
0
100
AcDbCircle
 10
-0.0000000000145519
 20
11.00000000000003
 30
0.0
 40
7.25
  0
CIRCLE
  5
2D7
330
1F
100
AcDbEntity
  8
0
100
AcDbCircle
 10
-0.0000000000145519
 20
11.00000000000003
 30
0.0
 40
6.099999999999999
  0
CIRCLE
  5
2D8
330
1F
100
AcDbEntity
  8
0
100
AcDbCircle
 10
-0.0000000000120508
 20
11.00000000000003
 30
0.0
 40
4.099999999999999
  0
LINE
  5
2D9
330
1F
100
AcDbEntity
  8
0
100
AcDbLine
 10
-36.94999998330468
 20
19.00000000000003
 30
0.0
 11
36.94999998330422
 21
19.00000000000003
 31
0.0
  0
LINE
  5
2DA
330
1F
100
AcDbEntity
  8
0
100
AcDbLine
 10
37.44999999999982
 20
18.50000000000003
 30
0.0
 11
6.009618943222449
 21
18.50000000000003
 31
0.0
  0
LINE
  5
2DB
330
1F
100
AcDbEntity
  8
0
100
AcDbLine
 10
-6.009618943244504
 20
18.50000000000003
 30
0.0
 11
-37.45000000000004
 21
18.50000000000003
 31
0.0
  0
LINE
  5
2DC
330
1F
100
AcDbEntity
  8
0
100
AcDbLine
 10
36.94999999999982
 20
19.00000000000003
 30
0.0
 11
37.44999999999982
 21
18.50000000000003
 31
0.0
  0
LINE
  5
2DD
330
1F
100
AcDbEntity
  8
0
100
AcDbLine
 10
-36.95000000000005
 20
19.00000000000003
 30
0.0
 11
-37.45000000000004
 21
18.50000000000003
 31
0.0
  0
LINE
  5
2DE
330
1F
100
AcDbEntity
  8
0
100
AcDbLine
 10
9.499999999988631
 20
16.48482755730146
 30
0.0
 11
9.499999999988631
 21
5.51517244269857
 31
0.0
  0
LINE
  5
2DF
330
1F
100
AcDbEntity
  8
0
100
AcDbLine
 10
-9.500000000011141
 20
5.51517244269857
 30
0.0
 11
-9.500000000011141
 21
16.48482755730146
 31
0.0
  0
LINE
  5
2E0
330
1F
100
AcDbEntity
  8
0
100
AcDbLine
 10
-0.6402614397811704
 20
0.4000000000000341
 30
0.0
 11
-9.500000000011141
 21
5.51517244269857
 31
0.0
  0
LINE
  5
2E1
330
1F
100
AcDbEntity
  8
0
100
AcDbLine
 10
9.499999999988631
 20
5.51517244269857
 30
0.0
 11
0.6402614397586604
 21
0.4000000000000341
 31
0.0
  0
LINE
  5
2E2
330
1F
100
AcDbEntity
  8
0
100
AcDbLine
 10
-9.500000000011141
 20
16.48482755730146
 30
0.0
 11
-5.143593539460198
 21
19.00000000000003
 31
0.0
  0
LINE
  5
2E3
330
1F
100
AcDbEntity
  8
0
100
AcDbLine
 10
5.143593539437688
 20
19.00000000000003
 30
0.0
 11
9.499999999988631
 21
16.48482755730146
 31
0.0
  0
LINE
  5
2E4
330
1F
100
AcDbEntity
  8
0
100
AcDbLine
 10
27.0
 20
0.4000000000000341
 30
0.0
 11
-27.0
 21
0.4000000000000341
 31
0.0
  0
LINE
  5
2E5
330
1F
100
AcDbEntity
  8
0
100
AcDbLine
 10
-37.45000000000004
 20
17.15470053837927
 30
0.0
 11
-8.339745962166489
 21
17.15470053837927
 31
0.0
  0
ARC
  5
2E6
330
1F
100
AcDbEntity
  8
0
100
AcDbCircle
 10
35.44999999999982
 20
17.15470053837927
 30
0.0
 40
2.0
100
AcDbArc
 50
299.9999999999997
 51
0.0
  0
ARC
  5
2E7
330
1F
100
AcDbEntity
  8
0
100
AcDbCircle
 10
-35.45000000000005
 20
17.15470053837927
 30
0.0
 40
2.0
100
AcDbArc
 50
180.0
 51
240.0000000000002
  0
ARC
  5
2E8
330
1F
100
AcDbEntity
  8
0
100
AcDbCircle
 10
-31.00000000000023
 20
9.966689686968408
 30
0.0
 40
2.0
100
AcDbArc
 50
0.0
 51
60.00000000000028
  0
ARC
  5
2E9
330
1F
100
AcDbEntity
  8
0
100
AcDbCircle
 10
31.0
 20
9.966689686968408
 30
0.0
 40
2.0
100
AcDbArc
 50
119.9999999999997
 51
180.0
  0
ARC
  5
2EA
330
1F
100
AcDbEntity
  8
0
100
AcDbCircle
 10
-27.0
 20
2.400000000000005
 30
0.0
 40
2.0
100
AcDbArc
 50
180.0
 51
270.0
  0
ARC
  5
2EB
330
1F
100
AcDbEntity
  8
0
100
AcDbCircle
 10
27.0
 20
2.400000000000005
 30
0.0
 40
2.0
100
AcDbArc
 50
270.0
 51
0.0
  0
LINE
  5
2EC
330
1F
100
AcDbEntity
  8
0
100
AcDbLine
 10
-30.0
 20
11.6987404945373
 30
0.0
 11
-36.45000000000005
 21
15.42264973081038
 31
0.0
  0
LINE
  5
2ED
330
1F
100
AcDbEntity
  8
0
100
AcDbLine
 10
30.0
 20
11.69874049453727
 30
0.0
 11
36.44999999999982
 21
15.42264973081038
 31
0.0
  0
LINE
  5
2EE
330
1F
100
AcDbEntity
  8
0
100
AcDbLine
 10
29.0
 20
9.966689686968408
 30
0.0
 11
29.0
 21
2.400000000000005
 31
0.0
  0
LINE
  5
2EF
330
1F
100
AcDbEntity
  8
0
100
AcDbLine
 10
-29.00000000000023
 20
9.966689686968408
 30
0.0
 11
-29.00000000000023
 21
2.400000000000005
 31
0.0
  0
LINE
  5
2F0
330
1F
100
AcDbEntity
  8
0
100
AcDbLine
 10
-37.45000000000004
 20
17.15470053837927
 30
0.0
 11
-37.45000000000004
 21
18.50000000000003
 31
0.0
  0
LINE
  5
2F1
330
1F
100
AcDbEntity
  8
0
100
AcDbLine
 10
37.44999999999982
 20
17.15470053837927
 30
0.0
 11
37.44999999999982
 21
18.50000000000003
 31
0.0
  0
LINE
  5
2F2
330
1F
100
AcDbEntity
  8
0
100
AcDbLine
 10
35.72587746547697
 20
76.62754838882216
 30
0.0
 11
36.62051899012522
 21
34.51085149098626
 31
0.0
  0
LINE
  5
2F3
330
1F
100
AcDbEntity
  8
0
100
AcDbLine
 10
-35.7258774654772
 20
76.62754838882216
 30
0.0
 11
-36.62051899012545
 21
34.51085149098626
 31
0.0
  0
ARC
  5
2F4
330
1F
100
AcDbEntity
  8
0
100
AcDbCircle
 10
26.12804259455697
 20
76.42367148833608
 30
0.0
 40
9.599999999999981
100
AcDbArc
 50
1.216892103551548
 51
65.9050083776184
  0
ARC
  5
2F5
330
1F
100
AcDbEntity
  8
0
100
AcDbCircle
 10
-26.1280425945572
 20
76.42367148833608
 30
0.0
 40
9.599999999999981
100
AcDbArc
 50
114.0949916223816
 51
178.7831078964484
  0
ARC
  5
2F6
330
1F
100
AcDbEntity
  8
0
100
AcDbCircle
 10
0.0
 20
18.0
 30
0.0
 40
73.59999999999999
100
AcDbArc
 50
65.9050083776184
 51
114.0949916223816
  0
LINE
  5
2F7
330
1F
100
AcDbEntity
  8
0
100
AcDbLine
 10
-29.23316748109164
 20
34.51085149098626
 30
0.0
 11
-33.71797760583104
 21
34.51085149098626
 31
0.0
  0
LINE
  5
2F8
330
1F
100
AcDbEntity
  8
0
100
AcDbLine
 10
-14.2884707816961
 20
34.51085149098626
 30
0.0
 11
-22.05638978004663
 21
34.51085149098626
 31
0.0
  0
LINE
  5
2F9
330
1F
100
AcDbEntity
  8
0
100
AcDbLine
 10
4.484810124730756
 20
34.51085149098626
 30
0.0
 11
-4.484810124752584
 21
34.51085149098626
 31
0.0
  0
LINE
  5
2FA
330
1F
100
AcDbEntity
  8
0
100
AcDbLine
 10
22.05638978002889
 20
34.51085149098626
 30
0.0
 11
14.28847078167564
 21
34.51085149098626
 31
0.0
  0
LINE
  5
2FB
330
1F
100
AcDbEntity
  8
0
100
AcDbLine
 10
33.7179776058224
 20
34.51085149098626
 30
0.0
 11
29.23316748107846
 21
34.51085149098626
 31
0.0
  0
LINE
  5
2FC
330
1F
100
AcDbEntity
  8
0
100
AcDbLine
 10
36.62051899012522
 20
34.51085149098626
 30
0.0
 11
36.34486056172227
 21
34.51085149098626
 31
0.0
  0
LINE
  5
2FD
330
1F
100
AcDbEntity
  8
0
100
AcDbLine
 10
36.62051899012522
 20
34.51085149098626
 30
0.0
 11
36.62509567048664
 21
34.50627481062466
 31
0.0
  0
LINE
  5
2FE
330
1F
100
AcDbEntity
  8
0
100
AcDbLine
 10
-36.34486056172523
 20
34.51085149098626
 30
0.0
 11
-36.62051899012522
 21
34.51085149098626
 31
0.0
  0
LINE
  5
2FF
330
1F
100
AcDbEntity
  8
0
100
AcDbLine
 10
-36.62051899012545
 20
34.51085149098626
 30
0.0
 11
-36.62509567048687
 21
34.50627481062466
 31
0.0
  0
SPLINE
  5
300
330
1F
100
AcDbEntity
  8
0
100
AcDbSpline
210
0.0
220
0.0
230
1.0
 70
    12
 71
     2
 72
     6
 73
     3
 74
     0
 42
0.0000000001
 43
0.0000000001
 40
0.0
 40
0.0
 40
0.0
 40
0.2128103359009543
 40
0.2128103359009543
 40
0.2128103359009543
 10
-29.23316748109164
 20
34.51085149098626
 30
0.0
 41
1.0
 10
-30.00678810071713
 20
34.30208283403298
 30
0.0
 41
1.000437150520186
 10
-30.79145729628908
 20
34.03389122389584
 30
0.0
 41
1.000051599651773
  0
SPLINE
  5
301
330
1F
100
AcDbEntity
  8
0
100
AcDbSpline
210
0.0
220
0.0
230
1.0
 70
    12
 71
     2
 72
     6
 73
     3
 74
     0
 42
0.0000000001
 43
0.0000000001
 40
0.0133474178829608
 40
0.0133474178829608
 40
0.0133474178829608
 40
0.223829722689825
 40
0.223829722689825
 40
0.223829722689825
 10
-31.07716090327949
 20
34.03389122389581
 30
0.0
 41
1.000051599651831
 10
-31.39927148898915
 20
34.29915007975941
 30
0.0
 41
1.000432932800666
 10
-31.7182632666827
 20
34.50627481062466
 30
0.0
 41
1.000009465930894
  0
SPLINE
  5
302
330
1F
100
AcDbEntity
  8
0
100
AcDbSpline
210
0.0
220
0.0
230
1.0
 70
     8
 71
     3
 72
    10
 73
     6
 74
     0
 42
0.0000000001
 43
0.0000000001
 40
0.5281277612654004
 40
0.5281277612654004
 40
0.5281277612654004
 40
0.5281277612654004
 40
0.5331245581478901
 40
0.5331245581478901
 40
0.5543391985750568
 40
0.5543391985750568
 40
0.5543391985750568
 40
0.5543391985750568
 10
-31.07716090327949
 20
34.03389122389581
 30
0.0
 10
-31.07200593787752
 20
34.02964609726794
 30
0.0
 10
-31.06644165840453
 20
34.02577908599611
 30
0.0
 10
-31.03511557455704
 20
34.00756667106151
 30
0.0
 10
-31.00235388040142
 20
33.99999999999989
 30
0.0
 10
-30.96332339812852
 20
33.99999999999989
 30
0.0
  0
SPLINE
  5
303
330
1F
100
AcDbEntity
  8
0
100
AcDbSpline
210
0.0
220
0.0
230
1.0
 70
     8
 71
     3
 72
    10
 73
     6
 74
     0
 42
0.0000000001
 43
0.0000000001
 40
0.5543391985750568
 40
0.5543391985750568
 40
0.5543391985750568
 40
0.5543391985750568
 40
0.5755538390022231
 40
0.5755538390022231
 40
0.5805506358847145
 40
0.5805506358847145
 40
0.5805506358847145
 40
0.5805506358847145
 10
-30.96332339812852
 20
33.99999999999989
 30
0.0
 10
-30.92429291585586
 20
33.99999999999989
 30
0.0
 10
-30.87856617110924
 20
34.00756667106151
 30
0.0
 10
-30.81606131464833
 20
34.02577908599611
 30
0.0
 10
-30.80387759569544
 20
34.02964609726797
 30
0.0
 10
-30.79145729628908
 20
34.03389122389584
 30
0.0
  0
SPLINE
  5
304
330
1F
100
AcDbEntity
  8
0
100
AcDbSpline
210
0.0
220
0.0
230
1.0
 70
    12
 71
     2
 72
     6
 73
     3
 74
     0
 42
0.0000000001
 43
0.0000000001
 40
0.0
 40
0.0
 40
0.0
 40
0.2128103359009481
 40
0.2128103359009481
 40
0.2128103359009481
 10
-14.2884707816961
 20
34.51085149098626
 30
0.0
 41
1.0
 10
-15.29780706323163
 20
34.302082834033
 30
0.0
 41
1.000437150519849
 10
-16.32078520268487
 20
34.03389122389584
 30
0.0
 41
1.000051599651733
  0
SPLINE
  5
305
330
1F
100
AcDbEntity
  8
0
100
AcDbSpline
210
0.0
220
0.0
230
1.0
 70
    12
 71
     2
 72
     6
 73
     3
 74
     0
 42
0.0000000001
 43
0.0000000001
 40
0.0133474178829771
 40
0.0133474178829771
 40
0.0133474178829771
 40
0.2238297226898269
 40
0.2238297226898269
 40
0.2238297226898269
 10
-16.78403731648336
 20
34.03389122389581
 30
0.0
 41
1.000051599651731
 10
-17.55291313822567
 20
34.29915007975941
 30
0.0
 41
1.000432932799824
 10
-18.31254783525287
 20
34.50627481062466
 30
0.0
 41
1.000009465930876
  0
SPLINE
  5
306
330
1F
100
AcDbEntity
  8
0
100
AcDbSpline
210
0.0
220
0.0
230
1.0
 70
     8
 71
     3
 72
    10
 73
     6
 74
     0
 42
0.0000000001
 43
0.0000000001
 40
0.5281277612654018
 40
0.5281277612654018
 40
0.5281277612654018
 40
0.5281277612654018
 40
0.5331245581478918
 40
0.5331245581478918
 40
0.5543391985750585
 40
0.5543391985750585
 40
0.5543391985750585
 40
0.5543391985750585
 10
-16.78403731648336
 20
34.03389122389581
 30
0.0
 10
-16.77173244841856
 20
34.02964609726794
 30
0.0
 10
-16.75911473802784
 20
34.02577908599611
 30
0.0
 10
-16.69138558704571
 20
34.00756667106151
 30
0.0
 10
-16.63122200874318
 20
33.99999999999986
 30
0.0
 10
-16.56793630645211
 20
33.99999999999986
 30
0.0
  0
SPLINE
  5
307
330
1F
100
AcDbEntity
  8
0
100
AcDbSpline
210
0.0
220
0.0
230
1.0
 70
     8
 71
     3
 72
    10
 73
     6
 74
     0
 42
0.0000000001
 43
0.0000000001
 40
0.5543391985750585
 40
0.5543391985750585
 40
0.5543391985750585
 40
0.5543391985750585
 40
0.5755538390022251
 40
0.5755538390022251
 40
0.5805506358847179
 40
0.5805506358847179
 40
0.5805506358847179
 40
0.5805506358847179
 10
-16.56793630645211
 20
33.99999999999986
 30
0.0
 10
-16.50465060416104
 20
33.99999999999986
 30
0.0
 10
-16.43754965257858
 20
34.00756667106151
 30
0.0
 10
-16.35313728215874
 20
34.02577908599611
 30
0.0
 10
-16.33697762472707
 20
34.02964609726797
 30
0.0
 10
-16.32078520268487
 20
34.03389122389584
 30
0.0
  0
SPLINE
  5
308
330
1F
100
AcDbEntity
  8
0
100
AcDbSpline
210
0.0
220
0.0
230
1.0
 70
    12
 71
     2
 72
     6
 73
     3
 74
     0
 42
0.0000000001
 43
0.0000000001
 40
0.0
 40
0.0
 40
0.0
 40
0.2128103359009415
 40
0.2128103359009415
 40
0.2128103359009415
 10
4.484810124730756
 20
34.51085149098626
 30
0.0
 41
1.0
 10
3.510209022813569
 20
34.30208283403298
 30
0.0
 41
1.000437150519239
 10
2.523028105820685
 20
34.03389122389584
 30
0.0
 41
1.000051599651662
  0
SPLINE
  5
309
330
1F
100
AcDbEntity
  8
0
100
AcDbSpline
210
0.0
220
0.0
230
1.0
 70
    12
 71
     2
 72
     6
 73
     3
 74
     0
 42
0.0000000001
 43
0.0000000001
 40
0.0133474178829831
 40
0.0133474178829831
 40
0.0133474178829831
 40
0.2238297226898242
 40
0.2238297226898242
 40
0.2238297226898242
 10
2.006355514998176
 20
34.03389122389581
 30
0.0
 41
1.000051599651694
 10
0.996734112739432
 20
34.29915007975939
 30
0.0
 41
1.000432932799512
 10
-0.0000000000109139
 20
34.50627481062466
 30
0.0
 41
1.000009465930869
  0
SPLINE
  5
30A
330
1F
100
AcDbEntity
  8
0
100
AcDbSpline
210
0.0
220
0.0
230
1.0
 70
     8
 71
     3
 72
    10
 73
     6
 74
     0
 42
0.0000000001
 43
0.0000000001
 40
0.528127761265401
 40
0.528127761265401
 40
0.528127761265401
 40
0.528127761265401
 40
0.5331245581478905
 40
0.5331245581478905
 40
0.5543391985750573
 40
0.5543391985750573
 40
0.5543391985750573
 40
0.5543391985750573
 10
2.006355514998176
 20
34.03389122389581
 30
0.0
 10
2.022513206264875
 20
34.02964609726794
 30
0.0
 10
2.03880344226377
 20
34.02577908599611
 30
0.0
 10
2.124787689070899
 20
34.00756667106151
 30
0.0
 10
2.19623236930056
 20
33.99999999999986
 30
0.0
 10
2.266815938788568
 20
33.99999999999986
 30
0.0
  0
SPLINE
  5
30B
330
1F
100
AcDbEntity
  8
0
100
AcDbSpline
210
0.0
220
0.0
230
1.0
 70
     8
 71
     3
 72
    10
 73
     6
 74
     0
 42
0.0000000001
 43
0.0000000001
 40
0.5543391985750573
 40
0.5543391985750573
 40
0.5543391985750573
 40
0.5543391985750573
 40
0.575553839002224
 40
0.575553839002224
 40
0.5805506358847165
 40
0.5805506358847165
 40
0.5805506358847165
 40
0.5805506358847165
 10
2.266815938788568
 20
33.99999999999986
 30
0.0
 10
2.337399508276348
 20
33.99999999999986
 30
0.0
 10
2.407895020907062
 20
34.00756667106151
 30
0.0
 10
2.49159667880076
 20
34.02577908599611
 30
0.0
 10
2.507402307552411
 20
34.02964609726797
 30
0.0
 10
2.523028105820685
 20
34.03389122389584
 30
0.0
  0
SPLINE
  5
30C
330
1F
100
AcDbEntity
  8
0
100
AcDbSpline
210
0.0
220
0.0
230
1.0
 70
    12
 71
     2
 72
     6
 73
     3
 74
     0
 42
0.0000000001
 43
0.0000000001
 40
0.0
 40
0.0
 40
0.0
 40
0.2128103359009462
 40
0.2128103359009462
 40
0.2128103359009462
 10
22.05638978002889
 20
34.51085149098626
 30
0.0
 41
1.0
 10
21.37766743593147
 20
34.30208283403294
 30
0.0
 41
1.00043715051984
 10
20.69079807089019
 20
34.03389122389584
 30
0.0
 41
1.000051599651732
  0
SPLINE
  5
30D
330
1F
100
AcDbEntity
  8
0
100
AcDbSpline
210
0.0
220
0.0
230
1.0
 70
    12
 71
     2
 72
     6
 73
     3
 74
     0
 42
0.0000000001
 43
0.0000000001
 40
0.0133474178829778
 40
0.0133474178829778
 40
0.0133474178829778
 40
0.2238297226898233
 40
0.2238297226898233
 40
0.2238297226898233
 10
20.25914700650628
 20
34.03389122389581
 30
0.0
 41
1.00005159965171
 10
19.27930726312706
 20
34.29915007975933
 30
0.0
 41
1.000432932799652
 10
18.312547835234
 20
34.50627481062466
 30
0.0
 41
1.000009465930872
  0
SPLINE
  5
30E
330
1F
100
AcDbEntity
  8
0
100
AcDbSpline
210
0.0
220
0.0
230
1.0
 70
     8
 71
     3
 72
    10
 73
     6
 74
     0
 42
0.0000000001
 43
0.0000000001
 40
0.5281277612654011
 40
0.5281277612654011
 40
0.5281277612654011
 40
0.5281277612654011
 40
0.533124558147891
 40
0.533124558147891
 40
0.5543391985750576
 40
0.5543391985750576
 40
0.5543391985750576
 40
0.5543391985750576
 10
20.25914700650628
 20
34.03389122389581
 30
0.0
 10
20.27482808064838
 20
34.02964609726794
 30
0.0
 10
20.29042588667494
 20
34.02577908599611
 30
0.0
 10
20.37162581981329
 20
34.00756667106151
 30
0.0
 10
20.43520805759909
 20
33.99999999999986
 30
0.0
 10
20.49417668384058
 20
33.99999999999986
 30
0.0
  0
SPLINE
  5
30F
330
1F
100
AcDbEntity
  8
0
100
AcDbSpline
210
0.0
220
0.0
230
1.0
 70
     8
 71
     3
 72
    10
 73
     6
 74
     0
 42
0.0000000001
 43
0.0000000001
 40
0.5543391985750576
 40
0.5543391985750576
 40
0.5543391985750576
 40
0.5543391985750576
 40
0.5755538390022242
 40
0.5755538390022242
 40
0.5805506358847169
 40
0.5805506358847169
 40
0.5805506358847169
 40
0.5805506358847169
 10
20.49417668384058
 20
33.99999999999986
 30
0.0
 10
20.55314531008207
 20
33.99999999999986
 30
0.0
 10
20.60814616808148
 20
34.00756667106151
 30
0.0
 10
20.66870932181132
 20
34.02577908599611
 30
0.0
 10
20.67992581642307
 20
34.02964609726797
 30
0.0
 10
20.69079807089019
 20
34.03389122389584
 30
0.0
  0
SPLINE
  5
310
330
1F
100
AcDbEntity
  8
0
100
AcDbSpline
210
0.0
220
0.0
230
1.0
 70
    12
 71
     2
 72
     6
 73
     3
 74
     0
 42
0.0000000001
 43
0.0000000001
 40
0.0
 40
0.0
 40
0.0
 40
0.2128103359009507
 40
0.2128103359009507
 40
0.2128103359009507
 10
33.7179776058224
 20
34.51085149098626
 30
0.0
 41
1.0
 10
33.51699712353048
 20
34.302082834033
 30
0.0
 41
1.00043715051978
 10
33.31448540210954
 20
34.03389122389584
 30
0.0
 41
1.000051599651725
  0
SPLINE
  5
311
330
1F
100
AcDbEntity
  8
0
100
AcDbSpline
210
0.0
220
0.0
230
1.0
 70
    12
 71
     2
 72
     6
 73
     3
 74
     0
 42
0.0000000001
 43
0.0000000001
 40
0.0133474178829656
 40
0.0133474178829656
 40
0.0133474178829656
 40
0.2238297226898245
 40
0.2238297226898245
 40
0.2238297226898245
 10
33.08351641827767
 20
34.03389122389581
 30
0.0
 41
1.000051599651808
 10
32.39600560172812
 20
34.29915007975933
 30
0.0
 41
1.000432932800467
 10
31.71826326667156
 20
34.50627481062466
 30
0.0
 41
1.00000946593089
  0
SPLINE
  5
312
330
1F
100
AcDbEntity
  8
0
100
AcDbSpline
210
0.0
220
0.0
230
1.0
 70
     8
 71
     3
 72
    10
 73
     6
 74
     0
 42
0.0000000001
 43
0.0000000001
 40
0.5281277612654005
 40
0.5281277612654005
 40
0.5281277612654005
 40
0.5281277612654005
 40
0.5331245581478905
 40
0.5331245581478905
 40
0.5543391985750573
 40
0.5543391985750573
 40
0.5543391985750573
 40
0.5543391985750573
 10
33.08351641827767
 20
34.03389122389581
 30
0.0
 10
33.0945191441424
 20
34.02964609726794
 30
0.0
 10
33.10524510066807
 20
34.02577908599611
 30
0.0
 10
33.15990326362771
 20
34.00756667106151
 30
0.0
 10
33.19858624970175
 20
33.99999999999986
 30
0.0
 10
33.23013933691687
 20
33.99999999999986
 30
0.0
  0
SPLINE
  5
313
330
1F
100
AcDbEntity
  8
0
100
AcDbSpline
210
0.0
220
0.0
230
1.0
 70
     8
 71
     3
 72
    10
 73
     6
 74
     0
 42
0.0000000001
 43
0.0000000001
 40
0.5543391985750573
 40
0.5543391985750573
 40
0.5543391985750573
 40
0.5543391985750573
 40
0.5755538390022239
 40
0.5755538390022239
 40
0.5805506358847161
 40
0.5805506358847161
 40
0.5805506358847161
 40
0.5805506358847161
 10
33.23013933691687
 20
33.99999999999986
 30
0.0
 10
33.26169242413198
 20
33.99999999999986
 30
0.0
 10
33.28646119201631
 20
34.00756667106151
 30
0.0
 10
33.30765799344886
 20
34.02577908599611
 30
0.0
 10
33.31127990324763
 20
34.02964609726797
 30
0.0
 10
33.31448540210954
 20
34.03389122389584
 30
0.0
  0
SPLINE
  5
314
330
1F
100
AcDbEntity
  8
0
100
AcDbSpline
210
0.0
220
0.0
230
1.0
 70
    12
 71
     2
 72
     6
 73
     3
 74
     0
 42
0.0000000001
 43
0.0000000001
 40
0.0
 40
0.0
 40
0.0
 40
0.2116020978240003
 40
0.2116020978240003
 40
0.2116020978240003
 10
-31.99908327233243
 20
19.00000000000003
 30
0.0
 41
1.0
 10
-31.66974291047564
 20
19.20047854618602
 30
0.0
 41
1.000400910300772
 10
-31.33536488571053
 20
19.45711127581128
 30
0.0
 41
1.00006129682887
  0
SPLINE
  5
315
330
1F
100
AcDbEntity
  8
0
100
AcDbSpline
210
0.0
220
0.0
230
1.0
 70
    12
 71
     2
 72
     6
 73
     3
 74
     0
 42
0.0000000001
 43
0.0000000001
 40
0.0175153561006572
 40
0.0175153561006572
 40
0.0175153561006572
 40
0.2291174539242816
 40
0.2291174539242816
 40
0.2291174539242816
 10
-31.04966127872013
 20
19.45711127581128
 30
0.0
 41
1.000061296828673
 10
-30.27568179544232
 20
19.20047854618644
 30
0.0
 41
1.000400910299469
 10
-29.51025055864602
 20
19.00000000000003
 30
0.0
 41
1.0
  0
SPLINE
  5
316
330
1F
100
AcDbEntity
  8
0
100
AcDbSpline
210
0.0
220
0.0
230
1.0
 70
     8
 71
     3
 72
    14
 73
    10
 74
     0
 42
0.0000000001
 43
0.0000000001
 40
0.1579735430055526
 40
0.1579735430055526
 40
0.1579735430055526
 40
0.1579735430055526
 40
0.1631561247759698
 40
0.1631561247759698
 40
0.1840421045220376
 40
0.1840421045220376
 40
0.2049280842681051
 40
0.2049280842681051
 40
0.2101106660385203
 40
0.2101106660385203
 40
0.2101106660385203
 40
0.2101106660385203
 10
-31.04966127872013
 20
19.45711127581128
 30
0.0
 10
-31.06252013762765
 20
19.46137495996905
 30
0.0
 10
-31.07512317104784
 20
19.46523708943098
 30
0.0
 10
-31.13705609151225
 20
19.48256260107953
 30
0.0
 10
-31.181925753104
 20
19.48959993390787
 30
0.0
 10
-31.25877738441295
 20
19.48959993390787
 30
0.0
 10
-31.29157784108065
 20
19.48256260107953
 30
0.0
 10
-31.32382352493483
 20
19.46523708943098
 30
0.0
 10
-31.32980954485811
 20
19.46137495996907
 30
0.0
 10
-31.33536488571053
 20
19.45711127581128
 30
0.0
  0
SPLINE
  5
317
330
1F
100
AcDbEntity
  8
0
100
AcDbSpline
210
0.0
220
0.0
230
1.0
 70
    12
 71
     2
 72
     6
 73
     3
 74
     0
 42
0.0000000001
 43
0.0000000001
 40
0.0175153561006335
 40
0.0175153561006335
 40
0.0175153561006335
 40
0.2291174539242754
 40
0.2291174539242754
 40
0.2291174539242754
 10
-16.45894566692141
 20
19.45711127581128
 30
0.0
 41
1.000061296828901
 10
-15.44276485434807
 20
19.20047854618647
 30
0.0
 41
1.000400910300959
 10
-14.43853765675044
 20
19.00000000000003
 30
0.0
 41
1.0
  0
SPLINE
  5
318
330
1F
100
AcDbEntity
  8
0
100
AcDbSpline
210
0.0
220
0.0
230
1.0
 70
     8
 71
     3
 72
    14
 73
    10
 74
     0
 42
0.0000000001
 43
0.0000000001
 40
0.1579735430055513
 40
0.1579735430055513
 40
0.1579735430055513
 40
0.1579735430055513
 40
0.1631561247759687
 40
0.1631561247759687
 40
0.1840421045220362
 40
0.1840421045220362
 40
0.2049280842681039
 40
0.2049280842681039
 40
0.21011066603852
 40
0.21011066603852
 40
0.21011066603852
 40
0.21011066603852
 10
-16.45894566692141
 20
19.45711127581128
 30
0.0
 10
-16.47582844737712
 20
19.46137495996905
 30
0.0
 10
-16.49266931706256
 20
19.46523708943098
 30
0.0
 10
-16.57696449867194
 20
19.48256260107953
 30
0.0
 10
-16.6431623443907
 20
19.48959993390787
 30
0.0
 10
-16.7677728840606
 20
19.48959993390787
 30
0.0
 10
-16.82751270794893
 20
19.48256260107951
 30
0.0
 10
-16.89592276511757
 20
19.46523708943098
 30
0.0
 10
-16.90922298586361
 20
19.46137495996907
 30
0.0
 10
-16.92219778071967
 20
19.45711127581128
 30
0.0
  0
SPLINE
  5
319
330
1F
100
AcDbEntity
  8
0
100
AcDbSpline
210
0.0
220
0.0
230
1.0
 70
    12
 71
     2
 72
     6
 73
     3
 74
     0
 42
0.0000000001
 43
0.0000000001
 40
0.0
 40
0.0
 40
0.0
 40
0.2116020978239832
 40
0.2116020978239832
 40
0.2116020978239832
 10
-18.4740380400026
 20
19.00000000000003
 30
0.0
 41
1.0
 10
-17.70315549171641
 20
19.20047854618605
 30
0.0
 41
1.000400910300331
 10
-16.92219778071967
 20
19.45711127581128
 30
0.0
 41
1.000061296828803
  0
SPLINE
  5
31A
330
1F
100
AcDbEntity
  8
0
100
AcDbSpline
210
0.0
220
0.0
230
1.0
 70
    12
 71
     2
 72
     6
 73
     3
 74
     0
 42
0.0000000001
 43
0.0000000001
 40
0.0175153561006366
 40
0.0175153561006366
 40
0.0175153561006366
 40
0.2291174539242736
 40
0.2291174539242736
 40
0.2291174539242736
 10
2.541931144596674
 20
19.45711127581128
 30
0.0
 41
1.000061296828861
 10
3.528028458373
 20
19.20047854618644
 30
0.0
 41
1.000400910300701
 10
4.501969750157513
 20
19.00000000000003
 30
0.0
 41
1.0
  0
SPLINE
  5
31B
330
1F
100
AcDbEntity
  8
0
100
AcDbSpline
210
0.0
220
0.0
230
1.0
 70
     8
 71
     3
 72
    14
 73
    10
 74
     0
 42
0.0000000001
 43
0.0000000001
 40
0.1579735430055517
 40
0.1579735430055517
 40
0.1579735430055517
 40
0.1579735430055517
 40
0.1631561247759693
 40
0.1631561247759693
 40
0.1840421045220371
 40
0.1840421045220371
 40
0.2049280842681049
 40
0.2049280842681049
 40
0.2101106660385202
 40
0.2101106660385202
 40
0.2101106660385202
 40
0.2101106660385202
 10
2.541931144596674
 20
19.45711127581128
 30
0.0
 10
2.525548169981902
 20
19.46137495996905
 30
0.0
 10
2.508981961463177
 20
19.46523708943098
 30
0.0
 10
2.424911344546899
 20
19.48256260107951
 30
0.0
 10
2.355122974002142
 20
19.48959993390787
 30
0.0
 10
2.216142819444257
 20
19.48959993390787
 30
0.0
 10
2.145470865902325
 20
19.48256260107953
 30
0.0
 10
2.059226854991493
 20
19.46523708943098
 30
0.0
 10
2.042176216830966
 20
19.46137495996907
 30
0.0
 10
2.025258553774392
 20
19.45711127581128
 30
0.0
  0
SPLINE
  5
31C
330
1F
100
AcDbEntity
  8
0
100
AcDbSpline
210
0.0
220
0.0
230
1.0
 70
    12
 71
     2
 72
     6
 73
     3
 74
     0
 42
0.0000000001
 43
0.0000000001
 40
0.0
 40
0.0
 40
0.0
 40
0.2116020978239851
 40
0.2116020978239851
 40
0.2116020978239851
 10
0.0011107660877769
 20
19.00000000000003
 30
0.0
 41
1.0
 10
1.006978144530421
 20
19.20047854618602
 30
0.0
 41
1.000400910300424
 10
2.025258553774392
 20
19.45711127581128
 30
0.0
 41
1.000061296828818
  0
SPLINE
  5
31D
330
1F
100
AcDbEntity
  8
0
100
AcDbSpline
210
0.0
220
0.0
230
1.0
 70
    12
 71
     2
 72
     6
 73
     3
 74
     0
 42
0.0000000001
 43
0.0000000001
 40
0.0175153561006319
 40
0.0175153561006319
 40
0.0175153561006319
 40
0.2291174539242741
 40
0.2291174539242741
 40
0.2291174539242741
 10
20.86169955870446
 20
19.45711127581123
 30
0.0
 41
1.000061296828931
 10
21.55348939479859
 20
19.20047854618647
 30
0.0
 41
1.00040091030116
 10
22.23617799816157
 20
19.00000000000003
 30
0.0
 41
1.0
  0
SPLINE
  5
31E
330
1F
100
AcDbEntity
  8
0
100
AcDbSpline
210
0.0
220
0.0
230
1.0
 70
     8
 71
     3
 72
    14
 73
    10
 74
     0
 42
0.0000000001
 43
0.0000000001
 40
0.1579735430055507
 40
0.1579735430055507
 40
0.1579735430055507
 40
0.1579735430055507
 40
0.1631561247759692
 40
0.1631561247759692
 40
0.184042104522037
 40
0.184042104522037
 40
0.2049280842681045
 40
0.2049280842681045
 40
0.2101106660385204
 40
0.2101106660385204
 40
0.2101106660385204
 40
0.2101106660385204
 10
20.86169955870446
 20
19.45711127581123
 30
0.0
 10
20.85020619474812
 20
19.46137495996905
 30
0.0
 10
20.83835354959047
 20
19.46523708943098
 30
0.0
 10
20.77703415127735
 20
19.48256260107953
 30
0.0
 10
20.72235499343515
 20
19.48959993390787
 30
0.0
 10
20.6062448441669
 20
19.48959993390787
 30
0.0
 10
20.54357725385035
 20
19.48256260107953
 30
0.0
 10
20.46260830227311
 20
19.46523708943098
 30
0.0
 10
20.44637595142353
 20
19.46137495996907
 30
0.0
 10
20.43004849432055
 20
19.45711127581128
 30
0.0
  0
SPLINE
  5
31F
330
1F
100
AcDbEntity
  8
0
100
AcDbSpline
210
0.0
220
0.0
230
1.0
 70
    12
 71
     2
 72
     6
 73
     3
 74
     0
 42
0.0000000001
 43
0.0000000001
 40
0.0
 40
0.0
 40
0.0
 40
0.2116020978239921
 40
0.2116020978239921
 40
0.2116020978239921
 10
18.47596194330208
 20
19.00000000000003
 30
0.0
 41
1.0
 10
19.44729280015463
 20
19.20047854618596
 30
0.0
 41
1.000400910300649
 10
20.43004849432055
 20
19.45711127581128
 30
0.0
 41
1.000061296828852
  0
SPLINE
  5
320
330
1F
100
AcDbEntity
  8
0
100
AcDbSpline
210
0.0
220
0.0
230
1.0
 70
    12
 71
     2
 72
     6
 73
     3
 74
     0
 42
0.0000000001
 43
0.0000000001
 40
0.0175153561006503
 40
0.0175153561006503
 40
0.0175153561006503
 40
0.2291174539242752
 40
0.2291174539242752
 40
0.2291174539242752
 10
33.59159242331657
 20
19.45711127581123
 30
0.0
 41
1.000061296828722
 10
33.80371025381533
 20
19.20047854618644
 30
0.0
 41
1.000400910299794
 10
34.01222030880354
 20
19.00000000000003
 30
0.0
 41
1.0
  0
SPLINE
  5
321
330
1F
100
AcDbEntity
  8
0
100
AcDbSpline
210
0.0
220
0.0
230
1.0
 70
     8
 71
     3
 72
    14
 73
    10
 74
     0
 42
0.0000000001
 43
0.0000000001
 40
0.157973543005551
 40
0.157973543005551
 40
0.157973543005551
 40
0.157973543005551
 40
0.1631561247759687
 40
0.1631561247759687
 40
0.1840421045220364
 40
0.1840421045220364
 40
0.2049280842681044
 40
0.2049280842681044
 40
0.2101106660385194
 40
0.2101106660385194
 40
0.2101106660385194
 40
0.2101106660385194
 10
33.59159242331657
 20
19.45711127581123
 30
0.0
 10
33.58806830760932
 20
19.46137495996905
 30
0.0
 10
33.58410513251056
 20
19.46523708943098
 30
0.0
 10
33.56196743605915
 20
19.48256260107953
 30
0.0
 10
33.53704872710614
 20
19.48959993390787
 30
0.0
 10
33.47492020385698
 20
19.48959993390787
 30
0.0
 10
33.43704870698275
 20
19.48256260107953
 30
0.0
 10
33.38305037992609
 20
19.46523708943098
 30
0.0
 10
33.37198576168885
 20
19.46137495996907
 30
0.0
 10
33.3606234394847
 20
19.45711127581128
 30
0.0
  0
SPLINE
  5
322
330
1F
100
AcDbEntity
  8
0
100
AcDbSpline
210
0.0
220
0.0
230
1.0
 70
    12
 71
     2
 72
     6
 73
     3
 74
     0
 42
0.0000000001
 43
0.0000000001
 40
0.0
 40
0.0
 40
0.0
 40
0.2116020978239983
 40
0.2116020978239983
 40
0.2116020978239983
 10
32.00019403841998
 20
19.00000000000003
 30
0.0
 41
1.0
 10
32.67672105500583
 20
19.20047854618599
 30
0.0
 41
1.000400910300755
 10
33.3606234394847
 20
19.45711127581128
 30
0.0
 41
1.000061296828868
  0
LINE
  5
323
330
1F
100
AcDbEntity
  8
0
100
AcDbLine
 10
31.98593782328453
 20
19.74476973776055
 30
0.0
 11
31.71826326667156
 21
34.50627481062466
 31
0.0
  0
SPLINE
  5
324
330
1F
100
AcDbEntity
  8
0
100
AcDbSpline
210
0.0
220
0.0
230
1.0
 70
    12
 71
     2
 72
     6
 73
     3
 74
     0
 42
0.0000000001
 43
0.0000000001
 40
0.0
 40
0.0
 40
0.0
 40
0.0740529509764175
 40
0.0740529509764175
 40
0.0740529509764175
 10
32.00019403841998
 20
19.00000000000003
 30
0.0
 41
1.0
 10
31.99306390572042
 20
19.37249211434451
 30
0.0
 41
1.000000834741554
 10
31.98593782328453
 20
19.74476973776055
 30
0.0
 41
1.000001592231778
  0
LINE
  5
325
330
1F
100
AcDbEntity
  8
0
100
AcDbLine
 10
33.3606234394847
 20
19.45711127581128
 30
0.0
 11
33.08351641827767
 21
34.03389122389581
 31
0.0
  0
LINE
  5
326
330
1F
100
AcDbEntity
  8
0
100
AcDbLine
 10
18.46708981254983
 20
19.74476973774043
 30
0.0
 11
18.312547835234
 21
34.50627481062466
 31
0.0
  0
SPLINE
  5
327
330
1F
100
AcDbEntity
  8
0
100
AcDbSpline
210
0.0
220
0.0
230
1.0
 70
    12
 71
     2
 72
     6
 73
     3
 74
     0
 42
0.0000000001
 43
0.0000000001
 40
0.0
 40
0.0
 40
0.0
 40
0.0740529514313166
 40
0.0740529514313166
 40
0.0740529514313166
 10
18.47596194330185
 20
19.00000000000003
 30
0.0
 41
1.0
 10
18.47152464005375
 20
19.37249211412904
 30
0.0
 41
1.00000083448563
 10
18.46708981254983
 20
19.74476973774043
 30
0.0
 41
1.000001591743615
  0
LINE
  5
328
330
1F
100
AcDbEntity
  8
0
100
AcDbLine
 10
20.43004849432055
 20
19.45711127581128
 30
0.0
 11
20.25914700650628
 21
34.03389122389581
 31
0.0
  0
LINE
  5
329
330
1F
100
AcDbEntity
  8
0
100
AcDbLine
 10
-0.0000000000111413
 20
19.74476973775364
 30
0.0
 11
-0.0000000000109139
 21
34.50627481062466
 31
0.0
  0
SPLINE
  5
32A
330
1F
100
AcDbEntity
  8
0
100
AcDbSpline
210
0.0
220
0.0
230
1.0
 70
    12
 71
     2
 72
     6
 73
     3
 74
     0
 42
0.0000000001
 43
0.0000000001
 40
0.0
 40
0.0
 40
0.0
 40
0.0740529505298529
 40
0.0740529505298529
 40
0.0740529505298529
 10
0.0011107660877769
 20
19.00000000000003
 30
0.0
 41
1.0
 10
0.0005552641084705
 20
19.37249211459144
 30
0.0
 41
1.000000835125452
 10
-0.0000000000111413
 20
19.74476973775364
 30
0.0
 41
1.000001592964046
  0
LINE
  5
32B
330
1F
100
AcDbEntity
  8
0
100
AcDbLine
 10
2.025258553774392
 20
19.45711127581128
 30
0.0
 11
2.006355514998176
 21
34.03389122389581
 31
0.0
  0
LINE
  5
32C
330
1F
100
AcDbEntity
  8
0
100
AcDbLine
 10
-18.46708981256893
 20
19.74476973774659
 30
0.0
 11
-18.31254783525287
 21
34.50627481062466
 31
0.0
  0
SPLINE
  5
32D
330
1F
100
AcDbEntity
  8
0
100
AcDbSpline
210
0.0
220
0.0
230
1.0
 70
    12
 71
     2
 72
     6
 73
     3
 74
     0
 42
0.0000000001
 43
0.0000000001
 40
0.0
 40
0.0
 40
0.0
 40
0.0740529505084265
 40
0.0740529505084265
 40
0.0740529505084265
 10
-18.4740380400026
 20
19.00000000000003
 30
0.0
 41
1.0
 10
-18.4705628944007
 20
19.37249211459382
 30
0.0
 41
1.000000835127842
 10
-18.46708981256893
 20
19.74476973774656
 30
0.0
 41
1.000001592968605
  0
LINE
  5
32E
330
1F
100
AcDbEntity
  8
0
100
AcDbLine
 10
-16.92219778071967
 20
19.45711127581128
 30
0.0
 11
-16.78403731648336
 21
34.03389122389581
 31
0.0
  0
LINE
  5
32F
330
1F
100
AcDbEntity
  8
0
100
AcDbLine
 10
-31.9859378232959
 20
19.74476973774656
 30
0.0
 11
-31.7182632666827
 21
34.50627481062466
 31
0.0
  0
SPLINE
  5
330
330
1F
100
AcDbEntity
  8
0
100
AcDbSpline
210
0.0
220
0.0
230
1.0
 70
    12
 71
     2
 72
     6
 73
     3
 74
     0
 42
0.0000000001
 43
0.0000000001
 40
0.0
 40
0.0
 40
0.0
 40
0.0740529512924211
 40
0.0740529512924211
 40
0.0740529512924211
 10
-31.99908327233243
 20
19.00000000000003
 30
0.0
 41
1.0
 10
-31.99250864161423
 20
19.37249211419421
 30
0.0
 41
1.000000834562095
 10
-31.9859378232959
 20
19.74476973774656
 30
0.0
 41
1.000001591889468
  0
LINE
  5
331
330
1F
100
AcDbEntity
  8
0
100
AcDbLine
 10
-31.33536488571053
 20
19.45711127581128
 30
0.0
 11
-31.07716090327949
 21
34.03389122389581
 31
0.0
  0
SPLINE
  5
332
330
1F
100
AcDbEntity
  8
0
100
AcDbSpline
210
0.0
220
0.0
230
1.0
 70
    12
 71
     2
 72
     6
 73
     3
 74
     0
 42
0.0000000001
 43
0.0000000001
 40
0.0492221860476887
 40
0.0492221860476887
 40
0.0492221860476887
 40
1.600362735801204
 40
1.600362735801204
 40
1.600362735801204
 10
-36.34486056172523
 20
34.51085149098626
 30
0.0
 41
1.000001075339358
 10
-36.50879867018671
 20
26.8022279247526
 30
0.0
 41
1.000017481273941
 10
-36.67471565491223
 20
19.00000000000003
 30
0.0
 41
1.0
  0
SPLINE
  5
333
330
1F
100
AcDbEntity
  8
0
100
AcDbSpline
210
0.0
220
0.0
230
1.0
 70
    12
 71
     2
 72
     6
 73
     3
 74
     0
 42
0.0000000001
 43
0.0000000001
 40
0.049222185699614
 40
0.049222185699614
 40
0.049222185699614
 40
1.600362735801206
 40
1.600362735801206
 40
1.600362735801206
 10
-29.23316748109164
 20
34.51085149098626
 30
0.0
 41
1.000001075885104
 10
-29.37088678800183
 20
26.8022279386521
 30
0.0
 41
1.000017490146005
 10
-29.51025055864602
 20
19.00000000000003
 30
0.0
 41
1.0
  0
SPLINE
  5
334
330
1F
100
AcDbEntity
  8
0
100
AcDbSpline
210
0.0
220
0.0
230
1.0
 70
    12
 71
     2
 72
     6
 73
     3
 74
     0
 42
0.0000000001
 43
0.0000000001
 40
0.0492221855196133
 40
0.0492221855196133
 40
0.0492221855196133
 40
1.600362735801206
 40
1.600362735801206
 40
1.600362735801206
 10
-14.2884707816961
 20
34.51085149098626
 30
0.0
 41
1.000001076049243
 10
-14.36306951035521
 20
26.80222793104253
 30
0.0
 41
1.000017492814399
 10
-14.43853765675044
 20
19.00000000000003
 30
0.0
 41
1.0
  0
SPLINE
  5
335
330
1F
100
AcDbEntity
  8
0
100
AcDbSpline
210
0.0
220
0.0
230
1.0
 70
    12
 71
     2
 72
     6
 73
     3
 74
     0
 42
0.0000000001
 43
0.0000000001
 40
0.0492221857983985
 40
0.0492221857983985
 40
0.0492221857983985
 40
1.600362735801205
 40
1.600362735801205
 40
1.600362735801205
 10
4.484810124730756
 20
34.51085149098626
 30
0.0
 41
1.000001075632743
 10
4.493320643568495
 20
26.80222792249228
 30
0.0
 41
1.000017486043455
 10
4.501969750157741
 20
19.00000000000003
 30
0.0
 41
1.0
  0
SPLINE
  5
336
330
1F
100
AcDbEntity
  8
0
100
AcDbSpline
210
0.0
220
0.0
230
1.0
 70
    12
 71
     2
 72
     6
 73
     3
 74
     0
 42
0.0000000001
 43
0.0000000001
 40
0.0492221857268302
 40
0.0492221857268302
 40
0.0492221857268302
 40
1.600362735801205
 40
1.600362735801205
 40
1.600362735801205
 10
22.05638978002889
 20
34.51085149098626
 30
0.0
 41
1.00000107580297
 10
22.14572915967938
 20
26.80222793262033
 30
0.0
 41
1.00001748881079
 10
22.23617799816179
 20
19.00000000000003
 30
0.0
 41
1.0
  0
SPLINE
  5
337
330
1F
100
AcDbEntity
  8
0
100
AcDbSpline
210
0.0
220
0.0
230
1.0
 70
    12
 71
     2
 72
     6
 73
     3
 74
     0
 42
0.0000000001
 43
0.0000000001
 40
0.049222185848
 40
0.049222185848
 40
0.049222185848
 40
1.600362735801205
 40
1.600362735801205
 40
1.600362735801205
 10
33.7179776058224
 20
34.51085149098626
 30
0.0
 41
1.000001075653813
 10
33.86420743166173
 20
26.80222793289761
 30
0.0
 41
1.000017486385976
 10
34.01222030880354
 20
19.00000000000003
 30
0.0
 41
1.0
  0
LINE
  5
338
330
1F
100
AcDbEntity
  8
0
100
AcDbLine
 10
33.59159242331657
 20
19.45711127581123
 30
0.0
 11
33.31448540210954
 21
34.03389122389584
 31
0.0
  0
LINE
  5
339
330
1F
100
AcDbEntity
  8
0
100
AcDbLine
 10
20.86169955870446
 20
19.45711127581123
 30
0.0
 11
20.69079807089019
 21
34.03389122389584
 31
0.0
  0
LINE
  5
33A
330
1F
100
AcDbEntity
  8
0
100
AcDbLine
 10
2.541931144596674
 20
19.45711127581128
 30
0.0
 11
2.523028105820685
 21
34.03389122389584
 31
0.0
  0
LINE
  5
33B
330
1F
100
AcDbEntity
  8
0
100
AcDbLine
 10
-16.45894566692141
 20
19.45711127581128
 30
0.0
 11
-16.32078520268487
 21
34.03389122389584
 31
0.0
  0
LINE
  5
33C
330
1F
100
AcDbEntity
  8
0
100
AcDbLine
 10
-31.04966127872013
 20
19.45711127581128
 30
0.0
 11
-30.79145729628908
 21
34.03389122389584
 31
0.0
  0
SPLINE
  5
33D
330
1F
100
AcDbEntity
  8
0
100
AcDbSpline
210
0.0
220
0.0
230
1.0
 70
    12
 71
     2
 72
     6
 73
     3
 74
     0
 42
0.0000000001
 43
0.0000000001
 40
0.0133474178829761
 40
0.0133474178829761
 40
0.0133474178829761
 40
0.2238297226898279
 40
0.2238297226898279
 40
0.2238297226898279
 10
-37.04318432298987
 20
34.03389122389581
 30
0.0
 41
1.000051599651755
 10
-36.83222040135252
 20
34.29915007975936
 30
0.0
 41
1.000432932800029
 10
-36.62509567048687
 20
34.50627481062466
 30
0.0
 41
1.00000946593088
  0
SPLINE
  5
33E
330
1F
100
AcDbEntity
  8
0
100
AcDbSpline
210
0.0
220
0.0
230
1.0
 70
     8
 71
     3
 72
    10
 73
     6
 74
     0
 42
0.0000000001
 43
0.0000000001
 40
0.5281277612654002
 40
0.5281277612654002
 40
0.5281277612654002
 40
0.5281277612654002
 40
0.5331245581478901
 40
0.5331245581478901
 40
0.5543391985750567
 40
0.5543391985750567
 40
0.5543391985750567
 40
0.5543391985750567
 10
-37.04318432298987
 20
34.03389122389581
 30
0.0
 10
-37.04656052906717
 20
34.02964609726794
 30
0.0
 10
-37.04954062470302
 20
34.02577908599611
 30
0.0
 10
-37.06301140685923
 20
34.00756667106151
 30
0.0
 10
-37.06643006634227
 20
33.99999999999986
 30
0.0
 10
-37.06211299029292
 20
33.99999999999986
 30
0.0
  0
SPLINE
  5
33F
330
1F
100
AcDbEntity
  8
0
100
AcDbSpline
210
0.0
220
0.0
230
1.0
 70
     8
 71
     3
 72
    10
 73
     6
 74
     0
 42
0.0000000001
 43
0.0000000001
 40
0.5543391985750567
 40
0.5543391985750567
 40
0.5543391985750567
 40
0.5543391985750567
 40
0.5755538390022233
 40
0.5755538390022233
 40
0.5805506358847156
 40
0.5805506358847156
 40
0.5805506358847156
 40
0.5805506358847156
 10
-37.06211299029292
 20
33.99999999999986
 30
0.0
 10
-37.05779591424334
 20
33.99999999999986
 30
0.0
 10
-37.04569582066028
 20
34.00756667106151
 30
0.0
 10
-37.02184660397006
 20
34.02577908599611
 30
0.0
 10
-37.01690344115013
 20
34.02964609726797
 30
0.0
 10
-37.0115832735753
 20
34.03389122389584
 30
0.0
  0
SPLINE
  5
340
330
1F
100
AcDbEntity
  8
0
100
AcDbSpline
210
0.0
220
0.0
230
1.0
 70
    12
 71
     2
 72
     6
 73
     3
 74
     0
 42
0.0000000001
 43
0.0000000001
 40
0.0
 40
0.0
 40
0.0
 40
0.2128103359009549
 40
0.2128103359009549
 40
0.2128103359009549
 10
-36.34486056172523
 20
34.51085149098626
 30
0.0
 41
1.0
 10
-36.67547449916356
 20
34.30208283403298
 30
0.0
 41
1.000437150520256
 10
-37.0115832735753
 20
34.03389122389584
 30
0.0
 41
1.000051599651782
  0
SPLINE
  5
341
330
1F
100
AcDbEntity
  8
0
100
AcDbSpline
210
0.0
220
0.0
230
1.0
 70
    12
 71
     2
 72
     6
 73
     3
 74
     0
 42
0.0000000001
 43
0.0000000001
 40
0.0
 40
0.0
 40
0.0
 40
0.2116020978239943
 40
0.2116020978239943
 40
0.2116020978239943
 10
-36.94999998330468
 20
19.00000000000003
 30
0.0
 41
1.0
 10
-37.1504482918715
 20
19.20047854618602
 30
0.0
 41
1.000400910300633
 10
-37.35224627504044
 20
19.45711127581128
 30
0.0
 41
1.00006129682885
  0
SPLINE
  5
342
330
1F
100
AcDbEntity
  8
0
100
AcDbSpline
210
0.0
220
0.0
230
1.0
 70
    12
 71
     2
 72
     6
 73
     3
 74
     0
 42
0.0000000001
 43
0.0000000001
 40
0.0175153561006413
 40
0.0175153561006413
 40
0.0175153561006413
 40
0.2291174539242802
 40
0.2291174539242802
 40
0.2291174539242802
 10
-37.32064522562587
 20
19.45711127581128
 30
0.0
 41
1.000061296828856
 10
-36.99625424914666
 20
19.20047854618653
 30
0.0
 41
1.000400910300671
 10
-36.67471565491223
 20
19.00000000000003
 30
0.0
 41
1.0
  0
SPLINE
  5
343
330
1F
100
AcDbEntity
  8
0
100
AcDbSpline
210
0.0
220
0.0
230
1.0
 70
     8
 71
     3
 72
    14
 73
    10
 74
     0
 42
0.0000000001
 43
0.0000000001
 40
0.1579735430055519
 40
0.1579735430055519
 40
0.1579735430055519
 40
0.1579735430055519
 40
0.1631561247759693
 40
0.1631561247759693
 40
0.1840421045220371
 40
0.1840421045220371
 40
0.2049280842681048
 40
0.2049280842681048
 40
0.2101106660385199
 40
0.2101106660385199
 40
0.2101106660385199
 40
0.2101106660385199
 10
-37.32064522562587
 20
19.45711127581128
 30
0.0
 10
-37.32603464212525
 20
19.46137495996905
 30
0.0
 10
-37.33102286665303
 20
19.46523708943098
 30
0.0
 10
-37.35399864994952
 20
19.48256260107953
 30
0.0
 10
-37.36551733782608
 20
19.48959993390787
 30
0.0
 10
-37.3740177282275
 20
19.48959993390787
 30
0.0
 10
-37.37108996179927
 20
19.48256260107953
 30
0.0
 10
-37.35853106739069
 20
19.46523708943098
 30
0.0
 10
-37.35559893728714
 20
19.46137495996907
 30
0.0
 10
-37.35224627504044
 20
19.45711127581128
 30
0.0
  0
LINE
  5
344
330
1F
100
AcDbEntity
  8
0
100
AcDbLine
 10
-37.32064522562587
 20
19.45711127581128
 30
0.0
 11
-37.0115832735753
 21
34.03389122389584
 31
0.0
  0
LINE
  5
345
330
1F
100
AcDbEntity
  8
0
100
AcDbLine
 10
-37.06393887414061
 20
34.00185440458697
 30
0.0
 11
-37.37167042528791
 21
19.48782226833072
 31
0.0
  0
SPLINE
  5
346
330
1F
100
AcDbEntity
  8
0
100
AcDbSpline
210
0.0
220
0.0
230
1.0
 70
    12
 71
     2
 72
     6
 73
     3
 74
     0
 42
0.0000000001
 43
0.0000000001
 40
0.0133474178829781
 40
0.0133474178829781
 40
0.0133474178829781
 40
0.2261577537836695
 40
0.2261577537836695
 40
0.2261577537836695
 10
-33.31448540211955
 20
34.03389122389584
 30
0.0
 41
1.000051599651785
 10
-33.51699712353957
 20
34.30208283403252
 30
0.0
 41
1.00043715052028
 10
-33.71797760583104
 20
34.51085149098626
 30
0.0
 41
1.0
  0
SPLINE
  5
347
330
1F
100
AcDbEntity
  8
0
100
AcDbSpline
210
0.0
220
0.0
230
1.0
 70
     8
 71
     3
 72
    10
 73
     6
 74
     0
 42
0.0000000001
 43
0.0000000001
 40
0.1630725380768918
 40
0.1630725380768918
 40
0.1630725380768918
 40
0.1630725380768918
 40
0.1680693349593845
 40
0.1680693349593845
 40
0.1892839753865512
 40
0.1892839753865512
 40
0.1892839753865512
 40
0.1892839753865512
 10
-33.31448540211955
 20
34.03389122389584
 30
0.0
 10
-33.31127990325763
 20
34.02964609726797
 30
0.0
 10
-33.30765799345886
 20
34.02577908599611
 30
0.0
 10
-33.28646119202631
 20
34.00756667106151
 30
0.0
 10
-33.26169242414199
 20
33.99999999999986
 30
0.0
 10
-33.2301393369271
 20
33.99999999999986
 30
0.0
  0
SPLINE
  5
348
330
1F
100
AcDbEntity
  8
0
100
AcDbSpline
210
0.0
220
0.0
230
1.0
 70
     8
 71
     3
 72
    10
 73
     6
 74
     0
 42
0.0000000001
 43
0.0000000001
 40
0.1892839753865512
 40
0.1892839753865512
 40
0.1892839753865512
 40
0.1892839753865512
 40
0.210498615813718
 40
0.210498615813718
 40
0.2154954126962073
 40
0.2154954126962073
 40
0.2154954126962073
 40
0.2154954126962073
 10
-33.2301393369271
 20
33.99999999999986
 30
0.0
 10
-33.19858624971198
 20
33.99999999999986
 30
0.0
 10
-33.15990326363794
 20
34.00756667106151
 30
0.0
 10
-33.10524510067831
 20
34.02577908599611
 30
0.0
 10
-33.09451914415263
 20
34.02964609726794
 30
0.0
 10
-33.08351641828767
 20
34.03389122389581
 30
0.0
  0
SPLINE
  5
349
330
1F
100
AcDbEntity
  8
0
100
AcDbSpline
210
0.0
220
0.0
230
1.0
 70
    12
 71
     2
 72
     6
 73
     3
 74
     0
 42
0.0000000001
 43
0.0000000001
 40
0.002328031093838
 40
0.002328031093838
 40
0.002328031093838
 40
0.2128103359009535
 40
0.2128103359009535
 40
0.2128103359009535
 10
-31.7182632666827
 20
34.50627481062466
 30
0.0
 41
1.000009465930877
 10
-32.39600560173812
 20
34.29915007975976
 30
0.0
 41
1.000432932799883
 10
-33.08351641828767
 20
34.03389122389581
 30
0.0
 41
1.000051599651737
  0
SPLINE
  5
34A
330
1F
100
AcDbEntity
  8
0
100
AcDbSpline
210
0.0
220
0.0
230
1.0
 70
    12
 71
     2
 72
     6
 73
     3
 74
     0
 42
0.0000000001
 43
0.0000000001
 40
0.013347417882995
 40
0.013347417882995
 40
0.013347417882995
 40
0.2261577537836662
 40
0.2261577537836662
 40
0.2261577537836662
 10
-20.69079807090884
 20
34.03389122389581
 30
0.0
 41
1.000051599651645
 10
-21.37766743594875
 20
34.30208283403249
 30
0.0
 41
1.000437150519086
 10
-22.05638978004663
 20
34.51085149098626
 30
0.0
 41
1.0
  0
SPLINE
  5
34B
330
1F
100
AcDbEntity
  8
0
100
AcDbSpline
210
0.0
220
0.0
230
1.0
 70
     8
 71
     3
 72
    10
 73
     6
 74
     0
 42
0.0000000001
 43
0.0000000001
 40
0.1630725380768922
 40
0.1630725380768922
 40
0.1630725380768922
 40
0.1630725380768922
 40
0.1680693349593842
 40
0.1680693349593842
 40
0.1892839753865508
 40
0.1892839753865508
 40
0.1892839753865508
 40
0.1892839753865508
 10
-20.69079807090884
 20
34.03389122389581
 30
0.0
 10
-20.67992581644148
 20
34.02964609726794
 30
0.0
 10
-20.66870932182974
 20
34.02577908599611
 30
0.0
 10
-20.60814616810012
 20
34.00756667106151
 30
0.0
 10
-20.55314531010072
 20
33.99999999999986
 30
0.0
 10
-20.49417668385922
 20
33.99999999999986
 30
0.0
  0
SPLINE
  5
34C
330
1F
100
AcDbEntity
  8
0
100
AcDbSpline
210
0.0
220
0.0
230
1.0
 70
     8
 71
     3
 72
    10
 73
     6
 74
     0
 42
0.0000000001
 43
0.0000000001
 40
0.1892839753865508
 40
0.1892839753865508
 40
0.1892839753865508
 40
0.1892839753865508
 40
0.2104986158137174
 40
0.2104986158137174
 40
0.2154954126962076
 40
0.2154954126962076
 40
0.2154954126962076
 40
0.2154954126962076
 10
-20.49417668385922
 20
33.99999999999986
 30
0.0
 10
-20.43520805761773
 20
33.99999999999986
 30
0.0
 10
-20.37162581983193
 20
34.00756667106151
 30
0.0
 10
-20.29042588669381
 20
34.02577908599611
 30
0.0
 10
-20.27482808066702
 20
34.02964609726794
 30
0.0
 10
-20.25914700652493
 20
34.03389122389581
 30
0.0
  0
SPLINE
  5
34D
330
1F
100
AcDbEntity
  8
0
100
AcDbSpline
210
0.0
220
0.0
230
1.0
 70
    12
 71
     2
 72
     6
 73
     3
 74
     0
 42
0.0000000001
 43
0.0000000001
 40
0.002328031093842
 40
0.002328031093842
 40
0.002328031093842
 40
0.2128103359009559
 40
0.2128103359009559
 40
0.2128103359009559
 10
-18.31254783525287
 20
34.50627481062466
 30
0.0
 41
1.000009465930873
 10
-19.27930726314435
 20
34.29915007975978
 30
0.0
 41
1.000432932799679
 10
-20.25914700652493
 20
34.03389122389581
 30
0.0
 41
1.000051599651713
  0
SPLINE
  5
34E
330
1F
100
AcDbEntity
  8
0
100
AcDbSpline
210
0.0
220
0.0
230
1.0
 70
    12
 71
     2
 72
     6
 73
     3
 74
     0
 42
0.0000000001
 43
0.0000000001
 40
0.0133474178829849
 40
0.0133474178829849
 40
0.0133474178829849
 40
0.2261577537836723
 40
0.2261577537836723
 40
0.2261577537836723
 10
-2.52302810584274
 20
34.03389122389584
 30
0.0
 41
1.000051599651706
 10
-3.510209022834487
 20
34.30208283403252
 30
0.0
 41
1.000437150519606
 10
-4.484810124752584
 20
34.51085149098626
 30
0.0
 41
1.0
  0
SPLINE
  5
34F
330
1F
100
AcDbEntity
  8
0
100
AcDbSpline
210
0.0
220
0.0
230
1.0
 70
     8
 71
     3
 72
    10
 73
     6
 74
     0
 42
0.0000000001
 43
0.0000000001
 40
0.1630725380768924
 40
0.1630725380768924
 40
0.1630725380768924
 40
0.1630725380768924
 40
0.1680693349593846
 40
0.1680693349593846
 40
0.1892839753865514
 40
0.1892839753865514
 40
0.1892839753865514
 40
0.1892839753865514
 10
-2.52302810584274
 20
34.03389122389584
 30
0.0
 10
-2.507402307574466
 20
34.02964609726797
 30
0.0
 10
-2.491596678822816
 20
34.02577908599611
 30
0.0
 10
-2.407895020929117
 20
34.00756667106151
 30
0.0
 10
-2.337399508298631
 20
33.99999999999986
 30
0.0
 10
-2.266815938810623
 20
33.99999999999986
 30
0.0
  0
SPLINE
  5
350
330
1F
100
AcDbEntity
  8
0
100
AcDbSpline
210
0.0
220
0.0
230
1.0
 70
     8
 71
     3
 72
    10
 73
     6
 74
     0
 42
0.0000000001
 43
0.0000000001
 40
0.1892839753865514
 40
0.1892839753865514
 40
0.1892839753865514
 40
0.1892839753865514
 40
0.210498615813718
 40
0.210498615813718
 40
0.2154954126962078
 40
0.2154954126962078
 40
0.2154954126962078
 40
0.2154954126962078
 10
-2.266815938810623
 20
33.99999999999986
 30
0.0
 10
-2.196232369322842
 20
33.99999999999986
 30
0.0
 10
-2.124787689093182
 20
34.00756667106151
 30
0.0
 10
-2.038803442286052
 20
34.02577908599611
 30
0.0
 10
-2.022513206287158
 20
34.02964609726794
 30
0.0
 10
-2.006355515020459
 20
34.03389122389581
 30
0.0
  0
SPLINE
  5
351
330
1F
100
AcDbEntity
  8
0
100
AcDbSpline
210
0.0
220
0.0
230
1.0
 70
    12
 71
     2
 72
     6
 73
     3
 74
     0
 42
0.0000000001
 43
0.0000000001
 40
0.0023280310938392
 40
0.0023280310938392
 40
0.0023280310938392
 40
0.2128103359009636
 40
0.2128103359009636
 40
0.2128103359009636
 10
-0.0000000000109139
 20
34.50627481062466
 30
0.0
 41
1.000009465930887
 10
-0.996734112760123
 20
34.29915007975978
 30
0.0
 41
1.000432932800341
 10
-2.006355515020459
 20
34.03389122389581
 30
0.0
 41
1.000051599651792
  0
SPLINE
  5
352
330
1F
100
AcDbEntity
  8
0
100
AcDbSpline
210
0.0
220
0.0
230
1.0
 70
    12
 71
     2
 72
     6
 73
     3
 74
     0
 42
0.0000000001
 43
0.0000000001
 40
0.013347417882981
 40
0.013347417882981
 40
0.013347417882981
 40
0.2261577537836685
 40
0.2261577537836685
 40
0.2261577537836685
 10
16.32078520266486
 20
34.03389122389584
 30
0.0
 41
1.000051599651743
 10
15.29780706321298
 20
34.30208283403249
 30
0.0
 41
1.000437150519926
 10
14.28847078167564
 20
34.51085149098626
 30
0.0
 41
1.0
  0
SPLINE
  5
353
330
1F
100
AcDbEntity
  8
0
100
AcDbSpline
210
0.0
220
0.0
230
1.0
 70
     8
 71
     3
 72
    10
 73
     6
 74
     0
 42
0.0000000001
 43
0.0000000001
 40
0.1630725380768919
 40
0.1630725380768919
 40
0.1630725380768919
 40
0.1630725380768919
 40
0.1680693349593844
 40
0.1680693349593844
 40
0.1892839753865511
 40
0.1892839753865511
 40
0.1892839753865511
 40
0.1892839753865511
 10
16.32078520266486
 20
34.03389122389584
 30
0.0
 10
16.33697762470706
 20
34.02964609726797
 30
0.0
 10
16.3531372821385
 20
34.02577908599611
 30
0.0
 10
16.43754965255857
 20
34.00756667106151
 30
0.0
 10
16.50465060414126
 20
33.99999999999986
 30
0.0
 10
16.5679363064321
 20
33.99999999999986
 30
0.0
  0
SPLINE
  5
354
330
1F
100
AcDbEntity
  8
0
100
AcDbSpline
210
0.0
220
0.0
230
1.0
 70
     8
 71
     3
 72
    10
 73
     6
 74
     0
 42
0.0000000001
 43
0.0000000001
 40
0.1892839753865511
 40
0.1892839753865511
 40
0.1892839753865511
 40
0.1892839753865511
 40
0.2104986158137179
 40
0.2104986158137179
 40
0.2154954126962076
 40
0.2154954126962076
 40
0.2154954126962076
 40
0.2154954126962076
 10
16.5679363064321
 20
33.99999999999986
 30
0.0
 10
16.63122200872317
 20
33.99999999999986
 30
0.0
 10
16.6913855870257
 20
34.00756667106151
 30
0.0
 10
16.75911473800806
 20
34.02577908599611
 30
0.0
 10
16.77173244839878
 20
34.02964609726794
 30
0.0
 10
16.78403731646358
 20
34.03389122389581
 30
0.0
  0
SPLINE
  5
355
330
1F
100
AcDbEntity
  8
0
100
AcDbSpline
210
0.0
220
0.0
230
1.0
 70
    12
 71
     2
 72
     6
 73
     3
 74
     0
 42
0.0000000001
 43
0.0000000001
 40
0.0023280310938434
 40
0.0023280310938434
 40
0.0023280310938434
 40
0.2128103359009541
 40
0.2128103359009541
 40
0.2128103359009541
 10
18.312547835234
 20
34.50627481062466
 30
0.0
 41
1.000009465930871
 10
17.55291313820703
 20
34.29915007975973
 30
0.0
 41
1.000432932799592
 10
16.78403731646358
 20
34.03389122389581
 30
0.0
 41
1.000051599651702
  0
SPLINE
  5
356
330
1F
100
AcDbEntity
  8
0
100
AcDbSpline
210
0.0
220
0.0
230
1.0
 70
    12
 71
     2
 72
     6
 73
     3
 74
     0
 42
0.0000000001
 43
0.0000000001
 40
0.0133474178829783
 40
0.0133474178829783
 40
0.0133474178829783
 40
0.2261577537836677
 40
0.2261577537836677
 40
0.2261577537836677
 10
30.79145729627658
 20
34.03389122389584
 30
0.0
 41
1.000051599651774
 10
30.00678810070508
 20
34.30208283403252
 30
0.0
 41
1.000437150520185
 10
29.23316748107846
 20
34.51085149098626
 30
0.0
 41
1.0
  0
SPLINE
  5
357
330
1F
100
AcDbEntity
  8
0
100
AcDbSpline
210
0.0
220
0.0
230
1.0
 70
     8
 71
     3
 72
    10
 73
     6
 74
     0
 42
0.0000000001
 43
0.0000000001
 40
0.1630725380768918
 40
0.1630725380768918
 40
0.1630725380768918
 40
0.1630725380768918
 40
0.1680693349593841
 40
0.1680693349593841
 40
0.1892839753865505
 40
0.1892839753865505
 40
0.1892839753865505
 40
0.1892839753865505
 10
30.79145729627658
 20
34.03389122389584
 30
0.0
 10
30.80387759568294
 20
34.02964609726797
 30
0.0
 10
30.81606131463582
 20
34.02577908599611
 30
0.0
 10
30.87856617109674
 20
34.00756667106151
 30
0.0
 10
30.92429291584335
 20
33.99999999999986
 30
0.0
 10
30.96332339811624
 20
33.99999999999986
 30
0.0
  0
SPLINE
  5
358
330
1F
100
AcDbEntity
  8
0
100
AcDbSpline
210
0.0
220
0.0
230
1.0
 70
     8
 71
     3
 72
    10
 73
     6
 74
     0
 42
0.0000000001
 43
0.0000000001
 40
0.1892839753865505
 40
0.1892839753865505
 40
0.1892839753865505
 40
0.1892839753865505
 40
0.2104986158137173
 40
0.2104986158137173
 40
0.215495412696207
 40
0.215495412696207
 40
0.215495412696207
 40
0.215495412696207
 10
30.96332339811624
 20
33.99999999999986
 30
0.0
 10
31.00235388038891
 20
33.99999999999986
 30
0.0
 10
31.03511557454476
 20
34.00756667106151
 30
0.0
 10
31.06644165839225
 20
34.02577908599611
 30
0.0
 10
31.07200593786525
 20
34.02964609726794
 30
0.0
 10
31.07716090326722
 20
34.03389122389581
 30
0.0
  0
SPLINE
  5
359
330
1F
100
AcDbEntity
  8
0
100
AcDbSpline
210
0.0
220
0.0
230
1.0
 70
    12
 71
     2
 72
     6
 73
     3
 74
     0
 42
0.0000000001
 43
0.0000000001
 40
0.0023280310938419
 40
0.0023280310938419
 40
0.0023280310938419
 40
0.2128103359009508
 40
0.2128103359009508
 40
0.2128103359009508
 10
31.71826326667156
 20
34.50627481062466
 30
0.0
 41
1.000009465930862
 10
31.399271488978
 20
34.29915007975987
 30
0.0
 41
1.000432932799209
 10
31.07716090326722
 20
34.03389122389581
 30
0.0
 41
1.000051599651657
  0
SPLINE
  5
35A
330
1F
100
AcDbEntity
  8
0
100
AcDbSpline
210
0.0
220
0.0
230
1.0
 70
    12
 71
     2
 72
     6
 73
     3
 74
     0
 42
0.0000000001
 43
0.0000000001
 40
0.0133474178829769
 40
0.0133474178829769
 40
0.0133474178829769
 40
0.2261577537836625
 40
0.2261577537836625
 40
0.2261577537836625
 10
37.01158327357348
 20
34.03389122389584
 30
0.0
 41
1.000051599651778
 10
36.67547449916151
 20
34.30208283403252
 30
0.0
 41
1.000437150520221
 10
36.34486056172227
 20
34.51085149098626
 30
0.0
 41
1.0
  0
SPLINE
  5
35B
330
1F
100
AcDbEntity
  8
0
100
AcDbSpline
210
0.0
220
0.0
230
1.0
 70
     8
 71
     3
 72
    10
 73
     6
 74
     0
 42
0.0000000001
 43
0.0000000001
 40
0.1630725380768927
 40
0.1630725380768927
 40
0.1630725380768927
 40
0.1630725380768927
 40
0.1680693349593846
 40
0.1680693349593846
 40
0.1892839753865514
 40
0.1892839753865514
 40
0.1892839753865514
 40
0.1892839753865514
 10
37.01158327357348
 20
34.03389122389584
 30
0.0
 10
37.01690344114832
 20
34.02964609726797
 30
0.0
 10
37.02184660396824
 20
34.02577908599611
 30
0.0
 10
37.04569582065869
 20
34.00756667106151
 30
0.0
 10
37.05779591424175
 20
33.99999999999986
 30
0.0
 10
37.06211299029133
 20
33.99999999999986
 30
0.0
  0
SPLINE
  5
35C
330
1F
100
AcDbEntity
  8
0
100
AcDbSpline
210
0.0
220
0.0
230
1.0
 70
     8
 71
     3
 72
    10
 73
     6
 74
     0
 42
0.0000000001
 43
0.0000000001
 40
0.1892839753865514
 40
0.1892839753865514
 40
0.1892839753865514
 40
0.1892839753865514
 40
0.210498615813718
 40
0.210498615813718
 40
0.2154954126962083
 40
0.2154954126962083
 40
0.2154954126962083
 40
0.2154954126962083
 10
37.06211299029133
 20
33.99999999999986
 30
0.0
 10
37.06643006634067
 20
33.99999999999986
 30
0.0
 10
37.06301140685764
 20
34.00756667106151
 30
0.0
 10
37.04954062470142
 20
34.02577908599611
 30
0.0
 10
37.0465605290658
 20
34.02964609726794
 30
0.0
 10
37.04318432298828
 20
34.03389122389581
 30
0.0
  0
SPLINE
  5
35D
330
1F
100
AcDbEntity
  8
0
100
AcDbSpline
210
0.0
220
0.0
230
1.0
 70
    12
 71
     2
 72
     6
 73
     3
 74
     0
 42
0.0000000001
 43
0.0000000001
 40
0.0023280310938381
 40
0.0023280310938381
 40
0.0023280310938381
 40
0.2128103359009634
 40
0.2128103359009634
 40
0.2128103359009634
 10
36.62509567048664
 20
34.50627481062466
 30
0.0
 41
1.000009465930893
 10
36.83222040135161
 20
34.29915007975967
 30
0.0
 41
1.000432932800613
 10
37.04318432298828
 20
34.03389122389581
 30
0.0
 41
1.000051599651824
  0
SPLINE
  5
35E
330
1F
100
AcDbEntity
  8
0
100
AcDbSpline
210
0.0
220
0.0
230
1.0
 70
    12
 71
     2
 72
     6
 73
     3
 74
     0
 42
0.0000000001
 43
0.0000000001
 40
0.0
 40
0.0
 40
0.0
 40
0.2116020978239796
 40
0.2116020978239796
 40
0.2116020978239796
 10
-34.0122203088124
 20
19.00000000000003
 30
0.0
 41
1.0
 10
-33.8037102538251
 20
19.20047854618596
 30
0.0
 41
1.000400910299834
 10
-33.59159242332657
 20
19.45711127581123
 30
0.0
 41
1.000061296828727
  0
SPLINE
  5
35F
330
1F
100
AcDbEntity
  8
0
100
AcDbSpline
210
0.0
220
0.0
230
1.0
 70
    12
 71
     2
 72
     6
 73
     3
 74
     0
 42
0.0000000001
 43
0.0000000001
 40
0.017515356100621
 40
0.017515356100621
 40
0.017515356100621
 40
0.2291174539242778
 40
0.2291174539242778
 40
0.2291174539242778
 10
-33.36062343949493
 20
19.45711127581128
 30
0.0
 41
1.000061296828994
 10
-32.67672105501788
 20
19.20047854618658
 30
0.0
 41
1.000400910301572
 10
-32.00019403843135
 20
19.00000000000003
 30
0.0
 41
1.0
  0
SPLINE
  5
360
330
1F
100
AcDbEntity
  8
0
100
AcDbSpline
210
0.0
220
0.0
230
1.0
 70
     8
 71
     3
 72
    14
 73
    10
 74
     0
 42
0.0000000001
 43
0.0000000001
 40
0.5137814663031536
 40
0.5137814663031536
 40
0.5137814663031536
 40
0.5137814663031536
 40
0.5189640480735694
 40
0.5189640480735694
 40
0.5398500278196372
 40
0.5398500278196372
 40
0.5607360075657049
 40
0.5607360075657049
 40
0.5659185893361223
 40
0.5659185893361223
 40
0.5659185893361223
 40
0.5659185893361223
 10
-33.36062343949493
 20
19.45711127581128
 30
0.0
 10
-33.37198576169931
 20
19.46137495996907
 30
0.0
 10
-33.38305037993632
 20
19.46523708943098
 30
0.0
 10
-33.43704870699298
 20
19.48256260107951
 30
0.0
 10
-33.47492020386722
 20
19.48959993390787
 30
0.0
 10
-33.53704872711614
 20
19.48959993390787
 30
0.0
 10
-33.56196743606915
 20
19.48256260107953
 30
0.0
 10
-33.58410513252056
 20
19.46523708943098
 30
0.0
 10
-33.58806830761932
 20
19.46137495996905
 30
0.0
 10
-33.59159242332657
 20
19.45711127581123
 30
0.0
  0
SPLINE
  5
361
330
1F
100
AcDbEntity
  8
0
100
AcDbSpline
210
0.0
220
0.0
230
1.0
 70
    12
 71
     2
 72
     6
 73
     3
 74
     0
 42
0.0000000001
 43
0.0000000001
 40
0.0175153561006409
 40
0.0175153561006409
 40
0.0175153561006409
 40
0.2291174539242746
 40
0.2291174539242746
 40
0.2291174539242746
 10
-20.43004849433942
 20
19.45711127581128
 30
0.0
 41
1.000061296828739
 10
-19.44729280017532
 20
19.20047854618647
 30
0.0
 41
1.000400910299903
 10
-18.47596194332118
 20
19.00000000000003
 30
0.0
 41
1.0
  0
SPLINE
  5
362
330
1F
100
AcDbEntity
  8
0
100
AcDbSpline
210
0.0
220
0.0
230
1.0
 70
     8
 71
     3
 72
    14
 73
    10
 74
     0
 42
0.0000000001
 43
0.0000000001
 40
0.5137814663031545
 40
0.5137814663031545
 40
0.5137814663031545
 40
0.5137814663031545
 40
0.5189640480735703
 40
0.5189640480735703
 40
0.5398500278196379
 40
0.5398500278196379
 40
0.5607360075657057
 40
0.5607360075657057
 40
0.5659185893361231
 40
0.5659185893361231
 40
0.5659185893361231
 40
0.5659185893361231
 10
-20.43004849433942
 20
19.45711127581128
 30
0.0
 10
-20.44637595144241
 20
19.46137495996907
 30
0.0
 10
-20.46260830229176
 20
19.46523708943098
 30
0.0
 10
-20.54357725386922
 20
19.48256260107953
 30
0.0
 10
-20.60624484418577
 20
19.48959993390787
 30
0.0
 10
-20.72235499345379
 20
19.48959993390787
 30
0.0
 10
-20.77703415129599
 20
19.48256260107953
 30
0.0
 10
-20.83835354960911
 20
19.46523708943098
 30
0.0
 10
-20.850206194767
 20
19.46137495996905
 30
0.0
 10
-20.86169955872311
 20
19.45711127581128
 30
0.0
  0
SPLINE
  5
363
330
1F
100
AcDbEntity
  8
0
100
AcDbSpline
210
0.0
220
0.0
230
1.0
 70
    12
 71
     2
 72
     6
 73
     3
 74
     0
 42
0.0000000001
 43
0.0000000001
 40
0.0
 40
0.0
 40
0.0
 40
0.211602097823984
 40
0.211602097823984
 40
0.211602097823984
 10
-22.23617799817953
 20
19.00000000000003
 30
0.0
 41
1.0
 10
-21.55348939481815
 20
19.20047854618596
 30
0.0
 41
1.000400910300019
 10
-20.86169955872311
 20
19.45711127581128
 30
0.0
 41
1.000061296828756
  0
SPLINE
  5
364
330
1F
100
AcDbEntity
  8
0
100
AcDbSpline
210
0.0
220
0.0
230
1.0
 70
    12
 71
     2
 72
     6
 73
     3
 74
     0
 42
0.0000000001
 43
0.0000000001
 40
0.0175153561006281
 40
0.0175153561006281
 40
0.0175153561006281
 40
0.229117453924283
 40
0.229117453924283
 40
0.229117453924283
 10
-2.025258553796902
 20
19.45711127581128
 30
0.0
 41
1.000061296828867
 10
-1.006978144554295
 20
19.20047854618647
 30
0.0
 41
1.000400910300742
 10
-0.0011107661098322
 20
19.00000000000003
 30
0.0
 41
1.0
  0
SPLINE
  5
365
330
1F
100
AcDbEntity
  8
0
100
AcDbSpline
210
0.0
220
0.0
230
1.0
 70
     8
 71
     3
 72
    14
 73
    10
 74
     0
 42
0.0000000001
 43
0.0000000001
 40
0.513781466303154
 40
0.513781466303154
 40
0.513781466303154
 40
0.513781466303154
 40
0.5189640480735694
 40
0.5189640480735694
 40
0.5398500278196372
 40
0.5398500278196372
 40
0.5607360075657049
 40
0.5607360075657049
 40
0.5659185893361222
 40
0.5659185893361222
 40
0.5659185893361222
 40
0.5659185893361222
 10
-2.025258553796902
 20
19.45711127581128
 30
0.0
 10
-2.042176216853249
 20
19.46137495996907
 30
0.0
 10
-2.059226855014003
 20
19.46523708943098
 30
0.0
 10
-2.145470865924608
 20
19.48256260107951
 30
0.0
 10
-2.216142819466767
 20
19.48959993390787
 30
0.0
 10
-2.355122974024652
 20
19.48959993390787
 30
0.0
 10
-2.424911344569409
 20
19.48256260107953
 30
0.0
 10
-2.50898196148546
 20
19.46523708943098
 30
0.0
 10
-2.525548170004185
 20
19.46137495996905
 30
0.0
 10
-2.541931144619184
 20
19.45711127581128
 30
0.0
  0
SPLINE
  5
366
330
1F
100
AcDbEntity
  8
0
100
AcDbSpline
210
0.0
220
0.0
230
1.0
 70
    12
 71
     2
 72
     6
 73
     3
 74
     0
 42
0.0000000001
 43
0.0000000001
 40
0.0
 40
0.0
 40
0.0
 40
0.2116020978239896
 40
0.2116020978239896
 40
0.2116020978239896
 10
-4.501969750179796
 20
19.00000000000003
 30
0.0
 41
1.0
 10
-3.528028458396647
 20
19.20047854618599
 30
0.0
 41
1.000400910300231
 10
-2.541931144619184
 20
19.45711127581128
 30
0.0
 41
1.000061296828788
  0
SPLINE
  5
367
330
1F
100
AcDbEntity
  8
0
100
AcDbSpline
210
0.0
220
0.0
230
1.0
 70
    12
 71
     2
 72
     6
 73
     3
 74
     0
 42
0.0000000001
 43
0.0000000001
 40
0.0175153561006257
 40
0.0175153561006257
 40
0.0175153561006257
 40
0.2291174539242756
 40
0.2291174539242756
 40
0.2291174539242756
 10
16.92219778069966
 20
19.45711127581128
 30
0.0
 41
1.000061296828895
 10
17.70315549169572
 20
19.20047854618653
 30
0.0
 41
1.00040091030092
 10
18.47403803998327
 20
19.00000000000003
 30
0.0
 41
1.0
  0
SPLINE
  5
368
330
1F
100
AcDbEntity
  8
0
100
AcDbSpline
210
0.0
220
0.0
230
1.0
 70
     8
 71
     3
 72
    14
 73
    10
 74
     0
 42
0.0000000001
 43
0.0000000001
 40
0.5137814663031533
 40
0.5137814663031533
 40
0.5137814663031533
 40
0.5137814663031533
 40
0.5189640480735687
 40
0.5189640480735687
 40
0.5398500278196366
 40
0.5398500278196366
 40
0.5607360075657044
 40
0.5607360075657044
 40
0.5659185893361221
 40
0.5659185893361221
 40
0.5659185893361221
 40
0.5659185893361221
 10
16.92219778069966
 20
19.45711127581128
 30
0.0
 10
16.9092229858436
 20
19.46137495996907
 30
0.0
 10
16.89592276509756
 20
19.46523708943098
 30
0.0
 10
16.82751270792869
 20
19.48256260107953
 30
0.0
 10
16.76777288404037
 20
19.48959993390787
 30
0.0
 10
16.64316234437069
 20
19.48959993390787
 30
0.0
 10
16.5769644986517
 20
19.48256260107953
 30
0.0
 10
16.49266931704232
 20
19.46523708943098
 30
0.0
 10
16.47582844735689
 20
19.46137495996905
 30
0.0
 10
16.45894566690094
 20
19.45711127581128
 30
0.0
  0
SPLINE
  5
369
330
1F
100
AcDbEntity
  8
0
100
AcDbSpline
210
0.0
220
0.0
230
1.0
 70
    12
 71
     2
 72
     6
 73
     3
 74
     0
 42
0.0000000001
 43
0.0000000001
 40
0.0
 40
0.0
 40
0.0
 40
0.2116020978239962
 40
0.2116020978239962
 40
0.2116020978239962
 10
14.43853765672997
 20
19.00000000000003
 30
0.0
 41
1.0
 10
15.44276485432601
 20
19.20047854618599
 30
0.0
 41
1.000400910300671
 10
16.45894566690094
 20
19.45711127581128
 30
0.0
 41
1.000061296828855
  0
SPLINE
  5
36A
330
1F
100
AcDbEntity
  8
0
100
AcDbSpline
210
0.0
220
0.0
230
1.0
 70
    12
 71
     2
 72
     6
 73
     3
 74
     0
 42
0.0000000001
 43
0.0000000001
 40
0.0175153561006349
 40
0.0175153561006349
 40
0.0175153561006349
 40
0.22911745392428
 40
0.22911745392428
 40
0.22911745392428
 10
31.33536488569803
 20
19.45711127581128
 30
0.0
 41
1.000061296828838
 10
31.66974291046336
 20
19.20047854618653
 30
0.0
 41
1.000400910300548
 10
31.99908327232129
 20
19.00000000000003
 30
0.0
 41
1.0
  0
SPLINE
  5
36B
330
1F
100
AcDbEntity
  8
0
100
AcDbSpline
210
0.0
220
0.0
230
1.0
 70
     8
 71
     3
 72
    14
 73
    10
 74
     0
 42
0.0000000001
 43
0.0000000001
 40
0.5137814663031534
 40
0.5137814663031534
 40
0.5137814663031534
 40
0.5137814663031534
 40
0.5189640480735689
 40
0.5189640480735689
 40
0.5398500278196367
 40
0.5398500278196367
 40
0.5607360075657044
 40
0.5607360075657044
 40
0.5659185893361223
 40
0.5659185893361223
 40
0.5659185893361223
 40
0.5659185893361223
 10
31.33536488569803
 20
19.45711127581128
 30
0.0
 10
31.32980954484583
 20
19.46137495996907
 30
0.0
 10
31.32382352492232
 20
19.46523708943098
 30
0.0
 10
31.29157784106837
 20
19.48256260107953
 30
0.0
 10
31.25877738440045
 20
19.48959993390787
 30
0.0
 10
31.18192575309149
 20
19.48959993390787
 30
0.0
 10
31.13705609149974
 20
19.48256260107951
 30
0.0
 10
31.0751231710351
 20
19.46523708943098
 30
0.0
 10
31.06252013761491
 20
19.46137495996905
 30
0.0
 10
31.04966127870739
 20
19.45711127581123
 30
0.0
  0
SPLINE
  5
36C
330
1F
100
AcDbEntity
  8
0
100
AcDbSpline
210
0.0
220
0.0
230
1.0
 70
    12
 71
     2
 72
     6
 73
     3
 74
     0
 42
0.0000000001
 43
0.0000000001
 40
0.0
 40
0.0
 40
0.0
 40
0.2116020978239784
 40
0.2116020978239784
 40
0.2116020978239784
 10
29.51025055863261
 20
19.00000000000003
 30
0.0
 41
1.0
 10
30.27568179542823
 20
19.20047854618599
 30
0.0
 41
1.000400910299804
 10
31.04966127870739
 20
19.45711127581123
 30
0.0
 41
1.000061296828723
  0
SPLINE
  5
36D
330
1F
100
AcDbEntity
  8
0
100
AcDbSpline
210
0.0
220
0.0
230
1.0
 70
    12
 71
     2
 72
     6
 73
     3
 74
     0
 42
0.0000000001
 43
0.0000000001
 40
0.0175153561006295
 40
0.0175153561006295
 40
0.0175153561006295
 40
0.2291174539242755
 40
0.2291174539242755
 40
0.2291174539242755
 10
37.35224627503885
 20
19.45711127581128
 30
0.0
 41
1.000061296828874
 10
37.15044829187082
 20
19.20047854618653
 30
0.0
 41
1.000400910300783
 10
36.94999998330422
 20
19.00000000000003
 30
0.0
 41
1.0
  0
SPLINE
  5
36E
330
1F
100
AcDbEntity
  8
0
100
AcDbSpline
210
0.0
220
0.0
230
1.0
 70
     8
 71
     3
 72
    14
 73
    10
 74
     0
 42
0.0000000001
 43
0.0000000001
 40
0.5137814663031535
 40
0.5137814663031535
 40
0.5137814663031535
 40
0.5137814663031535
 40
0.5189640480735694
 40
0.5189640480735694
 40
0.539850027819637
 40
0.539850027819637
 40
0.5607360075657049
 40
0.5607360075657049
 40
0.5659185893361225
 40
0.5659185893361225
 40
0.5659185893361225
 40
0.5659185893361225
 10
37.35224627503885
 20
19.45711127581128
 30
0.0
 10
37.35559893728578
 20
19.46137495996907
 30
0.0
 10
37.35853106738932
 20
19.46523708943098
 30
0.0
 10
37.37108996179791
 20
19.48256260107953
 30
0.0
 10
37.37401772822614
 20
19.48959993390787
 30
0.0
 10
37.36551733782426
 20
19.48959993390787
 30
0.0
 10
37.3539986499477
 20
19.48256260107953
 30
0.0
 10
37.33102286665121
 20
19.46523708943098
 30
0.0
 10
37.32603464212366
 20
19.46137495996905
 30
0.0
 10
37.32064522562405
 20
19.45711127581128
 30
0.0
  0
SPLINE
  5
36F
330
1F
100
AcDbEntity
  8
0
100
AcDbSpline
210
0.0
220
0.0
230
1.0
 70
    12
 71
     2
 72
     6
 73
     3
 74
     0
 42
0.0000000001
 43
0.0000000001
 40
0.0
 40
0.0
 40
0.0
 40
0.2116020978239815
 40
0.2116020978239815
 40
0.2116020978239815
 10
36.67471565490951
 20
19.00000000000003
 30
0.0
 41
1.0
 10
36.99625424914393
 20
19.2004785461859
 30
0.0
 41
1.000400910299992
 10
37.32064522562405
 20
19.45711127581128
 30
0.0
 41
1.000061296828752
  0
LINE
  5
370
330
1F
100
AcDbEntity
  8
0
100
AcDbLine
 10
37.32064522562405
 20
19.45711127581128
 30
0.0
 11
37.01158327357348
 21
34.03389122389584
 31
0.0
  0
SPLINE
  5
371
330
1F
100
AcDbEntity
  8
0
100
AcDbSpline
210
0.0
220
0.0
230
1.0
 70
    12
 71
     2
 72
     6
 73
     3
 74
     0
 42
0.0000000001
 43
0.0000000001
 40
0.0
 40
0.0
 40
0.0
 40
1.551140549935692
 40
1.551140549935692
 40
1.551140549935692
 10
36.67471565490951
 20
19.00000000000003
 30
0.0
 41
1.0
 10
36.50879867015829
 20
26.80222792596246
 30
0.0
 41
1.000017485130622
 10
36.34486056172227
 20
34.51085149098626
 30
0.0
 41
1.000001075576592
  0
LINE
  5
372
330
1F
100
AcDbEntity
  8
0
100
AcDbLine
 10
31.04966127870739
 20
19.45711127581123
 30
0.0
 11
30.79145729627658
 21
34.03389122389584
 31
0.0
  0
LINE
  5
373
330
1F
100
AcDbEntity
  8
0
100
AcDbLine
 10
31.33536488569803
 20
19.45711127581128
 30
0.0
 11
31.07716090326722
 21
34.03389122389581
 31
0.0
  0
SPLINE
  5
374
330
1F
100
AcDbEntity
  8
0
100
AcDbSpline
210
0.0
220
0.0
230
1.0
 70
    12
 71
     2
 72
     6
 73
     3
 74
     0
 42
0.0000000001
 43
0.0000000001
 40
1.526309784540673
 40
1.526309784540673
 40
1.526309784540673
 40
1.600362735801205
 40
1.600362735801205
 40
1.600362735801205
 10
31.98593782328453
 20
19.74476973776055
 30
0.0
 41
1.000001592041617
 10
31.9925086416024
 20
19.37249211423884
 30
0.0
 41
1.000000834641861
 10
31.99908327232129
 20
19.00000000000003
 30
0.0
 41
1.0
  0
SPLINE
  5
375
330
1F
100
AcDbEntity
  8
0
100
AcDbSpline
210
0.0
220
0.0
230
1.0
 70
    12
 71
     2
 72
     6
 73
     3
 74
     0
 42
0.0000000001
 43
0.0000000001
 40
0.0
 40
0.0
 40
0.0
 40
1.551140549815727
 40
1.551140549815727
 40
1.551140549815727
 10
29.51025055863261
 20
19.00000000000003
 30
0.0
 41
1.0
 10
29.37088678808914
 20
26.80222793301451
 30
0.0
 41
1.000017483609144
 10
29.23316748107846
 20
34.51085149098626
 30
0.0
 41
1.000001075483003
  0
LINE
  5
376
330
1F
100
AcDbEntity
  8
0
100
AcDbLine
 10
16.45894566690094
 20
19.45711127581128
 30
0.0
 11
16.32078520266486
 21
34.03389122389584
 31
0.0
  0
LINE
  5
377
330
1F
100
AcDbEntity
  8
0
100
AcDbLine
 10
16.92219778069966
 20
19.45711127581128
 30
0.0
 11
16.78403731646358
 21
34.03389122389581
 31
0.0
  0
SPLINE
  5
378
330
1F
100
AcDbEntity
  8
0
100
AcDbSpline
210
0.0
220
0.0
230
1.0
 70
    12
 71
     2
 72
     6
 73
     3
 74
     0
 42
0.0000000001
 43
0.0000000001
 40
1.526309784952639
 40
1.526309784952639
 40
1.526309784952639
 40
1.600362735801206
 40
1.600362735801206
 40
1.600362735801206
 10
18.46708981254983
 20
19.74476973774043
 30
0.0
 41
1.000001592463685
 10
18.47056289438342
 20
19.37249211440994
 30
0.0
 41
1.000000834863133
 10
18.4740380399835
 20
19.00000000000003
 30
0.0
 41
1.0
  0
SPLINE
  5
379
330
1F
100
AcDbEntity
  8
0
100
AcDbSpline
210
0.0
220
0.0
230
1.0
 70
    12
 71
     2
 72
     6
 73
     3
 74
     0
 42
0.0000000001
 43
0.0000000001
 40
0.0
 40
0.0
 40
0.0
 40
1.551140549844104
 40
1.551140549844104
 40
1.551140549844104
 10
14.43853765672997
 20
19.00000000000003
 30
0.0
 41
1.0
 10
14.36306951038091
 20
26.80222792628061
 30
0.0
 41
1.000017483311883
 10
14.28847078167564
 20
34.51085149098626
 30
0.0
 41
1.000001075464717
  0
LINE
  5
37A
330
1F
100
AcDbEntity
  8
0
100
AcDbLine
 10
-2.541931144619184
 20
19.45711127581128
 30
0.0
 11
-2.52302810584274
 21
34.03389122389584
 31
0.0
  0
LINE
  5
37B
330
1F
100
AcDbEntity
  8
0
100
AcDbLine
 10
-2.025258553796902
 20
19.45711127581128
 30
0.0
 11
-2.006355515020459
 21
34.03389122389581
 31
0.0
  0
SPLINE
  5
37C
330
1F
100
AcDbEntity
  8
0
100
AcDbSpline
210
0.0
220
0.0
230
1.0
 70
    12
 71
     2
 72
     6
 73
     3
 74
     0
 42
0.0000000001
 43
0.0000000001
 40
1.526309784995513
 40
1.526309784995513
 40
1.526309784995513
 40
1.600362735801205
 40
1.600362735801205
 40
1.600362735801205
 10
-0.0000000000111413
 20
19.74476973775364
 30
0.0
 41
1.000001592523674
 10
-0.0005552641309805
 20
19.37249211443887
 30
0.0
 41
1.000000834894583
 10
-0.0011107661098322
 20
19.00000000000003
 30
0.0
 41
1.0
  0
SPLINE
  5
37D
330
1F
100
AcDbEntity
  8
0
100
AcDbSpline
210
0.0
220
0.0
230
1.0
 70
    12
 71
     2
 72
     6
 73
     3
 74
     0
 42
0.0000000001
 43
0.0000000001
 40
0.0
 40
0.0
 40
0.0
 40
1.551140549992227
 40
1.551140549992227
 40
1.551140549992227
 10
-4.501969750179796
 20
19.00000000000003
 30
0.0
 41
1.0
 10
-4.493320643582137
 20
26.80222793001394
 30
0.0
 41
1.000017486804377
 10
-4.484810124752584
 20
34.51085149098626
 30
0.0
 41
1.00000107567955
  0
LINE
  5
37E
330
1F
100
AcDbEntity
  8
0
100
AcDbLine
 10
-33.59159242332657
 20
19.45711127581123
 30
0.0
 11
-33.31448540211955
 21
34.03389122389584
 31
0.0
  0
LINE
  5
37F
330
1F
100
AcDbEntity
  8
0
100
AcDbLine
 10
-33.36062343949493
 20
19.45711127581128
 30
0.0
 11
-33.08351641828767
 21
34.03389122389581
 31
0.0
  0
SPLINE
  5
380
330
1F
100
AcDbEntity
  8
0
100
AcDbSpline
210
0.0
220
0.0
230
1.0
 70
    12
 71
     2
 72
     6
 73
     3
 74
     0
 42
0.0000000001
 43
0.0000000001
 40
0.0
 40
0.0
 40
0.0
 40
1.55114055005366
 40
1.55114055005366
 40
1.55114055005366
 10
-34.0122203088124
 20
19.00000000000003
 30
0.0
 41
1.0
 10
-33.86420743165718
 20
26.80222793360448
 30
0.0
 41
1.000017488517769
 10
-33.71797760583104
 20
34.51085149098626
 30
0.0
 41
1.000001075784946
  0
SPLINE
  5
381
330
1F
100
AcDbEntity
  8
0
100
AcDbSpline
210
0.0
220
0.0
230
1.0
 70
    12
 71
     2
 72
     6
 73
     3
 74
     0
 42
0.0000000001
 43
0.0000000001
 40
1.526309784919183
 40
1.526309784919183
 40
1.526309784919183
 40
1.600362735801205
 40
1.600362735801205
 40
1.600362735801205
 10
-31.9859378232959
 20
19.74476973774656
 30
0.0
 41
1.000001592348815
 10
-31.99306390573088
 20
19.37249211438265
 30
0.0
 41
1.000000834802912
 10
-32.00019403843135
 20
19.00000000000003
 30
0.0
 41
1.0
  0
LINE
  5
382
330
1F
100
AcDbEntity
  8
0
100
AcDbLine
 10
-20.86169955872311
 20
19.45711127581128
 30
0.0
 11
-20.69079807090884
 21
34.03389122389581
 31
0.0
  0
LINE
  5
383
330
1F
100
AcDbEntity
  8
0
100
AcDbLine
 10
-20.43004849433942
 20
19.45711127581128
 30
0.0
 11
-20.25914700652493
 21
34.03389122389581
 31
0.0
  0
SPLINE
  5
384
330
1F
100
AcDbEntity
  8
0
100
AcDbSpline
210
0.0
220
0.0
230
1.0
 70
    12
 71
     2
 72
     6
 73
     3
 74
     0
 42
0.0000000001
 43
0.0000000001
 40
1.526309785236627
 40
1.526309785236627
 40
1.526309785236627
 40
1.600362735801205
 40
1.600362735801205
 40
1.600362735801205
 10
-18.46708981256893
 20
19.74476973774656
 30
0.0
 41
1.000001592820066
 10
-18.47152464006808
 20
19.37249211455113
 30
0.0
 41
1.000000835049969
 10
-18.47596194332118
 20
19.00000000000003
 30
0.0
 41
1.0
  0
SPLINE
  5
385
330
1F
100
AcDbEntity
  8
0
100
AcDbSpline
210
0.0
220
0.0
230
1.0
 70
    12
 71
     2
 72
     6
 73
     3
 74
     0
 42
0.0000000001
 43
0.0000000001
 40
0.0
 40
0.0
 40
0.0
 40
1.551140549735244
 40
1.551140549735244
 40
1.551140549735244
 10
-22.23617799817953
 20
19.00000000000003
 30
0.0
 41
1.0
 10
-22.14572915965755
 20
26.80222793604333
 30
0.0
 41
1.000017482367564
 10
-22.05638978004663
 20
34.51085149098626
 30
0.0
 41
1.000001075406631
  0
LINE
  5
386
330
1F
100
AcDbEntity
  8
0
100
AcDbLine
 10
37.37167042528654
 20
19.48782226833072
 30
0.0
 11
37.06393887413924
 21
34.00185440458697
 31
0.0
  0
LINE
  5
387
330
1F
100
AcDbEntity
  8
0
100
AcDbLine
 10
-25.0
 20
0.0
 30
0.0
 11
25.0
 21
0.0
 31
0.0
  0
LINE
  5
388
330
1F
100
AcDbEntity
  8
0
100
AcDbLine
 10
-25.0
 20
0.0
 30
0.0
 11
-25.0
 21
0.4000000000000057
 31
0.0
  0
LINE
  5
389
330
1F
100
AcDbEntity
  8
0
100
AcDbLine
 10
25.0
 20
0.0
 30
0.0
 11
25.0
 21
0.4000000000000057
 31
0.0
  0
LINE
  5
38A
330
1F
100
AcDbEntity
  8
1
100
AcDbLine
 10
0.0
 20
-51.10130938070563
 30
0.0
 11
0.0
 21
109.2867751469213
 31
0.0
  0
LINE
  5
38B
330
1F
100
AcDbEntity
  8
1
100
AcDbLine
 10
200.0
 20
-51.10130938070563
 30
0.0
 11
200.0
 21
109.2867751469213
 31
0.0
  0
CIRCLE
  5
38C
330
1F
100
AcDbEntity
  8
2
100
AcDbCircle
 10
0.0
 20
-21.4999999999481
 30
0.0
 40
8.000061035156246
  0
LINE
  5
38D
330
1F
100
AcDbEntity
  8
1
100
AcDbLine
 10
12.12266191247363
 20
-21.4999999999481
 30
0.0
 11
-12.12266191247363
 21
-21.4999999999481
 31
0.0
  0
LINE
  5
38E
330
1F
100
AcDbEntity
  8
1
100
AcDbLine
 10
112.7927671174866
 20
-21.49999999992735
 30
0.0
 11
156.4825780606625
 21
-21.49999999992735
 31
0.0
  0
LINE
  5
38F
330
1F
100
AcDbEntity
  8
2
100
AcDbLine
 10
144.4826390958187
 20
-13.4999389647711
 30
0.0
 11
144.4826390958187
 21
-29.50006103508361
 31
0.0
  0
LINE
  5
390
330
1F
100
AcDbEntity
  8
2
100
AcDbLine
 10
144.4826390958187
 20
-29.50006103508361
 30
0.0
 11
118.4826390958187
 21
-29.50006103508361
 31
0.0
  0
LINE
  5
391
330
1F
100
AcDbEntity
  8
2
100
AcDbLine
 10
144.4826390958187
 20
-13.4999389647711
 30
0.0
 11
118.4826390958187
 21
-13.4999389647711
 31
0.0
  0
LINE
  5
392
330
1F
100
AcDbEntity
  8
2
100
AcDbLine
 10
118.4826390958187
 20
-13.4999389647711
 30
0.0
 11
118.4826390958187
 21
-29.50006103508361
 31
0.0
  0
LINE
  5
393
330
1F
100
AcDbEntity
  8
2
100
AcDbLine
 10
146.4825780606625
 20
-28.00006103508361
 30
0.0
 11
144.4826390958187
 21
-28.00006103508361
 31
0.0
  0
LINE
  5
394
330
1F
100
AcDbEntity
  8
2
100
AcDbLine
 10
146.4825780606625
 20
-14.9999389647711
 30
0.0
 11
144.4826390958187
 21
-14.9999389647711
 31
0.0
  0
LINE
  5
395
330
1F
100
AcDbEntity
  8
2
100
AcDbLine
 10
44.50001525878406
 20
0.0
 30
0.0
 11
-44.50001525878406
 21
0.0
 31
0.0
  0
LINE
  5
396
330
1F
100
AcDbEntity
  8
2
100
AcDbLine
 10
-53.50001525878315
 20
-41.79139326884524
 30
0.0
 11
-53.50001525878224
 21
-8.999999999998863
 31
0.0
  0
ARC
  5
397
330
1F
100
AcDbEntity
  8
2
100
AcDbCircle
 10
-44.50001525878406
 20
-8.999999999998863
 30
0.0
 40
8.999999999998973
100
AcDbArc
 50
90.0
 51
180.0000025044817
  0
ARC
  5
398
330
1F
100
AcDbEntity
  8
2
100
AcDbCircle
 10
44.50001525878406
 20
-8.999999999998863
 30
0.0
 40
8.999999999998973
100
AcDbArc
 50
359.9999974955182
 51
90.0
  0
LINE
  5
399
330
1F
100
AcDbEntity
  8
2
100
AcDbLine
 10
53.50001525878315
 20
-41.79139326884524
 30
0.0
 11
53.50001525878315
 21
-8.999999999998863
 31
0.0
  0
LINE
  5
39A
330
1F
100
AcDbEntity
  8
2
100
AcDbLine
 10
244.5000152587841
 20
0.0
 30
0.0
 11
155.4999847412159
 21
0.0
 31
0.0
  0
LINE
  5
39B
330
1F
100
AcDbEntity
  8
2
100
AcDbLine
 10
146.4999847412168
 20
-41.79139326884524
 30
0.0
 11
146.4999847412177
 21
-8.999999999998863
 31
0.0
  0
ARC
  5
39C
330
1F
100
AcDbEntity
  8
2
100
AcDbCircle
 10
155.4999847412159
 20
-8.999999999998863
 30
0.0
 40
8.999999999998973
100
AcDbArc
 50
90.0
 51
180.0000025044817
  0
ARC
  5
39D
330
1F
100
AcDbEntity
  8
2
100
AcDbCircle
 10
244.5000152587841
 20
-8.999999999998863
 30
0.0
 40
8.999999999998973
100
AcDbArc
 50
359.9999974955182
 51
90.0
  0
LINE
  5
39E
330
1F
100
AcDbEntity
  8
2
100
AcDbLine
 10
253.5000152587831
 20
-41.79139326884524
 30
0.0
 11
253.5000152587831
 21
-8.999999999998863
 31
0.0
  0
LINE
  5
39F
330
1F
100
AcDbEntity
  8
1
100
AcDbLine
 10
12.12266191246158
 20
11.00000000000003
 30
0.0
 11
-12.12266191248568
 21
11.00000000000003
 31
0.0
  0
LINE
  5
3A0
330
1F
100
AcDbEntity
  8
1
100
AcDbLine
 10
176.3408071524825
 20
11.00000000000003
 30
0.0
 11
147.0168092076228
 21
11.00000000000003
 31
0.0
  0
VIEWPORT
  5
71
330
55
100
AcDbEntity
 67
     1
  8
0
100
AcDbViewport
 10
133.3499908447266
 20
101.5999970436096
 30
0.0
 40
381.3957395593835
 41
218.2856291881582
 68
     1
 69
     1
 12
133.3499908447266
 22
101.5999970436096
 13
0.0
 23
0.0
 14
10.0
 24
10.0
 15
10.0
 25
10.0
 16
0.0
 26
0.0
 36
1.0
 17
0.0
 27
0.0
 37
0.0
 42
50.0
 43
0.0
 44
0.0
 45
218.2856291881582
 50
0.0
 51
0.0
 72
   100
 90
    32800
  1

281
     0
 71
     1
 74
     0
110
0.0
120
0.0
130
0.0
111
1.0
121
0.0
131
0.0
112
0.0
122
1.0
132
0.0
 79
     0
146
0.0
170
     0
 61
     5
348
3C7
292
     1
282
     1
141
0.0
142
0.0
 63
   250
421
  3355443
  0
VIEWPORT
  5
73
330
55
100
AcDbEntity
 67
     1
  8
0
100
AcDbViewport
 10
133.3499939441681
 20
101.5999939441681
 30
0.0
 40
213.3599903106689
 41
162.5599903106689
 68
     2
 69
     2
 12
210.0
 22
148.5
 13
0.0
 23
0.0
 14
10.0
 24
10.0
 15
10.0
 25
10.0
 16
0.0
 26
0.0
 36
1.0
 17
0.0
 27
0.0
 37
0.0
 42
50.0
 43
0.0
 44
0.0
 45
324.0677920111345
 50
0.0
 51
0.0
 72
   100
 90
    32864
  1

281
     0
 71
     1
 74
     0
110
0.0
120
0.0
130
0.0
111
1.0
121
0.0
131
0.0
112
0.0
122
1.0
132
0.0
 79
     0
146
0.0
170
     0
 61
     5
348
3C7
292
     1
282
     1
141
0.0
142
0.0
 63
   250
421
  3355443
  0
ENDSEC
  0
SECTION
  2
OBJECTS
  0
DICTIONARY
  5
C
330
0
100
AcDbDictionary
281
     1
  3
ACAD_COLOR
350
3D5
  3
ACAD_GROUP
350
D
  3
ACAD_LAYOUT
350
1A
  3
ACAD_MATERIAL
350
3A8
  3
ACAD_MLEADERSTYLE
350
3EA
  3
ACAD_MLINESTYLE
350
17
  3
ACAD_PLOTSETTINGS
350
19
  3
ACAD_PLOTSTYLENAME
350
E
  3
ACAD_SCALELIST
350
3D8
  3
ACAD_TABLESTYLE
350
3D6
  3
ACAD_VISUALSTYLE
350
3C1
  3
ACDB_RECOMPOSE_DATA
350
3F9
  3
AcDbVariableDictionary
350
5E
  0
DICTIONARY
  5
97
330
2
100
AcDbDictionary
280
     1
281
     1
  3
ACAD_LAYERSTATES
360
98
  0
DICTIONARY
  5
3EE
330
10
100
AcDbDictionary
280
     1
281
     1
  3
ADSK_XREC_LAYER_RECONCILED
360
3EF
  0
DICTIONARY
  5
90
330
8F
100
AcDbDictionary
280
     1
281
     1
  3
ADSK_XREC_LAYER_RECONCILED
360
91
  0
DICTIONARY
  5
93
330
92
100
AcDbDictionary
280
     1
281
     1
  3
ADSK_XREC_LAYER_RECONCILED
360
94
  0
DICTIONARY
  5
3D5
102
{ACAD_REACTORS
330
C
102
}
330
C
100
AcDbDictionary
281
     1
  0
DICTIONARY
  5
D
102
{ACAD_REACTORS
330
C
102
}
330
C
100
AcDbDictionary
281
     1
  0
DICTIONARY
  5
1A
102
{ACAD_REACTORS
330
C
102
}
330
C
100
AcDbDictionary
281
     1
  3
Model
350
22
  3
ﾚｲｱｳﾄ1
350
51
  3
ﾚｲｱｳﾄ2
350
56
  0
DICTIONARY
  5
3A8
102
{ACAD_REACTORS
330
C
102
}
330
C
100
AcDbDictionary
281
     1
  3
ByBlock
350
3B1
  3
ByLayer
350
3A9
  3
Global
350
3B9
  0
DICTIONARY
  5
3EA
102
{ACAD_REACTORS
330
C
102
}
330
C
100
AcDbDictionary
281
     1
  3
Standard
350
3EB
  0
DICTIONARY
  5
17
102
{ACAD_REACTORS
330
C
102
}
330
C
100
AcDbDictionary
281
     1
  3
Standard
350
18
  0
DICTIONARY
  5
19
102
{ACAD_REACTORS
330
C
102
}
330
C
100
AcDbDictionary
281
     1
  0
ACDBDICTIONARYWDFLT
  5
E
102
{ACAD_REACTORS
330
C
102
}
330
C
100
AcDbDictionary
281
     1
  3
Normal
350
F
100
AcDbDictionaryWithDefault
340
F
  0
DICTIONARY
  5
3D8
102
{ACAD_REACTORS
330
C
102
}
330
C
100
AcDbDictionary
281
     1
  3
A0
350
3D9
  3
A1
350
3DA
  3
A2
350
3DB
  3
A3
350
3DC
  3
A4
350
3DD
  3
A5
350
3DE
  3
A6
350
3DF
  3
A7
350
3E0
  3
A8
350
3E1
  3
A9
350
3E2
  3
B0
350
3E3
  3
B1
350
3E4
  3
B2
350
3E5
  3
B3
350
3E6
  3
B4
350
3E7
  3
B5
350
3E8
  3
B6
350
3E9
  0
DICTIONARY
  5
3D6
102
{ACAD_REACTORS
330
C
102
}
330
C
100
AcDbDictionary
281
     1
  3
Standard
350
3D7
  0
DICTIONARY
  5
3C1
102
{ACAD_REACTORS
330
C
102
}
330
C
100
AcDbDictionary
281
     1
  3
2dWireframe
350
3C7
  3
3D Hidden
350
3C9
  3
3dWireframe
350
3C8
  3
Basic
350
3C6
  3
Brighten
350
3CD
  3
ColorChange
350
3D1
  3
Conceptual
350
3CA
  3
Dim
350
3CC
  3
EdgeColorOff
350
3D4
  3
Facepattern
350
3D0
  3
Flat
350
3C2
  3
FlatWithEdges
350
3C3
  3
Gouraud
350
3C4
  3
GouraudWithEdges
350
3C5
  3
JitterOff
350
3D2
  3
Linepattern
350
3CF
  3
OverhangOff
350
3D3
  3
Realistic
350
3CB
  3
Thicken
350
3CE
  0
XRECORD
  5
3F9
102
{ACAD_REACTORS
330
C
102
}
330
C
100
AcDbXrecord
280
     1
 90
        1
330
3D7
  0
DICTIONARY
  5
5E
102
{ACAD_REACTORS
330
C
102
}
330
C
100
AcDbDictionary
281
     1
  3
CANNOSCALE
350
3F3
  3
CMLEADERSTYLE
350
3F1
  3
CTABLESTYLE
350
3F0
  3
DIMASSOC
350
5F
  3
HIDETEXT
350
63
  3
LAYEREVAL
350
3F5
  3
LAYERNOTIFY
350
3F6
  3
LIGHTINGUNITS
350
3F4
  3
MSLTSCALE
350
3F2
  0
DICTIONARY
  5
98
102
{ACAD_REACTORS
330
97
102
}
330
97
100
AcDbDictionary
281
     1
  0
XRECORD
  5
3EF
102
{ACAD_REACTORS
330
3EE
102
}
330
3EE
100
AcDbXrecord
280
     1
290
     1
  0
XRECORD
  5
91
102
{ACAD_REACTORS
330
90
102
}
330
90
100
AcDbXrecord
280
     1
290
     1
  0
XRECORD
  5
94
102
{ACAD_REACTORS
330
93
102
}
330
93
100
AcDbXrecord
280
     1
290
     1
  0
LAYOUT
  5
22
102
{ACAD_REACTORS
330
1A
102
}
330
1A
100
AcDbPlotSettings
  1

  2
none_device
  4
ANSI_A_(8.50_x_11.00_Inches)
  6

 40
6.349999904632568
 41
19.04999923706055
 42
6.350006103515625
 43
19.04998779296875
 44
215.8999938964844
 45
279.3999938964844
 46
0.0
 47
0.0
 48
0.0
 49
0.0
140
0.0
141
0.0
142
1.0
143
78.436453180766
 70
 11952
 72
     0
 73
     1
 74
     0
  7

 75
     0
147
0.0127491741332998
 76
     0
 77
     2
 78
   300
148
0.0
149
0.0
100
AcDbLayout
  1
Model
 70
     1
 71
     0
 10
0.0
 20
0.0
 11
12.0
 21
9.0
 12
0.0
 22
0.0
 32
0.0
 14
0.0
 24
0.0
 34
0.0
 15
0.0
 25
0.0
 35
0.0
146
0.0
 13
0.0
 23
0.0
 33
0.0
 16
1.0
 26
0.0
 36
0.0
 17
0.0
 27
1.0
 37
0.0
 76
     0
330
1F
331
3A6
  0
LAYOUT
  5
51
102
{ACAD_REACTORS
330
1A
102
}
330
1A
100
AcDbPlotSettings
  1

  2
none_device
  4
Letter_(8.50_x_11.00_Inches)
  6

 40
6.349999904632568
 41
6.349999904632568
 42
6.350006103515625
 43
6.350006103515625
 44
215.8999938964844
 45
279.3999938964844
 46
0.0
 47
0.0
 48
0.0
 49
0.0
140
0.0
141
0.0
142
1.0
143
1.0
 70
   688
 72
     1
 73
     1
 74
     5
  7

 75
    16
147
1.0
 76
     0
 77
     2
 78
   300
148
0.0
149
0.0
100
AcDbLayout
  1
ﾚｲｱｳﾄ1
 70
     1
 71
     1
 10
-6.350006103515625
 20
-6.349999904632568
 11
273.0499877929688
 21
209.5499939918518
 12
0.0
 22
0.0
 32
0.0
 14
26.66076962115563
 24
20.31135699206658
 34
-0.0015258207003583
 15
240.039213369355
 25
182.8886381005154
 35
0.0000000349246037
146
0.0
 13
0.0
 23
0.0
 33
0.0
 16
1.0
 26
0.0
 36
0.0
 17
0.0
 27
1.0
 37
0.0
 76
     0
330
50
331
6B
  0
LAYOUT
  5
56
102
{ACAD_REACTORS
330
1A
102
}
330
1A
100
AcDbPlotSettings
  1

  2
none_device
  4
Letter_(8.50_x_11.00_Inches)
  6

 40
6.349999904632568
 41
6.349999904632568
 42
6.350006103515625
 43
6.350006103515625
 44
215.8999938964844
 45
279.3999938964844
 46
0.0
 47
0.0
 48
0.0
 49
0.0
140
0.0
141
0.0
142
1.0
143
1.0
 70
   688
 72
     1
 73
     1
 74
     5
  7

 75
    16
147
1.0
 76
     0
 77
     2
 78
   300
148
0.0
149
0.0
100
AcDbLayout
  1
ﾚｲｱｳﾄ2
 70
     1
 71
     2
 10
-6.350006103515625
 20
-6.349999904632568
 11
273.0499877929688
 21
209.5499939918518
 12
0.0
 22
0.0
 32
0.0
 14
26.66076962115563
 24
20.31135699206658
 34
-0.0015258207003583
 15
240.039213369355
 25
182.8886381005154
 35
0.0000000349246037
146
0.0
 13
0.0
 23
0.0
 33
0.0
 16
1.0
 26
0.0
 36
0.0
 17
0.0
 27
1.0
 37
0.0
 76
     0
330
55
331
71
  0
MATERIAL
  5
3B1
102
{ACAD_XDICTIONARY
360
3B2
102
}
102
{ACAD_REACTORS
330
3A8
102
}
330
3A8
100
AcDbMaterial
  1
ByBlock
 72
     0
 43
0.0008202099737533
 43
0.0
 43
0.0
 43
0.0
 43
0.0
 43
0.0008202099737533
 43
0.0
 43
0.0
 43
0.0
 43
0.0
 43
1.0
 43
0.0
 43
0.0
 43
0.0
 43
0.0
 43
1.0
 77
     0
 47
0.0008202099737533
 47
0.0
 47
0.0
 47
0.0
 47
0.0
 47
0.0008202099737533
 47
0.0
 47
0.0
 47
0.0
 47
0.0
 47
1.0
 47
0.0
 47
0.0
 47
0.0
 47
0.0
 47
1.0
171
     0
 49
0.0008202099737533
 49
0.0
 49
0.0
 49
0.0
 49
0.0
 49
0.0008202099737533
 49
0.0
 49
0.0
 49
0.0
 49
0.0
 49
1.0
 49
0.0
 49
0.0
 49
0.0
 49
0.0
 49
1.0
175
     0
142
0.0008202099737533
142
0.0
142
0.0
142
0.0
142
0.0
142
0.0008202099737533
142
0.0
142
0.0
142
0.0
142
0.0
142
1.0
142
0.0
142
0.0
142
0.0
142
0.0
142
1.0
179
     0
144
0.0008202099737533
144
0.0
144
0.0
144
0.0
144
0.0
144
0.0008202099737533
144
0.0
144
0.0
144
0.0
144
0.0
144
1.0
144
0.0
144
0.0
144
0.0
144
0.0
144
1.0
147
0.0008202099737533
147
0.0
147
0.0
147
0.0
147
0.0
147
0.0008202099737533
147
0.0
147
0.0
147
0.0
147
0.0
147
1.0
147
0.0
147
0.0
147
0.0
147
0.0
147
1.0
  0
MATERIAL
  5
3A9
102
{ACAD_XDICTIONARY
360
3AA
102
}
102
{ACAD_REACTORS
330
3A8
102
}
330
3A8
100
AcDbMaterial
  1
ByLayer
 72
     0
 43
0.0008202099737533
 43
0.0
 43
0.0
 43
0.0
 43
0.0
 43
0.0008202099737533
 43
0.0
 43
0.0
 43
0.0
 43
0.0
 43
1.0
 43
0.0
 43
0.0
 43
0.0
 43
0.0
 43
1.0
 77
     0
 47
0.0008202099737533
 47
0.0
 47
0.0
 47
0.0
 47
0.0
 47
0.0008202099737533
 47
0.0
 47
0.0
 47
0.0
 47
0.0
 47
1.0
 47
0.0
 47
0.0
 47
0.0
 47
0.0
 47
1.0
171
     0
 49
0.0008202099737533
 49
0.0
 49
0.0
 49
0.0
 49
0.0
 49
0.0008202099737533
 49
0.0
 49
0.0
 49
0.0
 49
0.0
 49
1.0
 49
0.0
 49
0.0
 49
0.0
 49
0.0
 49
1.0
175
     0
142
0.0008202099737533
142
0.0
142
0.0
142
0.0
142
0.0
142
0.0008202099737533
142
0.0
142
0.0
142
0.0
142
0.0
142
1.0
142
0.0
142
0.0
142
0.0
142
0.0
142
1.0
179
     0
144
0.0008202099737533
144
0.0
144
0.0
144
0.0
144
0.0
144
0.0008202099737533
144
0.0
144
0.0
144
0.0
144
0.0
144
1.0
144
0.0
144
0.0
144
0.0
144
0.0
144
1.0
147
0.0008202099737533
147
0.0
147
0.0
147
0.0
147
0.0
147
0.0008202099737533
147
0.0
147
0.0
147
0.0
147
0.0
147
1.0
147
0.0
147
0.0
147
0.0
147
0.0
147
1.0
  0
MATERIAL
  5
3B9
102
{ACAD_XDICTIONARY
360
3BA
102
}
102
{ACAD_REACTORS
330
3A8
102
}
330
3A8
100
AcDbMaterial
  1
Global
 72
     0
 43
0.0008202099737533
 43
0.0
 43
0.0
 43
0.0
 43
0.0
 43
0.0008202099737533
 43
0.0
 43
0.0
 43
0.0
 43
0.0
 43
1.0
 43
0.0
 43
0.0
 43
0.0
 43
0.0
 43
1.0
 77
     0
 47
0.0008202099737533
 47
0.0
 47
0.0
 47
0.0
 47
0.0
 47
0.0008202099737533
 47
0.0
 47
0.0
 47
0.0
 47
0.0
 47
1.0
 47
0.0
 47
0.0
 47
0.0
 47
0.0
 47
1.0
171
     0
 49
0.0008202099737533
 49
0.0
 49
0.0
 49
0.0
 49
0.0
 49
0.0008202099737533
 49
0.0
 49
0.0
 49
0.0
 49
0.0
 49
1.0
 49
0.0
 49
0.0
 49
0.0
 49
0.0
 49
1.0
175
     0
142
0.0008202099737533
142
0.0
142
0.0
142
0.0
142
0.0
142
0.0008202099737533
142
0.0
142
0.0
142
0.0
142
0.0
142
1.0
142
0.0
142
0.0
142
0.0
142
0.0
142
1.0
179
     0
144
0.0008202099737533
144
0.0
144
0.0
144
0.0
144
0.0
144
0.0008202099737533
144
0.0
144
0.0
144
0.0
144
0.0
144
1.0
144
0.0
144
0.0
144
0.0
144
0.0
144
1.0
147
0.0008202099737533
147
0.0
147
0.0
147
0.0
147
0.0
147
0.0008202099737533
147
0.0
147
0.0
147
0.0
147
0.0
147
1.0
147
0.0
147
0.0
147
0.0
147
0.0
147
1.0
  0
MLEADERSTYLE
  5
3EB
102
{ACAD_REACTORS
330
3EA
102
}
330
3EA
100
AcDbMLeaderStyle
179
     2
170
     2
171
     1
172
     0
 90
        2
 40
0.0
 41
0.0
173
     1
 91
-1056964608
340
14
 92
       -2
290
     1
 42
2.0
291
     1
 43
0.36
  3
Standard
 44
4.0
300

342
11
174
     1
178
     6
175
     1
176
     0
 93
-1056964608
 45
4.0
292
     0
297
     0
 46
4.0
 94
-1056964608
 47
1.0
 49
1.0
140
1.0
293
     1
141
0.0
294
     1
177
     0
142
1.0
295
     1
296
     0
143
0.125
271
     0
272
     9
273
     9
  0
MLINESTYLE
  5
18
102
{ACAD_REACTORS
330
17
102
}
330
17
100
AcDbMlineStyle
  2
STANDARD
 70
     0
  3

 62
   256
 51
90.0
 52
90.0
 71
     2
 49
0.5
 62
   256
  6
BYLAYER
 49
-0.5
 62
   256
  6
BYLAYER
  0
ACDBPLACEHOLDER
  5
F
102
{ACAD_REACTORS
330
E
102
}
330
E
  0
SCALE
  5
3D9
102
{ACAD_REACTORS
330
3D8
102
}
330
3D8
100
AcDbScale
 70
     0
300
1:1
140
1.0
141
1.0
290
     1
  0
SCALE
  5
3DA
102
{ACAD_REACTORS
330
3D8
102
}
330
3D8
100
AcDbScale
 70
     0
300
1:2
140
1.0
141
2.0
290
     0
  0
SCALE
  5
3DB
102
{ACAD_REACTORS
330
3D8
102
}
330
3D8
100
AcDbScale
 70
     0
300
1:4
140
1.0
141
4.0
290
     0
  0
SCALE
  5
3DC
102
{ACAD_REACTORS
330
3D8
102
}
330
3D8
100
AcDbScale
 70
     0
300
1:5
140
1.0
141
5.0
290
     0
  0
SCALE
  5
3DD
102
{ACAD_REACTORS
330
3D8
102
}
330
3D8
100
AcDbScale
 70
     0
300
1:8
140
1.0
141
8.0
290
     0
  0
SCALE
  5
3DE
102
{ACAD_REACTORS
330
3D8
102
}
330
3D8
100
AcDbScale
 70
     0
300
1:10
140
1.0
141
10.0
290
     0
  0
SCALE
  5
3DF
102
{ACAD_REACTORS
330
3D8
102
}
330
3D8
100
AcDbScale
 70
     0
300
1:16
140
1.0
141
16.0
290
     0
  0
SCALE
  5
3E0
102
{ACAD_REACTORS
330
3D8
102
}
330
3D8
100
AcDbScale
 70
     0
300
1:20
140
1.0
141
20.0
290
     0
  0
SCALE
  5
3E1
102
{ACAD_REACTORS
330
3D8
102
}
330
3D8
100
AcDbScale
 70
     0
300
1:30
140
1.0
141
30.0
290
     0
  0
SCALE
  5
3E2
102
{ACAD_REACTORS
330
3D8
102
}
330
3D8
100
AcDbScale
 70
     0
300
1:40
140
1.0
141
40.0
290
     0
  0
SCALE
  5
3E3
102
{ACAD_REACTORS
330
3D8
102
}
330
3D8
100
AcDbScale
 70
     0
300
1:50
140
1.0
141
50.0
290
     0
  0
SCALE
  5
3E4
102
{ACAD_REACTORS
330
3D8
102
}
330
3D8
100
AcDbScale
 70
     0
300
1:100
140
1.0
141
100.0
290
     0
  0
SCALE
  5
3E5
102
{ACAD_REACTORS
330
3D8
102
}
330
3D8
100
AcDbScale
 70
     0
300
2:1
140
2.0
141
1.0
290
     0
  0
SCALE
  5
3E6
102
{ACAD_REACTORS
330
3D8
102
}
330
3D8
100
AcDbScale
 70
     0
300
4:1
140
4.0
141
1.0
290
     0
  0
SCALE
  5
3E7
102
{ACAD_REACTORS
330
3D8
102
}
330
3D8
100
AcDbScale
 70
     0
300
8:1
140
8.0
141
1.0
290
     0
  0
SCALE
  5
3E8
102
{ACAD_REACTORS
330
3D8
102
}
330
3D8
100
AcDbScale
 70
     0
300
10:1
140
10.0
141
1.0
290
     0
  0
SCALE
  5
3E9
102
{ACAD_REACTORS
330
3D8
102
}
330
3D8
100
AcDbScale
 70
     0
300
100:1
140
100.0
141
1.0
290
     0
  0
TABLESTYLE
  5
3D7
102
{ACAD_XDICTIONARY
360
3F7
102
}
102
{ACAD_REACTORS
330
3D6
102
}
330
3D6
100
AcDbTableStyle
280
     0
  3
Standard
 70
     0
 71
     0
 40
1.5
 41
1.5
280
     0
281
     0
  7
Standard
140
4.5
170
     2
 62
     0
 63
     7
283
     0
 90
      512
 91
        0
  1

274
    -2
284
     1
 64
     0
275
    -2
285
     1
 65
     0
276
    -2
286
     1
 66
     0
277
    -2
287
     1
 67
     0
278
    -2
288
     1
 68
     0
279
    -2
289
     1
 69
     0
  7
Standard
140
6.0
170
     5
 62
     0
 63
     7
283
     0
 90
      512
 91
        0
  1

274
    -2
284
     1
 64
     0
275
    -2
285
     1
 65
     0
276
    -2
286
     1
 66
     0
277
    -2
287
     1
 67
     0
278
    -2
288
     1
 68
     0
279
    -2
289
     1
 69
     0
  7
Standard
140
4.5
170
     5
 62
     0
 63
     7
283
     0
 90
      512
 91
        0
  1

274
    -2
284
     1
 64
     0
275
    -2
285
     1
 65
     0
276
    -2
286
     1
 66
     0
277
    -2
287
     1
 67
     0
278
    -2
288
     1
 68
     0
279
    -2
289
     1
 69
     0
  0
VISUALSTYLE
  5
3C7
102
{ACAD_REACTORS
330
3C1
102
}
330
3C1
100
AcDbVisualStyle
  2
2dWireframe
 70
     4
177
     2
291
     0
 71
     0
176
     1
 72
     2
176
     1
 73
     0
176
     1
 90
        0
176
     1
 40
0.6
176
     1
 41
30.0
176
     1
 63
     7
421
 16777215
176
     1
 74
     1
176
     1
 91
        4
176
     1
 64
     7
176
     1
 65
   257
176
     1
 75
     1
176
     1
175
     1
176
     1
 42
1.0
176
     1
 92
        0
176
     1
 66
   257
176
     1
 43
1.0
176
     1
 76
     1
176
     1
 77
     6
176
     1
 78
     2
176
     1
 67
     7
176
     1
 79
     5
176
     1
170
     0
176
     1
171
     0
176
     1
290
     0
176
     1
 93
        1
176
     1
 44
0.0
176
     1
173
     0
176
     1
  0
VISUALSTYLE
  5
3C9
102
{ACAD_REACTORS
330
3C1
102
}
330
3C1
100
AcDbVisualStyle
  2
3D Hidden
 70
     6
177
     2
291
     0
 71
     1
176
     1
 72
     2
176
     1
 73
     2
176
     1
 90
        0
176
     1
 40
0.6
176
     1
 41
30.0
176
     1
 63
     7
421
 16777215
176
     1
 74
     2
176
     1
 91
        2
176
     1
 64
     7
176
     1
 65
   257
176
     1
 75
     2
176
     1
175
     1
176
     1
 42
179.0
176
     1
 92
        0
176
     1
 66
   257
176
     1
 43
1.0
176
     1
 76
     1
176
     1
 77
     6
176
     1
 78
     2
176
     1
 67
     7
176
     1
 79
     3
176
     1
170
     0
176
     1
171
     0
176
     1
290
     0
176
     1
 93
        1
176
     1
 44
0.0
176
     1
173
     0
176
     1
  0
VISUALSTYLE
  5
3C8
102
{ACAD_REACTORS
330
3C1
102
}
330
3C1
100
AcDbVisualStyle
  2
3dWireframe
 70
     5
177
     2
291
     0
 71
     0
176
     1
 72
     2
176
     1
 73
     0
176
     1
 90
        0
176
     1
 40
0.6
176
     1
 41
30.0
176
     1
 63
     7
421
 16777215
176
     1
 74
     1
176
     1
 91
        4
176
     1
 64
     7
176
     1
 65
   257
176
     1
 75
     1
176
     1
175
     1
176
     1
 42
1.0
176
     1
 92
        0
176
     1
 66
   257
176
     1
 43
1.0
176
     1
 76
     1
176
     1
 77
     6
176
     1
 78
     2
176
     1
 67
     7
176
     1
 79
     5
176
     1
170
     0
176
     1
171
     0
176
     1
290
     0
176
     1
 93
        1
176
     1
 44
0.0
176
     1
173
     0
176
     1
  0
VISUALSTYLE
  5
3C6
102
{ACAD_REACTORS
330
3C1
102
}
330
3C1
100
AcDbVisualStyle
  2
Basic
 70
     7
177
     2
291
     1
 71
     1
176
     1
 72
     0
176
     1
 73
     1
176
     1
 90
        0
176
     1
 40
0.6
176
     1
 41
30.0
176
     1
 63
     7
421
 16777215
176
     1
 74
     0
176
     1
 91
        4
176
     1
 64
     7
176
     1
 65
   257
176
     1
 75
     1
176
     1
175
     1
176
     1
 42
1.0
176
     1
 92
        8
176
     1
 66
     7
176
     1
 43
1.0
176
     1
 76
     1
176
     1
 77
     6
176
     1
 78
     2
176
     1
 67
     7
176
     1
 79
     5
176
     1
170
     0
176
     1
171
     0
176
     1
290
     0
176
     1
 93
        1
176
     1
 44
0.0
176
     1
173
     0
176
     1
  0
VISUALSTYLE
  5
3CD
102
{ACAD_REACTORS
330
3C1
102
}
330
3C1
100
AcDbVisualStyle
  2
Brighten
 70
    12
177
     2
291
     1
 71
     2
176
     1
 72
     2
176
     1
 73
     0
176
     1
 90
        0
176
     1
 40
0.6
176
     1
 41
30.0
176
     1
 63
     7
421
 16777215
176
     1
 74
     1
176
     1
 91
        4
176
     1
 64
     7
176
     1
 65
   257
176
     1
 75
     1
176
     1
175
     1
176
     1
 42
1.0
176
     1
 92
        8
176
     1
 66
     7
176
     1
 43
1.0
176
     1
 76
     1
176
     1
 77
     6
176
     1
 78
     2
176
     1
 67
     7
176
     1
 79
     5
176
     1
170
     0
176
     1
171
     0
176
     1
290
     0
176
     1
 93
        1
176
     1
 44
50.0
176
     1
173
     0
176
     1
  0
VISUALSTYLE
  5
3D1
102
{ACAD_REACTORS
330
3C1
102
}
330
3C1
100
AcDbVisualStyle
  2
ColorChange
 70
    16
177
     2
291
     1
 71
     2
176
     1
 72
     2
176
     1
 73
     3
176
     1
 90
        0
176
     1
 40
0.6
176
     1
 41
30.0
176
     1
 63
     8
421
  8421504
176
     1
 74
     1
176
     1
 91
        4
176
     1
 64
     7
176
     1
 65
   257
176
     1
 75
     1
176
     1
175
     1
176
     1
 42
1.0
176
     1
 92
        8
176
     1
 66
     8
424
  8421504
176
     1
 43
1.0
176
     1
 76
     1
176
     1
 77
     6
176
     1
 78
     2
176
     1
 67
     7
176
     1
 79
     5
176
     1
170
     0
176
     1
171
     0
176
     1
290
     0
176
     1
 93
        1
176
     1
 44
0.0
176
     1
173
     0
176
     1
  0
VISUALSTYLE
  5
3CA
102
{ACAD_REACTORS
330
3C1
102
}
330
3C1
100
AcDbVisualStyle
  2
Conceptual
 70
     9
177
     2
291
     0
 71
     3
176
     1
 72
     2
176
     1
 73
     0
176
     1
 90
        0
176
     1
 40
0.6
176
     1
 41
30.0
176
     1
 63
     7
421
 16777215
176
     1
 74
     2
176
     1
 91
        2
176
     1
 64
     7
176
     1
 65
   257
176
     1
 75
     1
176
     1
175
     1
176
     1
 42
179.0
176
     1
 92
        8
176
     1
 66
     7
176
     1
 43
1.0
176
     1
 76
     1
176
     1
 77
     6
176
     1
 78
     2
176
     1
 67
     7
176
     1
 79
     3
176
     1
170
     0
176
     1
171
     0
176
     1
290
     0
176
     1
 93
        1
176
     1
 44
0.0
176
     1
173
     0
176
     1
  0
VISUALSTYLE
  5
3CC
102
{ACAD_REACTORS
330
3C1
102
}
330
3C1
100
AcDbVisualStyle
  2
Dim
 70
    11
177
     2
291
     1
 71
     2
176
     1
 72
     2
176
     1
 73
     0
176
     1
 90
        0
176
     1
 40
0.6
176
     1
 41
30.0
176
     1
 63
     7
421
 16777215
176
     1
 74
     1
176
     1
 91
        4
176
     1
 64
     7
176
     1
 65
   257
176
     1
 75
     1
176
     1
175
     1
176
     1
 42
1.0
176
     1
 92
        8
176
     1
 66
     7
176
     1
 43
1.0
176
     1
 76
     1
176
     1
 77
     6
176
     1
 78
     2
176
     1
 67
     7
176
     1
 79
     5
176
     1
170
     0
176
     1
171
     0
176
     1
290
     0
176
     1
 93
        1
176
     1
 44
-50.0
176
     1
173
     0
176
     1
  0
VISUALSTYLE
  5
3D4
102
{ACAD_REACTORS
330
3C1
102
}
330
3C1
100
AcDbVisualStyle
  2
EdgeColorOff
 70
    22
177
     2
291
     1
 71
     2
176
     0
 72
     2
176
     0
 73
     0
176
     0
 90
        0
176
     0
 40
0.6
176
     0
 41
30.0
176
     0
 63
     7
421
 16777215
176
     0
 74
     1
176
     0
 91
        4
176
     0
 64
     7
176
     0
 65
   257
176
     0
 75
     1
176
     0
175
     1
176
     0
 42
1.0
176
     0
 92
        8
176
     2
 66
     7
176
     0
 43
1.0
176
     0
 76
     1
176
     0
 77
     6
176
     0
 78
     2
176
     0
 67
     7
176
     0
 79
     5
176
     0
170
     0
176
     0
171
     0
176
     0
290
     0
176
     0
 93
        1
176
     0
 44
0.0
176
     0
173
     0
176
     0
  0
VISUALSTYLE
  5
3D0
102
{ACAD_REACTORS
330
3C1
102
}
330
3C1
100
AcDbVisualStyle
  2
Facepattern
 70
    15
177
     2
291
     1
 71
     2
176
     1
 72
     2
176
     1
 73
     0
176
     1
 90
        0
176
     1
 40
0.6
176
     1
 41
30.0
176
     1
 63
     7
421
 16777215
176
     1
 74
     1
176
     1
 91
        4
176
     1
 64
     7
176
     1
 65
   257
176
     1
 75
     1
176
     1
175
     1
176
     1
 42
1.0
176
     1
 92
        8
176
     1
 66
     7
176
     1
 43
1.0
176
     1
 76
     1
176
     1
 77
     6
176
     1
 78
     2
176
     1
 67
     7
176
     1
 79
     5
176
     1
170
     0
176
     1
171
     0
176
     1
290
     0
176
     1
 93
        1
176
     1
 44
0.0
176
     1
173
     0
176
     1
  0
VISUALSTYLE
  5
3C2
102
{ACAD_REACTORS
330
3C1
102
}
330
3C1
100
AcDbVisualStyle
  2
Flat
 70
     0
177
     2
291
     1
 71
     2
176
     1
 72
     1
176
     1
 73
     1
176
     1
 90
        2
176
     1
 40
0.6
176
     1
 41
30.0
176
     1
 63
     7
421
 16777215
176
     1
 74
     0
176
     1
 91
        4
176
     1
 64
     7
176
     1
 65
   257
176
     1
 75
     1
176
     1
175
     1
176
     1
 42
1.0
176
     1
 92
        8
176
     1
 66
     7
176
     1
 43
1.0
176
     1
 76
     1
176
     1
 77
     6
176
     1
 78
     2
176
     1
 67
     7
176
     1
 79
     5
176
     1
170
     0
176
     1
171
     0
176
     1
290
     0
176
     1
 93
       13
176
     1
 44
0.0
176
     1
173
     0
176
     1
  0
VISUALSTYLE
  5
3C3
102
{ACAD_REACTORS
330
3C1
102
}
330
3C1
100
AcDbVisualStyle
  2
FlatWithEdges
 70
     1
177
     2
291
     1
 71
     2
176
     1
 72
     1
176
     1
 73
     1
176
     1
 90
        2
176
     1
 40
0.6
176
     1
 41
30.0
176
     1
 63
     7
421
 16777215
176
     1
 74
     1
176
     1
 91
        4
176
     1
 64
     7
176
     1
 65
   257
176
     1
 75
     1
176
     1
175
     1
176
     1
 42
1.0
176
     1
 92
        0
176
     1
 66
   257
176
     1
 43
1.0
176
     1
 76
     1
176
     1
 77
     6
176
     1
 78
     2
176
     1
 67
     7
176
     1
 79
     5
176
     1
170
     0
176
     1
171
     0
176
     1
290
     0
176
     1
 93
       13
176
     1
 44
0.0
176
     1
173
     0
176
     1
  0
VISUALSTYLE
  5
3C4
102
{ACAD_REACTORS
330
3C1
102
}
330
3C1
100
AcDbVisualStyle
  2
Gouraud
 70
     2
177
     2
291
     1
 71
     2
176
     1
 72
     2
176
     1
 73
     1
176
     1
 90
        2
176
     1
 40
0.6
176
     1
 41
30.0
176
     1
 63
     7
421
 16777215
176
     1
 74
     0
176
     1
 91
        4
176
     1
 64
     7
176
     1
 65
   257
176
     1
 75
     1
176
     1
175
     1
176
     1
 42
1.0
176
     1
 92
        0
176
     1
 66
     7
176
     1
 43
1.0
176
     1
 76
     1
176
     1
 77
     6
176
     1
 78
     2
176
     1
 67
     7
176
     1
 79
     5
176
     1
170
     0
176
     1
171
     0
176
     1
290
     0
176
     1
 93
       13
176
     1
 44
0.0
176
     1
173
     0
176
     1
  0
VISUALSTYLE
  5
3C5
102
{ACAD_REACTORS
330
3C1
102
}
330
3C1
100
AcDbVisualStyle
  2
GouraudWithEdges
 70
     3
177
     2
291
     1
 71
     2
176
     1
 72
     2
176
     1
 73
     1
176
     1
 90
        2
176
     1
 40
0.6
176
     1
 41
30.0
176
     1
 63
     7
421
 16777215
176
     1
 74
     1
176
     1
 91
        4
176
     1
 64
     7
176
     1
 65
   257
176
     1
 75
     1
176
     1
175
     1
176
     1
 42
1.0
176
     1
 92
        0
176
     1
 66
   257
176
     1
 43
1.0
176
     1
 76
     1
176
     1
 77
     6
176
     1
 78
     2
176
     1
 67
     7
176
     1
 79
     5
176
     1
170
     0
176
     1
171
     0
176
     1
290
     0
176
     1
 93
       13
176
     1
 44
0.0
176
     1
173
     0
176
     1
  0
VISUALSTYLE
  5
3D2
102
{ACAD_REACTORS
330
3C1
102
}
330
3C1
100
AcDbVisualStyle
  2
JitterOff
 70
    20
177
     2
291
     1
 71
     2
176
     0
 72
     2
176
     0
 73
     0
176
     0
 90
        0
176
     0
 40
0.6
176
     0
 41
30.0
176
     0
 63
     7
421
 16777215
176
     0
 74
     1
176
     0
 91
        4
176
     0
 64
     7
176
     0
 65
   257
176
     0
 75
     1
176
     0
175
     1
176
     0
 42
1.0
176
     0
 92
       10
176
     2
 66
     7
176
     0
 43
1.0
176
     0
 76
     1
176
     0
 77
     6
176
     0
 78
     2
176
     0
 67
     7
176
     0
 79
     5
176
     0
170
     0
176
     0
171
     0
176
     0
290
     0
176
     0
 93
        1
176
     0
 44
0.0
176
     0
173
     0
176
     0
  0
VISUALSTYLE
  5
3CF
102
{ACAD_REACTORS
330
3C1
102
}
330
3C1
100
AcDbVisualStyle
  2
Linepattern
 70
    14
177
     2
291
     1
 71
     2
176
     1
 72
     2
176
     1
 73
     0
176
     1
 90
        0
176
     1
 40
0.6
176
     1
 41
30.0
176
     1
 63
     7
421
 16777215
176
     1
 74
     1
176
     1
 91
        4
176
     1
 64
     7
176
     1
 65
   257
176
     1
 75
     7
176
     1
175
     7
176
     1
 42
1.0
176
     1
 92
        8
176
     1
 66
     7
176
     1
 43
1.0
176
     1
 76
     1
176
     1
 77
     6
176
     1
 78
     2
176
     1
 67
     7
176
     1
 79
     5
176
     1
170
     0
176
     1
171
     0
176
     1
290
     0
176
     1
 93
        1
176
     1
 44
0.0
176
     1
173
     0
176
     1
  0
VISUALSTYLE
  5
3D3
102
{ACAD_REACTORS
330
3C1
102
}
330
3C1
100
AcDbVisualStyle
  2
OverhangOff
 70
    21
177
     2
291
     1
 71
     2
176
     0
 72
     2
176
     0
 73
     0
176
     0
 90
        0
176
     0
 40
0.6
176
     0
 41
30.0
176
     0
 63
     7
421
 16777215
176
     0
 74
     1
176
     0
 91
        4
176
     0
 64
     7
176
     0
 65
   257
176
     0
 75
     1
176
     0
175
     1
176
     0
 42
1.0
176
     0
 92
        9
176
     2
 66
     7
176
     0
 43
1.0
176
     0
 76
     1
176
     0
 77
     6
176
     0
 78
     2
176
     0
 67
     7
176
     0
 79
     5
176
     0
170
     0
176
     0
171
     0
176
     0
290
     0
176
     0
 93
        1
176
     0
 44
0.0
176
     0
173
     0
176
     0
  0
VISUALSTYLE
  5
3CB
102
{ACAD_REACTORS
330
3C1
102
}
330
3C1
100
AcDbVisualStyle
  2
Realistic
 70
     8
177
     2
291
     0
 71
     2
176
     1
 72
     2
176
     1
 73
     0
176
     1
 90
        0
176
     1
 40
0.6
176
     1
 41
30.0
176
     1
 63
     7
421
 16777215
176
     1
 74
     1
176
     1
 91
        0
176
     1
 64
     7
176
     1
 65
   257
176
     1
 75
     1
176
     1
175
     1
176
     1
 42
1.0
176
     1
 92
        8
176
     1
 66
     8
424
  7895160
176
     1
 43
1.0
176
     1
 76
     1
176
     1
 77
     6
176
     1
 78
     2
176
     1
 67
     7
176
     1
 79
     5
176
     1
170
     0
176
     1
171
     0
176
     1
290
     0
176
     1
 93
       13
176
     1
 44
0.0
176
     1
173
     0
176
     1
  0
VISUALSTYLE
  5
3CE
102
{ACAD_REACTORS
330
3C1
102
}
330
3C1
100
AcDbVisualStyle
  2
Thicken
 70
    13
177
     2
291
     1
 71
     2
176
     1
 72
     2
176
     1
 73
     0
176
     1
 90
        0
176
     1
 40
0.6
176
     1
 41
30.0
176
     1
 63
     7
421
 16777215
176
     1
 74
     1
176
     1
 91
        4
176
     1
 64
     7
176
     1
 65
   257
176
     1
 75
     1
176
     1
175
     1
176
     1
 42
1.0
176
     1
 92
       12
176
     1
 66
     7
176
     1
 43
1.0
176
     1
 76
     1
176
     1
 77
     6
176
     1
 78
     2
176
     1
 67
     7
176
     1
 79
     5
176
     1
170
     0
176
     1
171
     0
176
     1
290
     0
176
     1
 93
        1
176
     1
 44
0.0
176
     1
173
     0
176
     1
  0
DICTIONARYVAR
  5
3F3
102
{ACAD_REACTORS
330
5E
102
}
330
5E
100
DictionaryVariables
280
     0
  1
1:1
  0
DICTIONARYVAR
  5
3F1
102
{ACAD_REACTORS
330
5E
102
}
330
5E
100
DictionaryVariables
280
     0
  1
STANDARD
  0
DICTIONARYVAR
  5
3F0
102
{ACAD_REACTORS
330
5E
102
}
330
5E
100
DictionaryVariables
280
     0
  1
STANDARD
  0
DICTIONARYVAR
  5
5F
102
{ACAD_REACTORS
330
5E
102
}
330
5E
100
DictionaryVariables
280
     0
  1
2
  0
DICTIONARYVAR
  5
63
102
{ACAD_REACTORS
330
5E
102
}
330
5E
100
DictionaryVariables
280
     0
  1
1
  0
DICTIONARYVAR
  5
3F5
102
{ACAD_REACTORS
330
5E
102
}
330
5E
100
DictionaryVariables
280
     0
  1
1
  0
DICTIONARYVAR
  5
3F6
102
{ACAD_REACTORS
330
5E
102
}
330
5E
100
DictionaryVariables
280
     0
  1
15
  0
DICTIONARYVAR
  5
3F4
102
{ACAD_REACTORS
330
5E
102
}
330
5E
100
DictionaryVariables
280
     0
  1
0
  0
DICTIONARYVAR
  5
3F2
102
{ACAD_REACTORS
330
5E
102
}
330
5E
100
DictionaryVariables
280
     0
  1
0
  0
DICTIONARY
  5
3B2
330
3B1
100
AcDbDictionary
280
     1
281
     1
  3
BUMPTILE
360
3B4
  3
DIFFUSETILE
360
3B3
  3
OPACITYTILE
360
3B7
  3
REFLECTIONTILE
360
3B6
  3
REFRACTIONTILE
360
3B8
  3
SPECULARTILE
360
3B5
  0
DICTIONARY
  5
3AA
330
3A9
100
AcDbDictionary
280
     1
281
     1
  3
BUMPTILE
360
3AC
  3
DIFFUSETILE
360
3AB
  3
OPACITYTILE
360
3AF
  3
REFLECTIONTILE
360
3AE
  3
REFRACTIONTILE
360
3B0
  3
SPECULARTILE
360
3AD
  0
DICTIONARY
  5
3BA
330
3B9
100
AcDbDictionary
280
     1
281
     1
  3
BUMPTILE
360
3BC
  3
DIFFUSETILE
360
3BB
  3
OPACITYTILE
360
3BF
  3
REFLECTIONTILE
360
3BE
  3
REFRACTIONTILE
360
3C0
  3
SPECULARTILE
360
3BD
  0
DICTIONARY
  5
3F7
330
3D7
100
AcDbDictionary
280
     1
281
     1
  3
ACAD_ROUNDTRIP_2008_TABLESTYLE_CELLSTYLEMAP
360
3F8
  0
XRECORD
  5
3B4
102
{ACAD_REACTORS
330
3B2
102
}
330
3B2
100
AcDbXrecord
280
     1
270
     1
271
     1
  0
XRECORD
  5
3B3
102
{ACAD_REACTORS
330
3B2
102
}
330
3B2
100
AcDbXrecord
280
     1
270
     1
271
     1
  0
XRECORD
  5
3B7
102
{ACAD_REACTORS
330
3B2
102
}
330
3B2
100
AcDbXrecord
280
     1
270
     1
271
     1
  0
XRECORD
  5
3B6
102
{ACAD_REACTORS
330
3B2
102
}
330
3B2
100
AcDbXrecord
280
     1
270
     1
271
     1
  0
XRECORD
  5
3B8
102
{ACAD_REACTORS
330
3B2
102
}
330
3B2
100
AcDbXrecord
280
     1
270
     1
271
     1
  0
XRECORD
  5
3B5
102
{ACAD_REACTORS
330
3B2
102
}
330
3B2
100
AcDbXrecord
280
     1
270
     1
271
     1
  0
XRECORD
  5
3AC
102
{ACAD_REACTORS
330
3AA
102
}
330
3AA
100
AcDbXrecord
280
     1
270
     1
271
     1
  0
XRECORD
  5
3AB
102
{ACAD_REACTORS
330
3AA
102
}
330
3AA
100
AcDbXrecord
280
     1
270
     1
271
     1
  0
XRECORD
  5
3AF
102
{ACAD_REACTORS
330
3AA
102
}
330
3AA
100
AcDbXrecord
280
     1
270
     1
271
     1
  0
XRECORD
  5
3AE
102
{ACAD_REACTORS
330
3AA
102
}
330
3AA
100
AcDbXrecord
280
     1
270
     1
271
     1
  0
XRECORD
  5
3B0
102
{ACAD_REACTORS
330
3AA
102
}
330
3AA
100
AcDbXrecord
280
     1
270
     1
271
     1
  0
XRECORD
  5
3AD
102
{ACAD_REACTORS
330
3AA
102
}
330
3AA
100
AcDbXrecord
280
     1
270
     1
271
     1
  0
XRECORD
  5
3BC
102
{ACAD_REACTORS
330
3BA
102
}
330
3BA
100
AcDbXrecord
280
     1
270
     1
271
     1
  0
XRECORD
  5
3BB
102
{ACAD_REACTORS
330
3BA
102
}
330
3BA
100
AcDbXrecord
280
     1
270
     1
271
     1
  0
XRECORD
  5
3BF
102
{ACAD_REACTORS
330
3BA
102
}
330
3BA
100
AcDbXrecord
280
     1
270
     1
271
     1
  0
XRECORD
  5
3BE
102
{ACAD_REACTORS
330
3BA
102
}
330
3BA
100
AcDbXrecord
280
     1
270
     1
271
     1
  0
XRECORD
  5
3C0
102
{ACAD_REACTORS
330
3BA
102
}
330
3BA
100
AcDbXrecord
280
     1
270
     1
271
     1
  0
XRECORD
  5
3BD
102
{ACAD_REACTORS
330
3BA
102
}
330
3BA
100
AcDbXrecord
280
     1
270
     1
271
     1
  0
CELLSTYLEMAP
  5
3F8
102
{ACAD_REACTORS
330
3F7
102
}
330
3F7
100
AcDbCellStyleMap
 90
        3
300
CELLSTYLE
  1
TABLEFORMAT_BEGIN
 90
        5
170
     1
 91
        0
 92
    32768
 62
   257
 93
        1
300
CONTENTFORMAT
  1
CONTENTFORMAT_BEGIN
 90
        0
 91
        0
 92
      512
 93
        0
300

 40
0.0
140
1.0
 94
        5
 62
     0
340
11
144
6.0
309
CONTENTFORMAT_END
171
     1
301
MARGIN
  1
CELLMARGIN_BEGIN
 40
1.5
 40
1.5
 40
1.5
 40
1.5
 40
4.5
 40
4.5
309
CELLMARGIN_END
 94
        6
 95
        1
302
GRIDFORMAT
  1
GRIDFORMAT_BEGIN
 90
        0
 91
        1
 62
     0
 92
       -2
340
0
 93
        0
 40
1.125
309
GRIDFORMAT_END
 95
        2
302
GRIDFORMAT
  1
GRIDFORMAT_BEGIN
 90
        0
 91
        1
 62
     0
 92
       -2
340
0
 93
        0
 40
1.125
309
GRIDFORMAT_END
 95
        4
302
GRIDFORMAT
  1
GRIDFORMAT_BEGIN
 90
        0
 91
        1
 62
     0
 92
       -2
340
0
 93
        0
 40
1.125
309
GRIDFORMAT_END
 95
        8
302
GRIDFORMAT
  1
GRIDFORMAT_BEGIN
 90
        0
 91
        1
 62
     0
 92
       -2
340
0
 93
        0
 40
1.125
309
GRIDFORMAT_END
 95
       16
302
GRIDFORMAT
  1
GRIDFORMAT_BEGIN
 90
        0
 91
        1
 62
     0
 92
       -2
340
0
 93
        0
 40
1.125
309
GRIDFORMAT_END
 95
       32
302
GRIDFORMAT
  1
GRIDFORMAT_BEGIN
 90
        0
 91
        1
 62
     0
 92
       -2
340
0
 93
        0
 40
1.125
309
GRIDFORMAT_END
309
TABLEFORMAT_END
  1
CELLSTYLE_BEGIN
 90
        1
 91
        1
300
_TITLE
309
CELLSTYLE_END
300
CELLSTYLE
  1
TABLEFORMAT_BEGIN
 90
        5
170
     1
 91
        0
 92
        0
 62
   257
 93
        1
300
CONTENTFORMAT
  1
CONTENTFORMAT_BEGIN
 90
        0
 91
        0
 92
      512
 93
        0
300

 40
0.0
140
1.0
 94
        5
 62
     0
340
11
144
4.5
309
CONTENTFORMAT_END
171
     1
301
MARGIN
  1
CELLMARGIN_BEGIN
 40
1.5
 40
1.5
 40
1.5
 40
1.5
 40
4.5
 40
4.5
309
CELLMARGIN_END
 94
        6
 95
        1
302
GRIDFORMAT
  1
GRIDFORMAT_BEGIN
 90
        0
 91
        1
 62
     0
 92
       -2
340
0
 93
        0
 40
1.125
309
GRIDFORMAT_END
 95
        2
302
GRIDFORMAT
  1
GRIDFORMAT_BEGIN
 90
        0
 91
        1
 62
     0
 92
       -2
340
0
 93
        0
 40
1.125
309
GRIDFORMAT_END
 95
        4
302
GRIDFORMAT
  1
GRIDFORMAT_BEGIN
 90
        0
 91
        1
 62
     0
 92
       -2
340
0
 93
        0
 40
1.125
309
GRIDFORMAT_END
 95
        8
302
GRIDFORMAT
  1
GRIDFORMAT_BEGIN
 90
        0
 91
        1
 62
     0
 92
       -2
340
0
 93
        0
 40
1.125
309
GRIDFORMAT_END
 95
       16
302
GRIDFORMAT
  1
GRIDFORMAT_BEGIN
 90
        0
 91
        1
 62
     0
 92
       -2
340
0
 93
        0
 40
1.125
309
GRIDFORMAT_END
 95
       32
302
GRIDFORMAT
  1
GRIDFORMAT_BEGIN
 90
        0
 91
        1
 62
     0
 92
       -2
340
0
 93
        0
 40
1.125
309
GRIDFORMAT_END
309
TABLEFORMAT_END
  1
CELLSTYLE_BEGIN
 90
        2
 91
        1
300
_HEADER
309
CELLSTYLE_END
300
CELLSTYLE
  1
TABLEFORMAT_BEGIN
 90
        5
170
     1
 91
        0
 92
        0
 62
   257
 93
        1
300
CONTENTFORMAT
  1
CONTENTFORMAT_BEGIN
 90
        0
 91
        0
 92
      512
 93
        0
300

 40
0.0
140
1.0
 94
        2
 62
     0
340
11
144
4.5
309
CONTENTFORMAT_END
171
     1
301
MARGIN
  1
CELLMARGIN_BEGIN
 40
1.5
 40
1.5
 40
1.5
 40
1.5
 40
4.5
 40
4.5
309
CELLMARGIN_END
 94
        6
 95
        1
302
GRIDFORMAT
  1
GRIDFORMAT_BEGIN
 90
        0
 91
        1
 62
     0
 92
       -2
340
0
 93
        0
 40
1.125
309
GRIDFORMAT_END
 95
        2
302
GRIDFORMAT
  1
GRIDFORMAT_BEGIN
 90
        0
 91
        1
 62
     0
 92
       -2
340
0
 93
        0
 40
1.125
309
GRIDFORMAT_END
 95
        4
302
GRIDFORMAT
  1
GRIDFORMAT_BEGIN
 90
        0
 91
        1
 62
     0
 92
       -2
340
0
 93
        0
 40
1.125
309
GRIDFORMAT_END
 95
        8
302
GRIDFORMAT
  1
GRIDFORMAT_BEGIN
 90
        0
 91
        1
 62
     0
 92
       -2
340
0
 93
        0
 40
1.125
309
GRIDFORMAT_END
 95
       16
302
GRIDFORMAT
  1
GRIDFORMAT_BEGIN
 90
        0
 91
        1
 62
     0
 92
       -2
340
0
 93
        0
 40
1.125
309
GRIDFORMAT_END
 95
       32
302
GRIDFORMAT
  1
GRIDFORMAT_BEGIN
 90
        0
 91
        1
 62
     0
 92
       -2
340
0
 93
        0
 40
1.125
309
GRIDFORMAT_END
309
TABLEFORMAT_END
  1
CELLSTYLE_BEGIN
 90
        3
 91
        2
300
_DATA
309
CELLSTYLE_END
  0
ENDSEC
  0
EOF
