  0
SECTION
  2
HEADER
  9
$ACADVER
  1
AC1018
  9
$ACADMAINTVER
 70
   104
  9
$DWGCODEPAGE
  3
ANSI_932
  9
$LASTSAVEDBY
  1
kanatani
  9
$INSBASE
 10
0.0
 20
0.0
 30
0.0
  9
$EXTMIN
 10
-333.3333333333333
 20
-113.1610268466647
 30
0.0
  9
$EXTMAX
 10
496.5929168355142
 20
759.1666666666668
 30
0.0
  9
$LIMMIN
 10
-2550.0
 20
0.0
  9
$LIMMAX
 10
0.0
 20
1800.0
  9
$ORTHOMODE
 70
     0
  9
$REGENMODE
 70
     1
  9
$FILLMODE
 70
     1
  9
$QTEXTMODE
 70
     0
  9
$MIRRTEXT
 70
     0
  9
$LTSCALE
 40
1.0
  9
$ATTMODE
 70
     1
  9
$TEXTSIZE
 40
0.2
  9
$TRACEWID
 40
0.05
  9
$TEXTSTYLE
  7
STANDARD
  9
$CLAYER
  8
0
  9
$CELTYPE
  6
CONTINUOUS
  9
$CECOLOR
 62
   256
  9
$CELTSCALE
 40
1.0
  9
$DISPSILH
 70
     0
  9
$DIMSCALE
 40
1.0
  9
$DIMASZ
 40
0.18
  9
$DIMEXO
 40
0.0625
  9
$DIMDLI
 40
0.38
  9
$DIMRND
 40
0.0
  9
$DIMDLE
 40
0.0
  9
$DIMEXE
 40
0.18
  9
$DIMTP
 40
0.0
  9
$DIMTM
 40
0.0
  9
$DIMTXT
 40
0.18
  9
$DIMCEN
 40
0.09
  9
$DIMTSZ
 40
0.0
  9
$DIMTOL
 70
     0
  9
$DIMLIM
 70
     0
  9
$DIMTIH
 70
     1
  9
$DIMTOH
 70
     1
  9
$DIMSE1
 70
     0
  9
$DIMSE2
 70
     0
  9
$DIMTAD
 70
     0
  9
$DIMZIN
 70
     0
  9
$DIMBLK
  1

  9
$DIMASO
 70
     1
  9
$DIMSHO
 70
     0
  9
$DIMPOST
  1

  9
$DIMAPOST
  1

  9
$DIMALT
 70
     0
  9
$DIMALTD
 70
     2
  9
$DIMALTF
 40
25.4
  9
$DIMLFAC
 40
1.0
  9
$DIMTOFL
 70
     0
  9
$DIMTVP
 40
0.0
  9
$DIMTIX
 70
     0
  9
$DIMSOXD
 70
     0
  9
$DIMSAH
 70
     0
  9
$DIMBLK1
  1

  9
$DIMBLK2
  1

  9
$DIMSTYLE
  2
Standard
  9
$DIMCLRD
 70
     0
  9
$DIMCLRE
 70
     0
  9
$DIMCLRT
 70
     0
  9
$DIMTFAC
 40
1.0
  9
$DIMGAP
 40
0.09
  9
$DIMJUST
 70
     0
  9
$DIMSD1
 70
     0
  9
$DIMSD2
 70
     0
  9
$DIMTOLJ
 70
     1
  9
$DIMTZIN
 70
     0
  9
$DIMALTZ
 70
     0
  9
$DIMALTTZ
 70
     0
  9
$DIMUPT
 70
     0
  9
$DIMDEC
 70
     4
  9
$DIMTDEC
 70
     4
  9
$DIMALTU
 70
     2
  9
$DIMALTTD
 70
     2
  9
$DIMTXSTY
  7
STANDARD
  9
$DIMAUNIT
 70
     0
  9
$DIMADEC
 70
     0
  9
$DIMALTRND
 40
0.0
  9
$DIMAZIN
 70
     0
  9
$DIMDSEP
 70
    46
  9
$DIMATFIT
 70
     3
  9
$DIMFRAC
 70
     0
  9
$DIMLDRBLK
  1

  9
$DIMLUNIT
 70
     2
  9
$DIMLWD
 70
    -2
  9
$DIMLWE
 70
    -2
  9
$DIMTMOVE
 70
     0
  9
$LUNITS
 70
     2
  9
$LUPREC
 70
     8
  9
$SKETCHINC
 40
0.1
  9
$FILLETRAD
 40
0.0
  9
$AUNITS
 70
     0
  9
$AUPREC
 70
     0
  9
$MENU
  1
.
  9
$ELEVATION
 40
0.0
  9
$PELEVATION
 40
0.0
  9
$THICKNESS
 40
0.0
  9
$LIMCHECK
 70
     0
  9
$CHAMFERA
 40
0.0
  9
$CHAMFERB
 40
0.0
  9
$CHAMFERC
 40
0.0
  9
$CHAMFERD
 40
0.0
  9
$SKPOLY
 70
     0
  9
$TDCREATE
 40
2456143.785712246
  9
$TDUCREATE
 40
2456143.410712245
  9
$TDUPDATE
 40
2456169.621754908
  9
$TDUUPDATE
 40
2456169.246754908
  9
$TDINDWG
 40
0.0319436690
  9
$TDUSRTIMER
 40
0.0319436690
  9
$USRTIMER
 70
     1
  9
$ANGBASE
 50
0.0
  9
$ANGDIR
 70
     0
  9
$PDMODE
 70
     0
  9
$PDSIZE
 40
0.0
  9
$PLINEWID
 40
0.0
  9
$SPLFRAME
 70
     0
  9
$SPLINETYPE
 70
     6
  9
$SPLINESEGS
 70
     8
  9
$HANDSEED
  5
2D6D
  9
$SURFTAB1
 70
     6
  9
$SURFTAB2
 70
     6
  9
$SURFTYPE
 70
     6
  9
$SURFU
 70
     6
  9
$SURFV
 70
     6
  9
$UCSBASE
  2

  9
$UCSNAME
  2

  9
$UCSORG
 10
0.0
 20
0.0
 30
0.0
  9
$UCSXDIR
 10
1.0
 20
0.0
 30
0.0
  9
$UCSYDIR
 10
0.0
 20
1.0
 30
0.0
  9
$UCSORTHOREF
  2

  9
$UCSORTHOVIEW
 70
     0
  9
$UCSORGTOP
 10
0.0
 20
0.0
 30
0.0
  9
$UCSORGBOTTOM
 10
0.0
 20
0.0
 30
0.0
  9
$UCSORGLEFT
 10
0.0
 20
0.0
 30
0.0
  9
$UCSORGRIGHT
 10
0.0
 20
0.0
 30
0.0
  9
$UCSORGFRONT
 10
0.0
 20
0.0
 30
0.0
  9
$UCSORGBACK
 10
0.0
 20
0.0
 30
0.0
  9
$PUCSBASE
  2

  9
$PUCSNAME
  2

  9
$PUCSORG
 10
0.0
 20
0.0
 30
0.0
  9
$PUCSXDIR
 10
1.0
 20
0.0
 30
0.0
  9
$PUCSYDIR
 10
0.0
 20
1.0
 30
0.0
  9
$PUCSORTHOREF
  2

  9
$PUCSORTHOVIEW
 70
     0
  9
$PUCSORGTOP
 10
0.0
 20
0.0
 30
0.0
  9
$PUCSORGBOTTOM
 10
0.0
 20
0.0
 30
0.0
  9
$PUCSORGLEFT
 10
0.0
 20
0.0
 30
0.0
  9
$PUCSORGRIGHT
 10
0.0
 20
0.0
 30
0.0
  9
$PUCSORGFRONT
 10
0.0
 20
0.0
 30
0.0
  9
$PUCSORGBACK
 10
0.0
 20
0.0
 30
0.0
  9
$USERI1
 70
     0
  9
$USERI2
 70
     0
  9
$USERI3
 70
     0
  9
$USERI4
 70
     0
  9
$USERI5
 70
     0
  9
$USERR1
 40
0.0
  9
$USERR2
 40
0.0
  9
$USERR3
 40
0.0
  9
$USERR4
 40
0.0
  9
$USERR5
 40
0.0
  9
$WORLDVIEW
 70
     1
  9
$SHADEDGE
 70
     3
  9
$SHADEDIF
 70
    70
  9
$TILEMODE
 70
     1
  9
$MAXACTVP
 70
    64
  9
$PINSBASE
 10
0.0
 20
0.0
 30
0.0
  9
$PLIMCHECK
 70
     0
  9
$PEXTMIN
 10
-2550.0
 20
0.0
 30
0.0
  9
$PEXTMAX
 10
0.0
 20
1800.0
 30
0.0
  9
$PLIMMIN
 10
-2550.0
 20
0.0
  9
$PLIMMAX
 10
0.0
 20
1800.0
  9
$UNITMODE
 70
     0
  9
$VISRETAIN
 70
     1
  9
$PLINEGEN
 70
     0
  9
$PSLTSCALE
 70
     1
  9
$TREEDEPTH
 70
  3020
  9
$CMLSTYLE
  2
STANDARD
  9
$CMLJUST
 70
     0
  9
$CMLSCALE
 40
1.0
  9
$PROXYGRAPHICS
 70
     1
  9
$MEASUREMENT
 70
     1
  9
$CELWEIGHT
370
    -1
  9
$ENDCAPS
280
     0
  9
$JOINSTYLE
280
     0
  9
$LWDISPLAY
290
     0
  9
$INSUNITS
 70
     0
  9
$HYPERLINKBASE
  1

  9
$STYLESHEET
  1

  9
$XEDIT
290
     1
  9
$CEPSNTYPE
380
     0
  9
$PSTYLEMODE
290
     1
  9
$FINGERPRINTGUID
  2
{4953702F-6C12-4A29-9AD0-1EBE85BC20CB}
  9
$VERSIONGUID
  2
{6B312527-A657-40B7-ADD0-DA51B37FE4D2}
  9
$EXTNAMES
290
     1
  9
$PSVPSCALE
 40
0.0
  9
$OLESTARTUP
290
     0
  9
$SORTENTS
280
   127
  9
$INDEXCTL
280
     0
  9
$HIDETEXT
280
     0
  9
$XCLIPFRAME
290
     0
  9
$HALOGAP
280
     0
  9
$OBSCOLOR
 70
   257
  9
$OBSLTYPE
280
     0
  9
$INTERSECTIONDISPLAY
280
     0
  9
$INTERSECTIONCOLOR
 70
   257
  9
$DIMASSOC
280
     1
  9
$PROJECTNAME
  1

  0
ENDSEC
  0
SECTION
  2
CLASSES
  0
CLASS
  1
ACDBDICTIONARYWDFLT
  2
AcDbDictionaryWithDefault
  3
ObjectDBX Classes
 90
        0
 91
        1
280
     0
281
     0
  0
CLASS
  1
MATERIAL
  2
AcDbMaterial
  3
ObjectDBX Classes
 90
     1153
 91
        3
280
     0
281
     0
  0
CLASS
  1
VISUALSTYLE
  2
AcDbVisualStyle
  3
ObjectDBX Classes
 90
     4095
 91
       26
280
     0
281
     0
  0
CLASS
  1
TABLESTYLE
  2
AcDbTableStyle
  3
ObjectDBX Classes
 90
     4095
 91
        1
280
     0
281
     0
  0
CLASS
  1
SCALE
  2
AcDbScale
  3
ObjectDBX Classes
 90
     1153
 91
       17
280
     0
281
     0
  0
CLASS
  1
MLEADERSTYLE
  2
AcDbMLeaderStyle
  3
ACDB_MLEADERSTYLE_CLASS
 90
     4095
 91
        1
280
     0
281
     0
  0
CLASS
  1
ACMESCOPE
  2
AcMeScope
  3
AcMeServices
 90
     1024
 91
        0
280
     0
281
     0
  0
CLASS
  1
ACMECOMMANDHISTORY
  2
AcMeCommandHistory
  3
AcMeServices
 90
     1024
 91
        0
280
     0
281
     0
  0
CLASS
  1
ACIMSYSVARMAN
  2
AcImSysVarManager
  3
AcMeServices
 90
     1024
 91
        0
280
     0
281
     0
  0
CLASS
  1
ACIMINTSYSVAR
  2
AcImIntSysVar
  3
AcMeServices
 90
     1024
 91
        0
280
     0
281
     0
  0
CLASS
  1
ACMESTATEMGR
  2
AcMeStateMgr
  3
AcMeServices
 90
     1024
 91
        0
280
     0
281
     0
  0
CLASS
  1
AMGSETTINGSOBJ
  2
AmgSettingsObj
  3
"AcadM|Product Description: AutoCAD Mechanical|Company: Autodesk, Inc."
 90
     1024
 91
        0
280
     0
281
     0
  0
CLASS
  1
ACGREFMASTER
  2
AcGrefMaster
  3
AcAttribServices
 90
     1024
 91
        0
280
     0
281
     0
  0
CLASS
  1
AMGOBJPROPCFG
  2
AmgObjPropCfg
  3
"AmgLay|Product Description: AutoCAD Mechanical|Company: Autodesk, Inc."
 90
     1025
 91
        0
280
     0
281
     0
  0
CLASS
  1
ACME_DOCUMENT
  2
AcMeDbDoc
  3
AcMeServices
 90
     1024
 91
        0
280
     0
281
     0
  0
CLASS
  1
ACDBENTITYCACHE
  2
AcMeEntityCache
  3
AcMeServices
 90
     1024
 91
        0
280
     0
281
     0
  0
CLASS
  1
ACME_DATABASE
  2
AcMeDbDatabase
  3
AcMeServices
 90
     1024
 91
        0
280
     0
281
     0
  0
CLASS
  1
ACRFINSADJUSTERMGR
  2
AcRfInsAdjusterMgr
  3
AcMeServices
 90
     1024
 91
        0
280
     0
281
     0
  0
CLASS
  1
ACGREFACADMASTER
  2
AcGrefacadMaster
  3
AcGrefServices
 90
     1024
 91
        0
280
     0
281
     0
  0
CLASS
  1
AMDTMENUSTATEMGR
  2
AmdtMenuStateMgr
  3
McadcomServices
 90
     1024
 91
        0
280
     0
281
     0
  0
CLASS
  1
AMDTMCOMMENUSTATE
  2
AmdtMcomMenuState
  3
McadcomServices
 90
     1024
 91
        0
280
     0
281
     0
  0
CLASS
  1
AMIMASTER
  2
AmiMaster
  3
AmiServices
 90
     1024
 91
        0
280
     0
281
     0
  0
CLASS
  1
MAPIAMMOUDLE
  2
MApiAmModule
  3
MApiAmServices
 90
     1024
 91
        0
280
     0
281
     0
  0
CLASS
  1
ACMSTANDARDISO
  2
AcmStandardISO
  3
"Amdt_StdImp|Product Description: AutoCAD Mechanical|Company: Autodesk, Inc."
 90
     1024
 91
        0
280
     0
281
     0
  0
CLASS
  1
AMDTEDGESTANDARDISO
  2
AmdtEdgeStdISO
  3
"Amdt_StdImp|Product Description: AutoCAD Mechanical|Company: Autodesk, Inc."
 90
     1024
 91
        0
280
     0
281
     0
  0
CLASS
  1
ACMSURFSTANDARDISO
  2
AcmSurfTextStdISO
  3
"Amdt_StdImp|Product Description: AutoCAD Mechanical|Company: Autodesk, Inc."
 90
     1024
 91
        0
280
     0
281
     0
  0
CLASS
  1
ACMFCFSTANDARDISO
  2
AcmFCFStdISO
  3
"Amdt_StdImp|Product Description: AutoCAD Mechanical|Company: Autodesk, Inc."
 90
     1024
 91
        0
280
     0
281
     0
  0
CLASS
  1
ACMWELDSTANDARDISO
  2
AcmWeldingStdISO
  3
"Amdt_StdImp|Product Description: AutoCAD Mechanical|Company: Autodesk, Inc."
 90
     1024
 91
        0
280
     0
281
     0
  0
CLASS
  1
ACMIDSTANDARDISO
  2
AcmIdStdISO
  3
"Amdt_StdImp|Product Description: AutoCAD Mechanical|Company: Autodesk, Inc."
 90
     1024
 91
        0
280
     0
281
     0
  0
CLASS
  1
ACMDATUMSTANDARDISO
  2
AcmDatumStdISO
  3
"Amdt_StdImp|Product Description: AutoCAD Mechanical|Company: Autodesk, Inc."
 90
     1024
 91
        0
280
     0
281
     0
  0
CLASS
  1
ACMBOMSTANDARDISO
  2
AcmBOMStdISO
  3
"Amdt_StdImp|Product Description: AutoCAD Mechanical|Company: Autodesk, Inc."
 90
     1024
 91
        0
280
     0
281
     0
  0
CLASS
  1
ACMDETAILSTANDARDISO
  2
AmdtDetailSymStdISO
  3
"Amdt_StdImp|Product Description: AutoCAD Mechanical|Company: Autodesk, Inc."
 90
     1024
 91
        0
280
     0
281
     0
  0
CLASS
  1
ACMSECTIONSTANDARDISO
  2
AmdtSectionSymStdISO
  3
"Amdt_StdImp|Product Description: AutoCAD Mechanical|Company: Autodesk, Inc."
 90
     1024
 91
        0
280
     0
281
     0
  0
CLASS
  1
ACMCENTERLINESTANDARDISO
  2
AmdtCenterLineStdISO
  3
"Amdt_StdImp|Product Description: AutoCAD Mechanical|Company: Autodesk, Inc."
 90
     1024
 91
        0
280
     0
281
     0
  0
CLASS
  1
ACMNOTESTANDARDISO
  2
AmdtNoteStdISO
  3
"Amdt_StdImp|Product Description: AutoCAD Mechanical|Company: Autodesk, Inc."
 90
     1024
 91
        0
280
     0
281
     0
  0
CLASS
  1
AMDTNOTETEMPLATEDB
  2
AmdtNoteTemplateDB
  3
AcmSymBB|Product Description: AutoCAD Mechanical|Company: Autodesk, Inc.
 90
     1024
 91
        0
280
     0
281
     0
  0
CLASS
  1
ACAMGLAYSTD
  2
AcAmgLayStd
  3
"AmgLay|Product Description: AutoCAD Mechanical|Company: Autodesk, Inc."
 90
     1024
 91
        0
280
     0
281
     0
  0
CLASS
  1
ACAMGDIMSTD
  2
AcAmgDimStd
  3
"AmgDim|Product Description: AutoCAD Mechanical|Company: Autodesk, Inc."
 90
     1024
 91
        0
280
     0
281
     0
  0
CLASS
  1
ACAMGHOLECHARTSTDISO
  2
AcAmgHoleChartStdISO
  3
AmgDim|Product Description: AutoCAD Mechanical|Company: Autodesk, Inc.
 90
     1024
 91
        0
280
     0
281
     0
  0
CLASS
  1
ACAMGTITLESTD
  2
AcAmgTitleStd
  3
"AmgTitle|Product Description: AutoCAD Mechanical|Company: Autodesk, Inc."
 90
     4095
 91
        0
280
     0
281
     0
  0
CLASS
  1
ACMTHREADLINESTANDARDISO
  2
AmdtThreadLineStdISO
  3
"Amdt_StdImp|Product Description: AutoCAD Mechanical|Company: Autodesk, Inc."
 90
     1024
 91
        0
280
     0
281
     0
  0
CLASS
  1
ACMTAPERSTANDARDISO
  2
AcmTaperStdISO
  3
"Amdt_StdImp|Product Description: AutoCAD Mechanical|Company: Autodesk, Inc."
 90
     1024
 91
        0
280
     0
281
     0
  0
CLASS
  1
ACMANOOTATIONVIEWSTANDARDISO
  2
AmdtAnViewStdISO
  3
"Amdt_StdImp|Product Description: AutoCAD Mechanical|Company: Autodesk, Inc."
 90
     1024
 91
        0
280
     0
281
     0
  0
CLASS
  1
ACMSTANDARDJIS
  2
AcmStandardJIS
  3
"Amdt_StdImp|Product Description: AutoCAD Mechanical|Company: Autodesk, Inc."
 90
     1024
 91
        0
280
     0
281
     0
  0
CLASS
  1
ACMSURFSTANDARDJIS
  2
AcmSurfTextStdJIS
  3
"Amdt_StdImp|Product Description: AutoCAD Mechanical|Company: Autodesk, Inc."
 90
     1024
 91
        0
280
     0
281
     0
  0
CLASS
  1
ACMFCFSTANDARDJIS
  2
AcmFCFStdJIS
  3
"Amdt_StdImp|Product Description: AutoCAD Mechanical|Company: Autodesk, Inc."
 90
     1024
 91
        0
280
     0
281
     0
  0
CLASS
  1
ACMWELDSTANDARDJIS
  2
AcmWeldingStdJIS
  3
"Amdt_StdImp|Product Description: AutoCAD Mechanical|Company: Autodesk, Inc."
 90
     1024
 91
        0
280
     0
281
     0
  0
CLASS
  1
ACMIDSTANDARDJIS
  2
AcmIdStdJIS
  3
"Amdt_StdImp|Product Description: AutoCAD Mechanical|Company: Autodesk, Inc."
 90
     1024
 91
        0
280
     0
281
     0
  0
CLASS
  1
ACMDATUMSTANDARDJIS
  2
AcmDatumStdJIS
  3
"Amdt_StdImp|Product Description: AutoCAD Mechanical|Company: Autodesk, Inc."
 90
     1024
 91
        0
280
     0
281
     0
  0
CLASS
  1
ACMBOMSTANDARDJIS
  2
AcmBOMStdJIS
  3
"Amdt_StdImp|Product Description: AutoCAD Mechanical|Company: Autodesk, Inc."
 90
     1024
 91
        0
280
     0
281
     0
  0
CLASS
  1
ACMDETAILSTANDARDJIS
  2
AmdtDetailSymStdJIS
  3
"Amdt_StdImp|Product Description: AutoCAD Mechanical|Company: Autodesk, Inc."
 90
     1024
 91
        0
280
     0
281
     0
  0
CLASS
  1
ACMSECTIONSTANDARDJIS
  2
AmdtSectionSymStdJIS
  3
"Amdt_StdImp|Product Description: AutoCAD Mechanical|Company: Autodesk, Inc."
 90
     1024
 91
        0
280
     0
281
     0
  0
CLASS
  1
ACMCENTERLINESTANDARDJIS
  2
AmdtCenterLineStdJIS
  3
"Amdt_StdImp|Product Description: AutoCAD Mechanical|Company: Autodesk, Inc."
 90
     1024
 91
        0
280
     0
281
     0
  0
CLASS
  1
ACMTHREADLINESTANDARDJIS
  2
AmdtThreadLineStdJIS
  3
"Amdt_StdImp|Product Description: AutoCAD Mechanical|Company: Autodesk, Inc."
 90
     1024
 91
        0
280
     0
281
     0
  0
CLASS
  1
ACMNOTESTANDARDJIS
  2
AmdtNoteStdJIS
  3
"Amdt_StdImp|Product Description: AutoCAD Mechanical|Company: Autodesk, Inc."
 90
     1024
 91
        0
280
     0
281
     0
  0
CLASS
  1
ACAMGHOLECHARTSTDJIS
  2
AcAmgHoleChartStdJIS
  3
AmgDim|Product Description: AutoCAD Mechanical|Company: Autodesk, Inc.
 90
     1024
 91
        0
280
     0
281
     0
  0
CLASS
  1
ACMTAPERSTANDARDJIS
  2
AcmTaperStdJIS
  3
"Amdt_StdImp|Product Description: AutoCAD Mechanical|Company: Autodesk, Inc."
 90
     1024
 91
        0
280
     0
281
     0
  0
CLASS
  1
ACMANOOTATIONVIEWSTANDARDJIS
  2
AmdtAnViewStdJIS
  3
"Amdt_StdImp|Product Description: AutoCAD Mechanical|Company: Autodesk, Inc."
 90
     1024
 91
        0
280
     0
281
     0
  0
CLASS
  1
AMDTEDGESTANDARDJIS
  2
AmdtEdgeStdJIS
  3
"Amdt_StdImp|Product Description: AutoCAD Mechanical|Company: Autodesk, Inc."
 90
     1024
 91
        0
280
     0
281
     0
  0
CLASS
  1
ACMFCFSTANDARDJIS98
  2
AcmFCFStdJIS98
  3
"Amdt_StdImp|Product Description: AutoCAD Mechanical|Company: Autodesk, Inc."
 90
     1024
 91
        0
280
     0
281
     0
  0
CLASS
  1
ACIMSTRSYSVAR
  2
AcImStrSysVar
  3
AcMeServices
 90
     1024
 91
        0
280
     0
281
     0
  0
CLASS
  1
AMDTAMMENUSTATE
  2
AmdtAmMenuState
  3
DesignerAssemblies
 90
     1024
 91
        0
280
     0
281
     0
  0
CLASS
  1
ACAMPROJECT
  2
AcAmProject
  3
DesignerAssemblies
 90
     1024
 91
        0
280
     0
281
     0
  0
CLASS
  1
ACAMGRCOMPDEF
  2
AcAmGrCompDef
  3
DesignerAssemblies
 90
     1024
 91
        0
280
     0
281
     0
  0
CLASS
  1
ACAMCOMPDEF
  2
AcAmCompDef
  3
DesignerAssemblies
 90
     1024
 91
        0
280
     0
281
     0
  0
CLASS
  1
ACAMCOMPDEFMGR
  2
AcAmCompDefMgr
  3
DesignerAssemblies
 90
     1024
 91
        0
280
     0
281
     0
  0
CLASS
  1
AMCONTEXTMGR
  2
AcAmContextMgr
  3
DesignerAssemblies
 90
     1024
 91
        0
280
     0
281
     0
  0
CLASS
  1
ACAMCONTEXTMODELER
  2
AcAmContextModeler
  3
DesignerAssemblies
 90
     1024
 91
        0
280
     0
281
     0
  0
CLASS
  1
ACMDATADICTIONARY
  2
AcmDataDictionary
  3
"AcmSymBB|Product Description: AutoCAD Mechanical|Company: Autodesk, Inc."
 90
     1024
 91
        0
280
     0
281
     0
  0
CLASS
  1
ACAMGRCOMPDEFSET
  2
AcAmGrCompDefSet
  3
DesignerAssemblies
 90
     1024
 91
        0
280
     0
281
     0
  0
CLASS
  1
AMDTBROWSERDBTAB
  2
AmdtBrowserDbTab
  3
McadcomServices
 90
     1024
 91
        0
280
     0
281
     0
  0
CLASS
  1
CBROWSERAPPOBJECT
  2
CBrowserAppObject
  3
McadcomServices
 90
     1024
 91
        0
280
     0
281
     0
  0
CLASS
  1
DM_PLACEHOLDER
  2
AcDmSelsetPlaceholder
  3
McadcomServices
 90
     1024
 91
        0
280
     0
281
     0
  0
CLASS
  1
EXACXREFPANELOBJECT
  2
ExAcXREFPanelObject
  3
EXAC_ESW
 90
     1025
 91
        0
280
     0
281
     0
  0
CLASS
  1
NPOCOLLECTION
  2
AcDbImpNonPersistentObjectsCollection
  3
ObjectDBX Classes
 90
     1153
 91
        0
280
     0
281
     0
  0
CLASS
  1
ACAMGFILTERDAT
  2
AcAmgFilterDat
  3
"AcadM|Product Description: AutoCAD Mechanical|Company: Autodesk, Inc."
 90
     1024
 91
        0
280
     0
281
     0
  0
CLASS
  1
CAMSSTRUCTBTNSTATE
  2
StructBtnState
  3
DesignerAssemblies
 90
     1024
 91
        0
280
     0
281
     0
  0
CLASS
  1
DICTIONARYVAR
  2
AcDbDictionaryVar
  3
ObjectDBX Classes
 90
        0
 91
       14
280
     0
281
     0
  0
CLASS
  1
SORTENTSTABLE
  2
AcDbSortentsTable
  3
ObjectDBX Classes
 90
        0
 91
        1
280
     0
281
     0
  0
CLASS
  1
CELLSTYLEMAP
  2
AcDbCellStyleMap
  3
ObjectDBX Classes
 90
     1152
 91
        2
280
     0
281
     0
  0
CLASS
  1
ACDBPLACEHOLDER
  2
AcDbPlaceHolder
  3
ObjectDBX Classes
 90
        0
 91
        1
280
     0
281
     0
  0
CLASS
  1
LAYOUT
  2
AcDbLayout
  3
ObjectDBX Classes
 90
        0
 91
        2
280
     0
281
     0
  0
CLASS
  1
DIMASSOC
  2
AcDbDimAssoc
  3
"AcDbDimAssoc|Product Desc:     AcDim ARX App For Dimension|Company:          Autodesk, Inc.|WEB Address:      www.autodesk.com"
 90
        0
 91
        0
280
     0
281
     0
  0
CLASS
  1
ACDBSECTIONVIEWSTYLE
  2
AcDbSectionViewStyle
  3
ObjectDBX Classes
 90
     1025
 91
        1
280
     0
281
     0
  0
CLASS
  1
ACDBDETAILVIEWSTYLE
  2
AcDbDetailViewStyle
  3
ObjectDBX Classes
 90
     1025
 91
        1
280
     0
281
     0
  0
ENDSEC
  0
SECTION
  2
TABLES
  0
TABLE
  2
VPORT
  5
E2
102
{ACAD_XDICTIONARY
360
1E4C
102
}
330
0
100
AcDbSymbolTable
 70
     1
  0
VPORT
  5
1855
330
E2
100
AcDbSymbolTableRecord
100
AcDbViewportTableRecord
  2
*Active
 70
     0
 10
0.0
 20
0.0
 11
1.0
 21
1.0
 12
81.62065704811551
 22
425.0716016124399
 13
0.0
 23
0.0
 14
1.0
 24
1.0
 15
0.0
 25
0.0
 16
0.0
 26
0.0
 36
1.0
 17
0.0
 27
0.0
 37
0.0
 40
1082.194175813132
 41
1.234567901234567
 42
50.0
 43
0.0
 44
0.0
 50
0.0
 51
0.0
 71
     0
 72
  1000
 73
     1
 74
     3
 75
     0
 76
     0
 77
     0
 78
     0
281
     0
 65
     1
110
0.0
120
0.0
130
0.0
111
1.0
121
0.0
131
0.0
112
0.0
122
1.0
132
0.0
 79
     0
146
0.0
1001
ACAD_NAV_VCDISPLAY
1070
     1
  0
ENDTAB
  0
TABLE
  2
LTYPE
  5
25
330
0
100
AcDbSymbolTable
 70
     2
  0
LTYPE
  5
26
330
25
100
AcDbSymbolTableRecord
100
AcDbLinetypeTableRecord
  2
BYBLOCK
 70
     0
  3

 72
    65
 73
     0
 40
0.0
  0
LTYPE
  5
27
330
25
100
AcDbSymbolTableRecord
100
AcDbLinetypeTableRecord
  2
BYLAYER
 70
     0
  3

 72
    65
 73
     0
 40
0.0
  0
LTYPE
  5
28
330
25
100
AcDbSymbolTableRecord
100
AcDbLinetypeTableRecord
  2
CONTINUOUS
 70
     0
  3
Solid line
 72
    65
 73
     0
 40
0.0
  0
LTYPE
  5
2A
330
25
100
AcDbSymbolTableRecord
100
AcDbLinetypeTableRecord
  2
CENTER
 70
     0
  3
__ . __
 72
    65
 73
     4
 40
7.0
 49
4.0
 74
     0
 49
-1.0
 74
     0
 49
1.0
 74
     0
 49
-1.0
 74
     0
  0
ENDTAB
  0
TABLE
  2
LAYER
  5
C8
102
{ACAD_XDICTIONARY
360
1E12
102
}
330
0
100
AcDbSymbolTable
 70
     1
  0
LAYER
  5
C9
102
{ACAD_XDICTIONARY
360
1963
102
}
330
C8
100
AcDbSymbolTableRecord
100
AcDbLayerTableRecord
  2
0
 70
     0
 62
     7
  6
CONTINUOUS
370
    -3
390
1801
  0
ENDTAB
  0
TABLE
  2
STYLE
  5
CA
330
0
100
AcDbSymbolTable
 70
     1
  0
STYLE
  5
23
330
CA
100
AcDbSymbolTableRecord
100
AcDbTextStyleTableRecord
  2
STANDARD
 70
     0
 40
0.0
 41
1.0
 50
0.0
 71
     0
 42
0.2
  3
txt.shx
  4

  0
ENDTAB
  0
TABLE
  2
VIEW
  5
CE
330
0
100
AcDbSymbolTable
 70
     0
  0
ENDTAB
  0
TABLE
  2
UCS
  5
CF
330
0
100
AcDbSymbolTable
 70
     0
  0
ENDTAB
  0
TABLE
  2
APPID
  5
CC
330
0
100
AcDbSymbolTable
 70
    85
  0
APPID
  5
CD
330
CC
100
AcDbSymbolTableRecord
100
AcDbRegAppTableRecord
  2
ACAD
 70
     0
  0
APPID
  5
1854
330
CC
100
AcDbSymbolTableRecord
100
AcDbRegAppTableRecord
  2
ACAD_NAV_VCDISPLAY
 70
     0
  0
APPID
  5
185B
330
CC
100
AcDbSymbolTableRecord
100
AcDbRegAppTableRecord
  2
MCAD_NO_VIS
 70
     0
  0
APPID
  5
185C
330
CC
100
AcDbSymbolTableRecord
100
AcDbRegAppTableRecord
  2
ACAD_TEMP_GRAPHIC
 70
     0
  0
APPID
  5
1862
330
CC
100
AcDbSymbolTableRecord
100
AcDbRegAppTableRecord
  2
ACATTRIBSERVICES
 70
     0
  0
APPID
  5
1863
330
CC
100
AcDbSymbolTableRecord
100
AcDbRegAppTableRecord
  2
AD_DRAW
 70
     0
  0
APPID
  5
1864
330
CC
100
AcDbSymbolTableRecord
100
AcDbRegAppTableRecord
  2
DESIGNERASSEMBLIES
 70
     0
  0
APPID
  5
1865
330
CC
100
AcDbSymbolTableRecord
100
AcDbRegAppTableRecord
  2
ASURF_PCURVE_APPNAME
 70
     0
  0
APPID
  5
1866
330
CC
100
AcDbSymbolTableRecord
100
AcDbRegAppTableRecord
  2
ACADM_DIM_EDIT
 70
     0
  0
APPID
  5
1867
330
CC
100
AcDbSymbolTableRecord
100
AcDbRegAppTableRecord
  2
GENIUS_GENDIM_13
 70
     0
  0
APPID
  5
1868
330
CC
100
AcDbSymbolTableRecord
100
AcDbRegAppTableRecord
  2
GENIUS_GENDTOL_13
 70
     0
  0
APPID
  5
1869
330
CC
100
AcDbSymbolTableRecord
100
AcDbRegAppTableRecord
  2
GENIUS_GE3DTOL_13
 70
     0
  0
APPID
  5
186A
330
CC
100
AcDbSymbolTableRecord
100
AcDbRegAppTableRecord
  2
AMG_3D2D_5.0
 70
     0
  0
APPID
  5
186B
330
CC
100
AcDbSymbolTableRecord
100
AcDbRegAppTableRecord
  2
AMDT_DM_ADJ
 70
     0
  0
APPID
  5
186C
330
CC
100
AcDbSymbolTableRecord
100
AcDbRegAppTableRecord
  2
CK_MATE-SERIES
 70
     0
  0
APPID
  5
186D
330
CC
100
AcDbSymbolTableRecord
100
AcDbRegAppTableRecord
  2
GEVID1042077799
 70
     0
  0
APPID
  5
186E
330
CC
100
AcDbSymbolTableRecord
100
AcDbRegAppTableRecord
  2
GEVMK
 70
     0
  0
APPID
  5
186F
330
CC
100
AcDbSymbolTableRecord
100
AcDbRegAppTableRecord
  2
GEVDC
 70
     0
  0
APPID
  5
1870
330
CC
100
AcDbSymbolTableRecord
100
AcDbRegAppTableRecord
  2
GENIUS_GENBH_13
 70
     0
  0
APPID
  5
1871
330
CC
100
AcDbSymbolTableRecord
100
AcDbRegAppTableRecord
  2
GENIUS_GENOLIS_13
 70
     0
  0
APPID
  5
1872
330
CC
100
AcDbSymbolTableRecord
100
AcDbRegAppTableRecord
  2
GENIUS_GENOENT_13
 70
     0
  0
APPID
  5
1873
330
CC
100
AcDbSymbolTableRecord
100
AcDbRegAppTableRecord
  2
GENIUS_GENODEF_13
 70
     0
  0
APPID
  5
1874
330
CC
100
AcDbSymbolTableRecord
100
AcDbRegAppTableRecord
  2
GENIUS_GENOBJ-NBEHI-BHF_13
 70
     0
  0
APPID
  5
1875
330
CC
100
AcDbSymbolTableRecord
100
AcDbRegAppTableRecord
  2
GENIUS_GENOREF_13
 70
     0
  0
APPID
  5
1876
330
CC
100
AcDbSymbolTableRecord
100
AcDbRegAppTableRecord
  2
GENIUS_GENOBJ-NBEHI-BHB_13
 70
     0
  0
APPID
  5
1877
330
CC
100
AcDbSymbolTableRecord
100
AcDbRegAppTableRecord
  2
GEVID1042183772
 70
     0
  0
APPID
  5
1878
330
CC
100
AcDbSymbolTableRecord
100
AcDbRegAppTableRecord
  2
GEVID1042183773
 70
     0
  0
APPID
  5
1879
330
CC
100
AcDbSymbolTableRecord
100
AcDbRegAppTableRecord
  2
GEVID1042183774
 70
     0
  0
APPID
  5
187A
330
CC
100
AcDbSymbolTableRecord
100
AcDbRegAppTableRecord
  2
DCO15
 70
     0
  0
APPID
  5
187B
330
CC
100
AcDbSymbolTableRecord
100
AcDbRegAppTableRecord
  2
ACAD_DSTYLE_DIMARC_LENGTH_SYMBOL
 70
     0
  0
APPID
  5
187C
330
CC
100
AcDbSymbolTableRecord
100
AcDbRegAppTableRecord
  2
ACAD_DSTYLE_DIMJOGGED_JOGANGLE_SYMBOL
 70
     0
  0
APPID
  5
187D
330
CC
100
AcDbSymbolTableRecord
100
AcDbRegAppTableRecord
  2
ACAD_MLEADERVER
 70
     0
  0
APPID
  5
187E
330
CC
100
AcDbSymbolTableRecord
100
AcDbRegAppTableRecord
  2
GENIUS_GENOBJ-N-FIL_13
 70
     0
  0
APPID
  5
187F
330
CC
100
AcDbSymbolTableRecord
100
AcDbRegAppTableRecord
  2
AcadAnnoPO
 70
     0
  0
APPID
  5
1880
330
CC
100
AcDbSymbolTableRecord
100
AcDbRegAppTableRecord
  2
GENIUS_GENOBJ-N-TIT_13
 70
     0
  0
APPID
  5
1881
330
CC
100
AcDbSymbolTableRecord
100
AcDbRegAppTableRecord
  2
GENIUS_GENTITLE_13
 70
     0
  0
APPID
  5
1882
330
CC
100
AcDbSymbolTableRecord
100
AcDbRegAppTableRecord
  2
GENIUS_GENSCREG_15
 70
     0
  0
APPID
  5
1883
330
CC
100
AcDbSymbolTableRecord
100
AcDbRegAppTableRecord
  2
GENIUS_GENOBJ-N-SDF_13
 70
     0
  0
APPID
  5
1884
330
CC
100
AcDbSymbolTableRecord
100
AcDbRegAppTableRecord
  2
ACAD_PSEXT
 70
     0
  0
APPID
  5
1885
330
CC
100
AcDbSymbolTableRecord
100
AcDbRegAppTableRecord
  2
AcAecLayerStandard
 70
     0
  0
APPID
  5
1886
330
CC
100
AcDbSymbolTableRecord
100
AcDbRegAppTableRecord
  2
ACAD_EXEMPT_FROM_CAD_STANDARDS
 70
     0
  0
APPID
  5
1887
330
CC
100
AcDbSymbolTableRecord
100
AcDbRegAppTableRecord
  2
ACAD_DSTYLE_DIMINSPECT
 70
     0
  0
APPID
  5
1888
330
CC
100
AcDbSymbolTableRecord
100
AcDbRegAppTableRecord
  2
GENIUS_GENDIMSH_14
 70
     0
  0
APPID
  5
1889
330
CC
100
AcDbSymbolTableRecord
100
AcDbRegAppTableRecord
  2
GENIUS_GENOBJ-N-CEN_13
 70
     0
  0
APPID
  5
188A
330
CC
100
AcDbSymbolTableRecord
100
AcDbRegAppTableRecord
  2
GENIUS_GENCEN_19
 70
     0
  0
APPID
  5
188B
330
CC
100
AcDbSymbolTableRecord
100
AcDbRegAppTableRecord
  2
ACAD_DSTYLE_DIMJAG
 70
     0
  0
APPID
  5
188C
330
CC
100
AcDbSymbolTableRecord
100
AcDbRegAppTableRecord
  2
ACAD_DSTYLE_DIMTALN
 70
     0
  0
APPID
  5
188D
330
CC
100
AcDbSymbolTableRecord
100
AcDbRegAppTableRecord
  2
GENIUS_GENREC_14
 70
     0
  0
APPID
  5
188E
330
CC
100
AcDbSymbolTableRecord
100
AcDbRegAppTableRecord
  2
GENIUS_GENOBJ-N-REC_13
 70
     0
  0
APPID
  5
188F
330
CC
100
AcDbSymbolTableRecord
100
AcDbRegAppTableRecord
  2
ACAD_DIMASSOC_CALC_DIMLFAC
 70
     0
  0
APPID
  5
1890
330
CC
100
AcDbSymbolTableRecord
100
AcDbRegAppTableRecord
  2
ACAD_DIMASSOC_DIMLFAC
 70
     0
  0
APPID
  5
1891
330
CC
100
AcDbSymbolTableRecord
100
AcDbRegAppTableRecord
  2
ACAD_DIMASSOC_OVERRIDDEN_DIMLFAC
 70
     0
  0
APPID
  5
1892
330
CC
100
AcDbSymbolTableRecord
100
AcDbRegAppTableRecord
  2
AcadAnnotative
 70
     0
  0
APPID
  5
1893
330
CC
100
AcDbSymbolTableRecord
100
AcDbRegAppTableRecord
  2
ACAD_DSTYLE_DIMEXT_LENGTH
 70
     0
  0
APPID
  5
1894
330
CC
100
AcDbSymbolTableRecord
100
AcDbRegAppTableRecord
  2
ACAD_DSTYLE_DIMEXT_ENABLED
 70
     0
  0
APPID
  5
1895
330
CC
100
AcDbSymbolTableRecord
100
AcDbRegAppTableRecord
  2
ACAD_DSTYLE_DIMBREAK
 70
     0
  0
APPID
  5
1896
330
CC
100
AcDbSymbolTableRecord
100
AcDbRegAppTableRecord
  2
ACAD_DSTYLE_DIMANGULAR_EXTENSION
 70
     0
  0
APPID
  5
1897
330
CC
100
AcDbSymbolTableRecord
100
AcDbRegAppTableRecord
  2
ACCMTRANSPARENCY
 70
     0
  0
APPID
  5
1898
330
CC
100
AcDbSymbolTableRecord
100
AcDbRegAppTableRecord
  2
GENIUS_GENBLLY_14
 70
     0
  0
APPID
  5
1899
330
CC
100
AcDbSymbolTableRecord
100
AcDbRegAppTableRecord
  2
GENIUS_GENTRA_14
 70
     0
  0
APPID
  5
189A
330
CC
100
AcDbSymbolTableRecord
100
AcDbRegAppTableRecord
  2
GENIUS_GENOBJ-N-REV_13
 70
     0
  0
APPID
  5
189B
330
CC
100
AcDbSymbolTableRecord
100
AcDbRegAppTableRecord
  2
GENIUS_GENOBJ-N-RSSYM_13
 70
     0
  0
APPID
  5
189C
330
CC
100
AcDbSymbolTableRecord
100
AcDbRegAppTableRecord
  2
GENIUS_GENSYMENT_13
 70
     0
  0
APPID
  5
189D
330
CC
100
AcDbSymbolTableRecord
100
AcDbRegAppTableRecord
  2
GENIUS_GENSCSYM_13
 70
     0
  0
APPID
  5
189E
330
CC
100
AcDbSymbolTableRecord
100
AcDbRegAppTableRecord
  2
AcDbBlockRepBTag
 70
     0
  0
APPID
  5
189F
330
CC
100
AcDbSymbolTableRecord
100
AcDbRegAppTableRecord
  2
ACAUTHENVIRON
 70
     0
  0
APPID
  5
18A0
330
CC
100
AcDbSymbolTableRecord
100
AcDbRegAppTableRecord
  2
AcDbDynamicBlockTrueName
 70
     0
  0
APPID
  5
18A1
330
CC
100
AcDbSymbolTableRecord
100
AcDbRegAppTableRecord
  2
AcDbDynamicBlockGUID
 70
     0
  0
APPID
  5
18A2
330
CC
100
AcDbSymbolTableRecord
100
AcDbRegAppTableRecord
  2
AcDbBlockRepETag
 70
     0
  0
APPID
  5
18A3
330
CC
100
AcDbSymbolTableRecord
100
AcDbRegAppTableRecord
  2
GENIUS_GENOBJ-N-HTC_13
 70
     0
  0
APPID
  5
18A4
330
CC
100
AcDbSymbolTableRecord
100
AcDbRegAppTableRecord
  2
GENIUS_GENHATCH_13
 70
     0
  0
APPID
  5
18A5
330
CC
100
AcDbSymbolTableRecord
100
AcDbRegAppTableRecord
  2
GRADIENTCOLOR1ACI
 70
     0
  0
APPID
  5
18A6
330
CC
100
AcDbSymbolTableRecord
100
AcDbRegAppTableRecord
  2
GRADIENTCOLOR2ACI
 70
     0
  0
APPID
  5
18A7
330
CC
100
AcDbSymbolTableRecord
100
AcDbRegAppTableRecord
  2
GENIUS_GENFIL_13
 70
     0
  0
APPID
  5
18A8
330
CC
100
AcDbSymbolTableRecord
100
AcDbRegAppTableRecord
  2
GENIUS_GENOBJ-N-CHA_13
 70
     0
  0
APPID
  5
18A9
330
CC
100
AcDbSymbolTableRecord
100
AcDbRegAppTableRecord
  2
ACAD_DSTYLE_DIM_LINETYPE
 70
     0
  0
APPID
  5
18AA
330
CC
100
AcDbSymbolTableRecord
100
AcDbRegAppTableRecord
  2
ACAD_DSTYLE_DIM_EXT1_LINETYPE
 70
     0
  0
APPID
  5
18AB
330
CC
100
AcDbSymbolTableRecord
100
AcDbRegAppTableRecord
  2
ACAD_DSTYLE_DIM_EXT2_LINETYPE
 70
     0
  0
APPID
  5
18AC
330
CC
100
AcDbSymbolTableRecord
100
AcDbRegAppTableRecord
  2
AcDbAttr
 70
     0
  0
APPID
  5
18AD
330
CC
100
AcDbSymbolTableRecord
100
AcDbRegAppTableRecord
  2
ACAD_DSTYLE_DIMRADIAL_EXTENSION
 70
     0
  0
APPID
  5
18AE
330
CC
100
AcDbSymbolTableRecord
100
AcDbRegAppTableRecord
  2
ACADANNOAV
 70
     0
  0
APPID
  5
18AF
330
CC
100
AcDbSymbolTableRecord
100
AcDbRegAppTableRecord
  2
ACAD_DSTYLE_DIMTEXT_FILL
 70
     0
  0
APPID
  5
18B0
330
CC
100
AcDbSymbolTableRecord
100
AcDbRegAppTableRecord
  2
ACAD_DSTYLE_DIMFLIPARROW_WHICH_SYMBOL
 70
     0
  0
APPID
  5
18B1
330
CC
100
AcDbSymbolTableRecord
100
AcDbRegAppTableRecord
  2
ACADBPTGRAPHNODEID
 70
     0
  0
APPID
  5
18B2
330
CC
100
AcDbSymbolTableRecord
100
AcDbRegAppTableRecord
  2
PE_URL
 70
     0
  0
ENDTAB
  0
TABLE
  2
DIMSTYLE
  5
CB
330
0
100
AcDbSymbolTable
 70
     1
100
AcDbDimStyleTable
 71
     0
  0
DIMSTYLE
105
184B
330
CB
100
AcDbSymbolTableRecord
100
AcDbDimStyleTableRecord
  2
Standard
 70
     0
340
23
  0
ENDTAB
  0
TABLE
  2
BLOCK_RECORD
  5
D0
330
0
100
AcDbSymbolTable
 70
     0
  0
BLOCK_RECORD
  5
D1
102
{ACAD_XDICTIONARY
360
1B08
102
}
330
D0
100
AcDbSymbolTableRecord
100
AcDbBlockTableRecord
  2
*MODEL_SPACE
340
184E
  0
BLOCK_RECORD
  5
D2
330
D0
100
AcDbSymbolTableRecord
100
AcDbBlockTableRecord
  2
*PAPER_SPACE
340
184F
  0
ENDTAB
  0
ENDSEC
  0
SECTION
  2
BLOCKS
  0
BLOCK
  5
E3
330
D1
100
AcDbEntity
  8
0
100
AcDbBlockBegin
  2
*MODEL_SPACE
 70
     0
 10
0.0
 20
0.0
 30
0.0
  3
*MODEL_SPACE
  1

  0
ENDBLK
  5
E4
330
D1
100
AcDbEntity
  8
0
100
AcDbBlockEnd
  0
BLOCK
  5
E5
330
D2
100
AcDbEntity
 67
     1
  8
0
100
AcDbBlockBegin
  2
*PAPER_SPACE
 70
     0
 10
0.0
 20
0.0
 30
0.0
  3
*PAPER_SPACE
  1

  0
ENDBLK
  5
E6
330
D2
100
AcDbEntity
 67
     1
  8
0
100
AcDbBlockEnd
  0
ENDSEC
  0
SECTION
  2
ENTITIES
  0
POINT
  5
198A
330
D1
100
AcDbEntity
  8
0
  6
Continuous
100
AcDbPoint
 10
400.0
 20
0.0
 30
0.0
  0
LINE
  5
198B
330
D1
100
AcDbEntity
  8
0
  6
Continuous
100
AcDbLine
 10
381.0
 20
101.0
 30
0.0
 11
419.0
 21
101.0
 31
0.0
  0
LINE
  5
198C
330
D1
100
AcDbEntity
  8
0
  6
Continuous
100
AcDbLine
 10
419.0
 20
101.0
 30
0.0
 11
419.0
 21
99.832672
 31
0.0
  0
LINE
  5
198D
330
D1
100
AcDbEntity
  8
0
  6
Continuous
100
AcDbLine
 10
404.0
 20
64.876801
 30
0.0
 11
404.0
 21
60.5
 31
0.0
  0
LINE
  5
198E
330
D1
100
AcDbEntity
  8
0
  6
Continuous
100
AcDbLine
 10
464.876953
 20
4.0
 30
0.0
 11
460.5
 21
4.0
 31
0.0
  0
LINE
  5
198F
330
D1
100
AcDbEntity
  8
0
  6
Continuous
100
AcDbLine
 10
464.876953
 20
-4.0
 30
0.0
 11
460.5
 21
-4.0
 31
0.0
  0
LINE
  5
1990
330
D1
100
AcDbEntity
  8
0
  6
Continuous
100
AcDbLine
 10
460.5
 20
4.0
 30
0.0
 11
460.5
 21
-4.0
 31
0.0
  0
LINE
  5
1991
330
D1
100
AcDbEntity
  8
0
  6
Continuous
100
AcDbLine
 10
404.0
 20
-64.876801
 30
0.0
 11
404.0
 21
-60.5
 31
0.0
  0
LINE
  5
1992
330
D1
100
AcDbEntity
  8
0
  6
Continuous
100
AcDbLine
 10
478.5
 20
72.63108799999997
 30
0.0
 11
478.5
 21
-59.27449000000001
 31
0.0
  0
LINE
  5
1993
330
D1
100
AcDbEntity
  8
0
  6
Continuous
100
AcDbLine
 10
411.5
 20
-83.61879
 30
0.0
 11
411.5
 21
-86.36526500000002
 31
0.0
  0
LINE
  5
1994
330
D1
100
AcDbEntity
  8
0
  6
Continuous
100
AcDbLine
 10
415.999928
 20
-79.86601300000001
 30
0.0
 11
412.499989
 21
-81.88670300000001
 31
0.0
  0
LINE
  5
1995
330
D1
100
AcDbEntity
  8
0
  6
Continuous
100
AcDbLine
 10
417.4999999999999
 20
-72.99292
 30
0.0
 11
417.4999999999999
 21
-77.267944
 31
0.0
  0
LINE
  5
1996
330
D1
100
AcDbEntity
  8
0
  6
Continuous
100
AcDbLine
 10
470.779045
 20
-67.26963000000001
 30
0.0
 11
421.3604389999999
 21
-68.99536899999998
 31
0.0
  0
LINE
  5
1997
330
D1
100
AcDbEntity
  8
0
  6
Continuous
100
AcDbLine
 10
281.5
 20
-4.0
 30
0.0
 11
299.5
 21
-4.0
 31
0.0
  0
LINE
  5
1998
330
D1
100
AcDbEntity
  8
0
  6
Continuous
100
AcDbLine
 10
281.5
 20
4.0
 30
0.0
 11
299.5
 21
4.0
 31
0.0
  0
LINE
  5
1999
330
D1
100
AcDbEntity
  8
0
  6
Continuous
100
AcDbLine
 10
299.5
 20
-51.99998499999998
 30
0.0
 11
321.5
 21
-51.99998499999998
 31
0.0
  0
LINE
  5
199A
330
D1
100
AcDbEntity
  8
0
  6
Continuous
100
AcDbLine
 10
281.5
 20
-65.0
 30
0.0
 11
299.5
 21
-65.0
 31
0.0
  0
LINE
  5
199D
330
D1
100
AcDbEntity
  8
0
  6
Continuous
100
AcDbLine
 10
299.5
 20
52.0
 30
0.0
 11
321.5000000000001
 21
52.0
 31
0.0
  0
LINE
  5
199E
330
D1
100
AcDbEntity
  8
0
  6
Continuous
100
AcDbLine
 10
281.5
 20
65.0
 30
0.0
 11
299.5
 21
65.0
 31
0.0
  0
LINE
  5
199F
330
D1
100
AcDbEntity
  8
0
  6
Continuous
100
AcDbLine
 10
299.5
 20
65.0
 30
0.0
 11
299.5
 21
-65.0
 31
0.0
  0
LINE
  5
19A0
330
D1
100
AcDbEntity
  8
0
  6
Continuous
100
AcDbLine
 10
390.5
 20
-104.0
 30
0.0
 11
409.4999999999999
 21
-104.0
 31
0.0
  0
LINE
  5
19A1
330
D1
100
AcDbEntity
  8
0
  6
Continuous
100
AcDbLine
 10
385.5
 20
-87.0
 30
0.0
 11
414.5
 21
-87.0
 31
0.0
  0
LINE
  5
19A2
330
D1
100
AcDbEntity
  8
0
  6
Continuous
100
AcDbLine
 10
381.0
 20
101.0
 30
0.0
 11
381.0
 21
99.832672
 31
0.0
  0
LINE
  5
19A3
330
D1
100
AcDbEntity
  8
0
  6
Continuous
100
AcDbLine
 10
253.04155
 20
44.97357199999998
 30
0.0
 11
255.04616
 21
39.46595400000001
 31
0.0
  0
LINE
  5
19A4
330
D1
100
AcDbEntity
  8
0
  6
Continuous
100
AcDbLine
 10
281.5
 20
38.14999399999999
 30
0.0
 11
256.9255399999999
 21
38.14999399999999
 31
0.0
  0
LINE
  5
19A5
330
D1
100
AcDbEntity
  8
0
  6
Continuous
100
AcDbLine
 10
250.0
 20
45.49999999999999
 30
0.0
 11
252.28979
 21
45.49999999999999
 31
0.0
  0
LINE
  5
19A6
330
D1
100
AcDbEntity
  8
0
  6
Continuous
100
AcDbLine
 10
281.5
 20
-38.14999399999999
 30
0.0
 11
256.9255399999999
 21
-38.14999399999999
 31
0.0
  0
LINE
  5
19A7
330
D1
100
AcDbEntity
  8
0
  6
Continuous
100
AcDbLine
 10
253.04163
 20
-44.97359499999999
 30
0.0
 11
255.04626
 21
-39.46591899999999
 31
0.0
  0
LINE
  5
19A8
330
D1
100
AcDbEntity
  8
0
  6
Continuous
100
AcDbLine
 10
250.0
 20
-45.49999999999999
 30
0.0
 11
252.28979
 21
-45.49999999999999
 31
0.0
  0
LINE
  5
19A9
330
D1
100
AcDbEntity
  8
0
  6
Continuous
100
AcDbLine
 10
250.0
 20
45.49999999999999
 30
0.0
 11
250.0
 21
-45.49999999999999
 31
0.0
  0
LINE
  5
19AA
330
D1
100
AcDbEntity
  8
0
  6
Continuous
100
AcDbLine
 10
255.52515
 20
-38.14999399999999
 30
0.0
 11
255.52515
 21
37.72537199999999
 31
0.0
  0
LINE
  5
19AB
330
D1
100
AcDbEntity
  8
0
  6
Continuous
100
AcDbLine
 10
252.8501
 20
-44.97362100000001
 30
0.0
 11
252.8501
 21
43.16095000000001
 31
0.0
  0
LINE
  5
19AC
330
D1
100
AcDbEntity
  8
0
  6
Continuous
100
AcDbLine
 10
281.5
 20
65.0
 30
0.0
 11
281.5
 21
-65.0
 31
0.0
  0
LINE
  5
19AD
330
D1
100
AcDbEntity
  8
0
  6
Continuous
100
AcDbLine
 10
396.0
 20
64.876801
 30
0.0
 11
396.0
 21
60.5
 31
0.0
  0
LINE
  5
19AE
330
D1
100
AcDbEntity
  8
0
  6
Continuous
100
AcDbLine
 10
404.0
 20
60.5
 30
0.0
 11
396.0
 21
60.5
 31
0.0
  0
LINE
  5
19AF
330
D1
100
AcDbEntity
  8
0
  6
Continuous
100
AcDbLine
 10
335.123291
 20
4.0
 30
0.0
 11
339.5
 21
4.0
 31
0.0
  0
LINE
  5
19B0
330
D1
100
AcDbEntity
  8
0
  6
Continuous
100
AcDbLine
 10
335.123291
 20
-4.0
 30
0.0
 11
339.5
 21
-4.0
 31
0.0
  0
LINE
  5
19B1
330
D1
100
AcDbEntity
  8
0
  6
Continuous
100
AcDbLine
 10
339.5
 20
4.0
 30
0.0
 11
339.5
 21
-4.0
 31
0.0
  0
LINE
  5
19B3
330
D1
100
AcDbEntity
  8
0
  6
Continuous
100
AcDbLine
 10
404.0
 20
-60.5
 30
0.0
 11
396.0
 21
-60.5
 31
0.0
  0
LINE
  5
19B4
330
D1
100
AcDbEntity
  8
0
  6
Continuous
100
AcDbLine
 10
396.0
 20
-64.876801
 30
0.0
 11
396.0
 21
-60.5
 31
0.0
  0
LINE
  5
19B5
330
D1
100
AcDbEntity
  8
0
  6
Continuous
100
AcDbLine
 10
321.5
 20
73.5
 30
0.0
 11
321.5
 21
-59.27449000000001
 31
0.0
  0
LINE
  5
19B6
330
D1
100
AcDbEntity
  8
0
  6
Continuous
100
AcDbLine
 10
417.4999999999999
 20
-69.13017300000001
 30
0.0
 11
382.5
 21
-69.13017300000001
 31
0.0
  0
LINE
  5
19B7
330
D1
100
AcDbEntity
  8
0
  6
Continuous
100
AcDbLine
 10
411.5
 20
-82.46408100000001
 30
0.0
 11
388.5
 21
-82.46408100000001
 31
0.0
  0
LINE
  5
19B8
330
D1
100
AcDbEntity
  8
0
  6
Continuous
100
AcDbLine
 10
470.7790529999999
 20
-67.0
 30
0.0
 11
329.814453
 21
-67.0
 31
0.0
  0
LINE
  5
19B9
330
D1
100
AcDbEntity
  8
0
  6
Continuous
100
AcDbLine
 10
416.0
 20
-79.0
 30
0.0
 11
383.878418
 21
-79.0
 31
0.0
  0
LINE
  5
19BA
330
D1
100
AcDbEntity
  8
0
  6
Continuous
100
AcDbLine
 10
388.5
 20
-83.61879
 30
0.0
 11
388.5
 21
-86.36526500000002
 31
0.0
  0
LINE
  5
19BB
330
D1
100
AcDbEntity
  8
0
  6
Continuous
100
AcDbLine
 10
383.999981
 20
-79.86592100000001
 30
0.0
 11
387.500025
 21
-81.886673
 31
0.0
  0
LINE
  5
19BC
330
D1
100
AcDbEntity
  8
0
  6
Continuous
100
AcDbLine
 10
382.5
 20
-72.99292
 30
0.0
 11
382.5
 21
-77.267944
 31
0.0
  0
LINE
  5
19BD
330
D1
100
AcDbEntity
  8
0
  6
Continuous
100
AcDbLine
 10
329.220787
 20
-67.26963000000001
 30
0.0
 11
378.639635
 21
-68.99536899999998
 31
0.0
  0
LINE
  5
19C0
330
D1
100
AcDbEntity
  8
0
  6
Continuous
100
AcDbLine
 10
401.861084
 20
-90.0
 30
0.0
 11
401.861084
 21
-96.0
 31
0.0
  0
LINE
  5
19C1
330
D1
100
AcDbEntity
  8
0
  6
Continuous
100
AcDbLine
 10
398.138916
 20
-90.0
 30
0.0
 11
398.138916
 21
-96.0
 31
0.0
  0
LINE
  5
19C2
330
D1
100
AcDbEntity
  8
0
  6
Continuous
100
AcDbLine
 10
414.138916
 20
-90.0
 30
0.0
 11
414.138916
 21
-96.0
 31
0.0
  0
LINE
  5
19C5
330
D1
100
AcDbEntity
  8
0
  6
Continuous
100
AcDbLine
 10
416.0
 20
-87.40192400000001
 30
0.0
 11
416.0
 21
-100.66369
 31
0.0
  0
LINE
  5
19C6
330
D1
100
AcDbEntity
  8
0
  6
Continuous
100
AcDbLine
 10
384.0
 20
-87.40193199999998
 30
0.0
 11
384.0
 21
-100.66368
 31
0.0
  0
LINE
  5
19C7
330
D1
100
AcDbEntity
  8
0
  6
Continuous
100
AcDbLine
 10
385.861084
 20
-90.0
 30
0.0
 11
385.861084
 21
-96.0
 31
0.0
  0
LINE
  5
19E2
330
D1
100
AcDbEntity
  8
0
  6
Continuous
100
AcDbLine
 10
492.0000107129333
 20
98.50000000000001
 30
0.0
 11
307.9999892870666
 21
98.50000000000001
 31
0.0
  0
LINE
  5
19E3
330
D1
100
AcDbEntity
  8
0
  6
Continuous
100
AcDbLine
 10
492.0000107129334
 20
73.5
 30
0.0
 11
307.9999892870666
 21
73.5
 31
0.0
  0
LINE
  5
19EF
330
D1
100
AcDbEntity
  8
0
  6
Continuous
100
AcDbLine
 10
384.5
 20
115.0
 30
0.0
 11
384.5
 21
113.0
 31
0.0
  0
LINE
  5
19F0
330
D1
100
AcDbEntity
  8
0
  6
Continuous
100
AcDbLine
 10
415.5
 20
115.0
 30
0.0
 11
415.5
 21
113.0
 31
0.0
  0
LINE
  5
19F3
330
D1
100
AcDbEntity
  8
0
  6
Continuous
100
AcDbLine
 10
385.25
 20
145.0
 30
0.0
 11
385.25
 21
117.0
 31
0.0
  0
LINE
  5
19F4
330
D1
100
AcDbEntity
  8
0
  6
Continuous
100
AcDbLine
 10
414.7499999999999
 20
145.0
 30
0.0
 11
414.7499999999999
 21
117.0
 31
0.0
  0
LINE
  5
19F5
330
D1
100
AcDbEntity
  8
0
  6
Continuous
100
AcDbLine
 10
367.5
 20
147.0
 30
0.0
 11
432.5
 21
147.0
 31
0.0
  0
LINE
  5
19F8
330
D1
100
AcDbEntity
  8
0
  6
Continuous
100
AcDbLine
 10
416.088329
 20
145.0
 30
0.0
 11
416.088329
 21
147.0
 31
0.0
  0
LINE
  5
19F9
330
D1
100
AcDbEntity
  8
0
  6
Continuous
100
AcDbLine
 10
431.4883309999999
 20
145.0
 30
0.0
 11
431.4883309999999
 21
147.0
 31
0.0
  0
LINE
  5
19FC
330
D1
100
AcDbEntity
  8
0
  6
Continuous
100
AcDbLine
 10
368.511791
 20
145.0
 30
0.0
 11
368.511791
 21
147.0
 31
0.0
  0
LINE
  5
19FD
330
D1
100
AcDbEntity
  8
0
  6
Continuous
100
AcDbLine
 10
416.088329
 20
145.0
 30
0.0
 11
431.4883309999999
 21
145.0
 31
0.0
  0
LINE
  5
19FE
330
D1
100
AcDbEntity
  8
0
  6
Continuous
100
AcDbLine
 10
418.1543559999999
 20
137.0
 30
0.0
 11
429.422304
 21
137.0
 31
0.0
  0
LINE
  5
19FF
330
D1
100
AcDbEntity
  8
0
  6
Continuous
100
AcDbLine
 10
417.2883299999999
 20
137.5
 30
0.0
 11
417.2883299999999
 21
145.0
 31
0.0
  0
LINE
  5
1A00
330
D1
100
AcDbEntity
  8
0
  6
Continuous
100
AcDbLine
 10
430.2883299999999
 20
137.5
 30
0.0
 11
430.2883299999999
 21
145.0
 31
0.0
  0
LINE
  5
1A01
330
D1
100
AcDbEntity
  8
0
  6
Continuous
100
AcDbLine
 10
417.2883299999999
 20
143.75
 30
0.0
 11
430.2883299999999
 21
143.75
 31
0.0
  0
LINE
  5
1A02
330
D1
100
AcDbEntity
  8
0
  6
Continuous
100
AcDbLine
 10
417.2883299999999
 20
137.5
 30
0.0
 11
430.2883299999999
 21
137.5
 31
0.0
  0
LINE
  5
1A03
330
D1
100
AcDbEntity
  8
0
  6
Continuous
100
AcDbLine
 10
418.1543559999999
 20
137.0
 30
0.0
 11
417.288332
 21
137.5
 31
0.0
  0
LINE
  5
1A04
330
D1
100
AcDbEntity
  8
0
  6
Continuous
100
AcDbLine
 10
429.4223099999999
 20
137.0
 30
0.0
 11
430.288334
 21
137.5
 31
0.0
  0
LINE
  5
1A10
330
D1
100
AcDbEntity
  8
0
  6
Continuous
100
AcDbLine
 10
381.845762
 20
137.0
 30
0.0
 11
382.711788
 21
137.5
 31
0.0
  0
LINE
  5
1A11
330
D1
100
AcDbEntity
  8
0
  6
Continuous
100
AcDbLine
 10
370.577814
 20
137.0
 30
0.0
 11
369.711788
 21
137.5
 31
0.0
  0
LINE
  5
1A12
330
D1
100
AcDbEntity
  8
0
  6
Continuous
100
AcDbLine
 10
369.711792
 20
137.5
 30
0.0
 11
382.711792
 21
137.5
 31
0.0
  0
LINE
  5
1A13
330
D1
100
AcDbEntity
  8
0
  6
Continuous
100
AcDbLine
 10
369.711792
 20
143.75
 30
0.0
 11
382.711792
 21
143.75
 31
0.0
  0
LINE
  5
1A19
330
D1
100
AcDbEntity
  8
0
  6
Continuous
100
AcDbLine
 10
384.387505
 20
112.0
 30
0.0
 11
384.387505
 21
106.4383
 31
0.0
  0
LINE
  5
1A20
330
D1
100
AcDbEntity
  8
0
  6
Continuous
100
AcDbLine
 10
382.711792
 20
137.5
 30
0.0
 11
382.711792
 21
145.0
 31
0.0
  0
LINE
  5
1A21
330
D1
100
AcDbEntity
  8
0
  6
Continuous
100
AcDbLine
 10
369.711792
 20
137.5
 30
0.0
 11
369.711792
 21
145.0
 31
0.0
  0
LINE
  5
1A22
330
D1
100
AcDbEntity
  8
0
  6
Continuous
100
AcDbLine
 10
370.577818
 20
137.0
 30
0.0
 11
381.845766
 21
137.0
 31
0.0
  0
LINE
  5
1A23
330
D1
100
AcDbEntity
  8
0
  6
Continuous
100
AcDbLine
 10
418.708286
 20
137.0
 30
0.0
 11
418.708286
 21
113.4
 31
0.0
  0
LINE
  5
1A25
330
D1
100
AcDbEntity
  8
0
  6
Continuous
100
AcDbLine
 10
385.690912
 20
113.0
 30
0.0
 11
384.387504
 21
112.0
 31
0.0
  0
LINE
  5
1A28
330
D1
100
AcDbEntity
  8
0
  6
Continuous
100
AcDbLine
 10
372.5
 20
137.0
 30
0.0
 11
372.5
 21
117.93666
 31
0.0
  0
LINE
  5
1A2A
330
D1
100
AcDbEntity
  8
0
  6
Continuous
100
AcDbLine
 10
415.612495
 20
112.0
 30
0.0
 11
415.612495
 21
106.4383
 31
0.0
  0
LINE
  5
1A2C
330
D1
100
AcDbEntity
  8
0
  6
Continuous
100
AcDbLine
 10
414.3090879999999
 20
113.0
 30
0.0
 11
415.612496
 21
112.0
 31
0.0
  0
LINE
  5
1A2D
330
D1
100
AcDbEntity
  8
0
  6
Continuous
100
AcDbLine
 10
373.10214
 20
114.7
 30
0.0
 11
374.835644
 21
114.7
 31
0.0
  0
LINE
  5
1A30
330
D1
100
AcDbEntity
  8
0
  6
Continuous
100
AcDbLine
 10
378.328611
 20
110.5642899999999
 30
0.0
 11
379.999998
 21
109.49469
 31
0.0
  0
LINE
  5
1A32
330
D1
100
AcDbEntity
  8
0
  6
Continuous
100
AcDbLine
 10
385.0
 20
117.0
 30
0.0
 11
415.0
 21
117.0
 31
0.0
  0
LINE
  5
1A33
330
D1
100
AcDbEntity
  8
0
  6
Continuous
100
AcDbLine
 10
374.0
 20
113.95
 30
0.0
 11
375.197927
 21
113.95
 31
0.0
  0
LINE
  5
1A34
330
D1
100
AcDbEntity
  8
0
  6
Continuous
100
AcDbLine
 10
378.700001
 20
110.32662
 30
0.0
 11
378.700001
 21
105.1
 31
0.0
  0
LINE
  5
1A35
330
D1
100
AcDbEntity
  8
0
  6
Continuous
100
AcDbLine
 10
373.700001
 20
113.43039
 30
0.0
 11
373.700001
 21
105.9696199999999
 31
0.0
  0
LINE
  5
1A36
330
D1
100
AcDbEntity
  8
0
  6
Continuous
100
AcDbLine
 10
374.0
 20
105.45
 30
0.0
 11
378.700001
 21
105.45
 31
0.0
  0
LINE
  5
1A37
330
D1
100
AcDbEntity
  8
0
  6
Continuous
100
AcDbLine
 10
378.700001
 20
105.1
 30
0.0
 11
380.0
 21
105.1
 31
0.0
  0
LINE
  5
1A38
330
D1
100
AcDbEntity
  8
0
  6
Continuous
100
AcDbLine
 10
378.0
 20
110.7841899999999
 30
0.0
 11
378.0
 21
105.45
 31
0.0
  0
LINE
  5
1A39
330
D1
100
AcDbEntity
  8
0
  6
Continuous
100
AcDbLine
 10
374.0
 20
113.95
 30
0.0
 11
374.0
 21
105.45
 31
0.0
  0
LINE
  5
1A3A
330
D1
100
AcDbEntity
  8
0
  6
Continuous
100
AcDbLine
 10
373.999998
 20
105.45
 30
0.0
 11
373.699999
 21
105.96961
 31
0.0
  0
LINE
  5
1A3C
330
D1
100
AcDbEntity
  8
0
  6
Continuous
100
AcDbLine
 10
373.700001
 20
113.43039
 30
0.0
 11
374.0
 21
113.95
 31
0.0
  0
LINE
  5
1A46
330
D1
100
AcDbEntity
  8
0
  6
Continuous
100
AcDbLine
 10
380.0
 20
109.49468
 30
0.0
 11
380.0
 21
102.0
 31
0.0
  0
LINE
  5
1A47
330
D1
100
AcDbEntity
  8
0
  6
Continuous
100
AcDbLine
 10
381.774742
 20
113.0
 30
0.0
 11
418.225258
 21
113.0
 31
0.0
  0
LINE
  5
1A48
330
D1
100
AcDbEntity
  8
0
  6
Continuous
100
AcDbLine
 10
420.0
 20
106.4383
 30
0.0
 11
420.0
 21
102.0
 31
0.0
  0
LINE
  5
1A49
330
D1
100
AcDbEntity
  8
0
  6
Continuous
100
AcDbLine
 10
432.5
 20
151.0
 30
0.0
 11
432.5
 21
147.0
 31
0.0
  0
LINE
  5
1A4A
330
D1
100
AcDbEntity
  8
0
  6
Continuous
100
AcDbLine
 10
367.5
 20
151.0
 30
0.0
 11
367.5
 21
147.0
 31
0.0
  0
LINE
  5
1A4D
330
D1
100
AcDbEntity
  8
0
  6
Continuous
100
AcDbLine
 10
368.511791
 20
145.0
 30
0.0
 11
383.911793
 21
145.0
 31
0.0
  0
LINE
  5
1A4E
330
D1
100
AcDbEntity
  8
0
  6
Continuous
100
AcDbLine
 10
383.911793
 20
145.0
 30
0.0
 11
383.911793
 21
147.0
 31
0.0
  0
LINE
  5
1A50
330
D1
100
AcDbEntity
  8
0
  6
Continuous
100
AcDbLine
 10
384.5
 20
115.0
 30
0.0
 11
415.5
 21
115.0
 31
0.0
  0
LINE
  5
1A52
330
D1
100
AcDbEntity
  8
0
  6
Continuous
100
AcDbLine
 10
381.291714
 20
137.0
 30
0.0
 11
381.291714
 21
113.4
 31
0.0
  0
LINE
  5
1A53
330
D1
100
AcDbEntity
  8
0
  6
Continuous
100
AcDbLine
 10
427.5
 20
137.0
 30
0.0
 11
427.5
 21
117.93666
 31
0.0
  0
LINE
  5
1A57
330
D1
100
AcDbEntity
  8
0
  6
Continuous
100
AcDbLine
 10
421.279274
 20
108.89575
 30
0.0
 11
423.662191
 21
110.5642899999999
 31
0.0
  0
LINE
  5
1A5A
330
D1
100
AcDbEntity
  8
0
  6
Continuous
100
AcDbLine
 10
415.0
 20
117.0
 30
0.0
 11
415.0
 21
115.0
 31
0.0
  0
LINE
  5
1A5B
330
D1
100
AcDbEntity
  8
0
  6
Continuous
100
AcDbLine
 10
385.0
 20
117.0
 30
0.0
 11
385.0
 21
115.0
 31
0.0
  0
LINE
  5
1A5C
330
D1
100
AcDbEntity
  8
0
  6
Continuous
100
AcDbLine
 10
419.000002
 20
101.0
 30
0.0
 11
420.000002
 21
102.0
 31
0.0
  0
LINE
  5
1A5E
330
D1
100
AcDbEntity
  8
0
  6
Continuous
100
AcDbLine
 10
379.999998
 20
102.0
 30
0.0
 11
380.999998
 21
101.0
 31
0.0
  0
ARC
  5
1A99
330
D1
100
AcDbEntity
  8
0
  6
Continuous
100
AcDbCircle
 10
409.4999999999999
 20
-96.0
 30
0.0
 40
8.0
100
AcDbArc
 50
270.0
 51
324.340920000001
  0
ARC
  5
1A9A
330
D1
100
AcDbEntity
  8
0
  6
Continuous
100
AcDbCircle
 10
421.0
 20
99.832672
 30
0.0
 40
2.0
100
AcDbArc
 50
180.0
 51
221.7849199999994
  0
ARC
  5
1A9B
330
D1
100
AcDbEntity
  8
0
  6
Continuous
100
AcDbCircle
 10
400.0
 20
0.0
 30
0.0
 40
65.0
100
AcDbArc
 50
3.528123199999282
 51
86.47187500000015
  0
ARC
  5
1A9C
330
D1
100
AcDbEntity
  8
0
  6
Continuous
100
AcDbCircle
 10
414.5
 20
-77.267944
 30
0.0
 40
3.0
100
AcDbArc
 50
299.9999999999999
 51
0.0
  0
ARC
  5
1A9D
330
D1
100
AcDbEntity
  8
0
  6
Continuous
100
AcDbCircle
 10
421.4999999999999
 20
-72.99292
 30
0.0
 40
4.0
100
AcDbArc
 50
91.99998399999865
 51
180.0
  0
ARC
  5
1A9E
330
D1
100
AcDbEntity
  8
0
  6
Continuous
100
AcDbCircle
 10
412.5
 20
-86.36526500000002
 30
0.0
 40
1.0
100
AcDbArc
 50
180.0
 51
219.4002999999993
  0
ARC
  5
1A9F
330
D1
100
AcDbEntity
  8
0
  6
Continuous
100
AcDbCircle
 10
413.4999999999999
 20
-83.61879
 30
0.0
 40
2.0
100
AcDbArc
 50
120.0000400000007
 51
180.0
  0
ARC
  5
1AA0
330
D1
100
AcDbEntity
  8
0
  6
Continuous
100
AcDbCircle
 10
470.5
 20
-59.27449000000001
 30
0.0
 40
8.0
100
AcDbArc
 50
272.0000099999995
 51
0.0
  0
ARC
  5
1AA1
330
D1
100
AcDbEntity
  8
0
  6
Continuous
100
AcDbCircle
 10
400.0
 20
0.0
 30
0.0
 40
65.0
100
AcDbArc
 50
273.5281200000005
 51
356.4718799999997
  0
ARC
  5
1AAF
330
D1
100
AcDbEntity
  8
0
  6
Continuous
100
AcDbCircle
 10
385.5
 20
-90.0
 30
0.0
 40
3.0
100
AcDbArc
 50
90.0
 51
120.0001999999994
  0
ARC
  5
1AB0
330
D1
100
AcDbEntity
  8
0
  6
Continuous
100
AcDbCircle
 10
379.0
 20
99.832672
 30
0.0
 40
2.0
100
AcDbArc
 50
318.2150800000006
 51
0.0
  0
ARC
  5
1AB1
330
D1
100
AcDbEntity
  8
0
  6
Continuous
100
AcDbCircle
 10
256.9255399999999
 20
40.14999399999999
 30
0.0
 40
2.0
100
AcDbArc
 50
200.00005
 51
270.0
  0
ARC
  5
1AB3
330
D1
100
AcDbEntity
  8
0
  6
Continuous
100
AcDbCircle
 10
252.28979
 20
44.70001200000001
 30
0.0
 40
0.8000000099999999
100
AcDbArc
 50
20.00002900000103
 51
90.0
  0
ARC
  5
1AB4
330
D1
100
AcDbEntity
  8
0
  6
Continuous
100
AcDbCircle
 10
252.28979
 20
-44.699982
 30
0.0
 40
0.8000000099999999
100
AcDbArc
 50
270.0
 51
339.9999699999999
  0
ARC
  5
1AB6
330
D1
100
AcDbEntity
  8
0
  6
Continuous
100
AcDbCircle
 10
256.9255399999999
 20
-40.14999399999999
 30
0.0
 40
2.0
100
AcDbArc
 50
90.0
 51
159.99995
  0
CIRCLE
  5
1AB7
330
D1
100
AcDbEntity
  8
0
  6
Continuous
100
AcDbCircle
 10
400.0
 20
0.0
 30
0.0
 40
50.25
  0
CIRCLE
  5
1AB8
330
D1
100
AcDbEntity
  8
0
  6
Continuous
100
AcDbCircle
 10
400.0
 20
0.0
 30
0.0
 40
36.149994
  0
CIRCLE
  5
1AB9
330
D1
100
AcDbEntity
  8
0
  6
Continuous
100
AcDbCircle
 10
400.0
 20
0.0
 30
0.0
 40
45.49999999999999
  0
ARC
  5
1ABA
330
D1
100
AcDbEntity
  8
0
  6
Continuous
100
AcDbCircle
 10
400.0
 20
0.0
 30
0.0
 40
65.0
100
AcDbArc
 50
93.52812300000399
 51
176.4718700000006
  0
ARC
  5
1ABB
330
D1
100
AcDbEntity
  8
0
  6
Continuous
100
AcDbCircle
 10
385.5
 20
-77.267944
 30
0.0
 40
3.0
100
AcDbArc
 50
180.0
 51
240.0000000000001
  0
ARC
  5
1ABC
330
D1
100
AcDbEntity
  8
0
  6
Continuous
100
AcDbCircle
 10
378.5
 20
-72.99292
 30
0.0
 40
4.0
100
AcDbArc
 50
0.0
 51
87.99998900000218
  0
ARC
  5
1ABD
330
D1
100
AcDbEntity
  8
0
  6
Continuous
100
AcDbCircle
 10
387.5
 20
-86.36526500000002
 30
0.0
 40
1.0
100
AcDbArc
 50
320.5997000000008
 51
0.0
  0
ARC
  5
1ABE
330
D1
100
AcDbEntity
  8
0
  6
Continuous
100
AcDbCircle
 10
386.5
 20
-83.61879
 30
0.0
 40
2.0
100
AcDbArc
 50
0.0
 51
59.99995999999924
  0
ARC
  5
1ABF
330
D1
100
AcDbEntity
  8
0
  6
Continuous
100
AcDbCircle
 10
329.5
 20
-59.27449000000001
 30
0.0
 40
8.0
100
AcDbArc
 50
180.0
 51
267.9999900000005
  0
ARC
  5
1AC0
330
D1
100
AcDbEntity
  8
0
  6
Continuous
100
AcDbCircle
 10
400.0
 20
0.0
 30
0.0
 40
65.0
100
AcDbArc
 50
183.5281299999993
 51
266.4718799999995
  0
ARC
  5
1AC1
330
D1
100
AcDbEntity
  8
0
  6
Continuous
100
AcDbCircle
 10
390.5
 20
-96.0
 30
0.0
 40
8.0
100
AcDbArc
 50
215.6590100000005
 51
270.000010000001
  0
ARC
  5
1AC2
330
D1
100
AcDbEntity
  8
0
  6
Continuous
100
AcDbCircle
 10
414.5
 20
-90.0
 30
0.0
 40
3.0
100
AcDbArc
 50
59.99999699999854
 51
90.0
  0
ARC
  5
1ADA
330
D1
100
AcDbEntity
  8
0
  6
Continuous
100
AcDbCircle
 10
412.75
 20
145.0
 30
0.0
 40
2.0
100
AcDbArc
 50
0.0
 51
90.0
  0
ARC
  5
1ADC
330
D1
100
AcDbEntity
  8
0
  6
Continuous
100
AcDbCircle
 10
387.25
 20
145.0
 30
0.0
 40
2.0
100
AcDbArc
 50
90.0
 51
180.0
  0
ARC
  5
1ADE
330
D1
100
AcDbEntity
  8
0
  6
Continuous
100
AcDbCircle
 10
381.5
 20
117.93666
 30
0.0
 40
9.0
100
AcDbArc
 50
180.0
 51
201.0774300000011
  0
ARC
  5
1AE3
330
D1
100
AcDbEntity
  8
0
  6
Continuous
100
AcDbCircle
 10
423.0
 20
106.4383
 30
0.0
 40
3.0
100
AcDbArc
 50
124.9999800000019
 51
180.0
  0
ARC
  5
1AE4
330
D1
100
AcDbEntity
  8
0
  6
Continuous
100
AcDbCircle
 10
418.5
 20
117.93666
 30
0.0
 40
9.0
100
AcDbArc
 50
304.9999999999981
 51
0.0
  0
ELLIPSE
  5
1AF9
330
D1
100
AcDbEntity
  8
0
  6
Continuous
100
AcDbEllipse
 10
392.0
 20
-96.0
 30
0.0
 11
-6.139007
 21
-0.0089439388
 31
0.0
210
0.0
220
0.0
230
1.0
 40
0.75967888
 41
6.2812675
 42
9.422860207179585
  0
ELLIPSE
  5
1AFA
330
D1
100
AcDbEntity
  8
0
  6
Continuous
100
AcDbEllipse
 10
408.0
 20
-96.0
 30
0.0
 11
6.139007
 21
-0.0089439388
 31
0.0
210
0.0
220
0.0
230
1.0
 40
0.75967888
 41
3.143510399999999
 42
6.285103092979586
  0
ELLIPSE
  5
1AFB
330
D1
100
AcDbEntity
  8
0
  6
Continuous
100
AcDbEllipse
 10
408.0
 20
-90.0
 30
0.0
 11
6.139013499999999
 21
0.0
 31
0.0
210
0.0
220
0.0
230
1.0
 40
0.4232067299999999
 41
6.283185299999999
 42
9.424778007179586
  0
ELLIPSE
  5
1AFC
330
D1
100
AcDbEntity
  8
0
  6
Continuous
100
AcDbEllipse
 10
392.0
 20
-90.0
 30
0.0
 11
-6.139013499999999
 21
0.0000000000000142
 31
0.0
210
0.0
220
0.0
230
1.0
 40
0.4232067299999999
 41
3.1415927
 42
6.28318530717959
  0
ELLIPSE
  5
1B01
330
D1
100
AcDbEntity
  8
0
  6
Continuous
100
AcDbEllipse
 10
415.2970579999999
 20
143.0
 30
0.0
 11
0.0
 21
3.999999899999999
 31
0.0
210
0.0
220
0.0
230
1.0
 40
0.8528071
 41
6.049092199999999
 42
6.283185307179586
  0
ELLIPSE
  5
1B02
330
D1
100
AcDbEntity
  8
0
  6
Continuous
100
AcDbEllipse
 10
418.225258
 20
113.4
 30
0.0
 11
-0.48302394
 21
-0.0023656286
 31
0.0
210
0.0
220
0.0
230
1.0
 40
0.82810641
 41
1.566740699999999
 42
3.135678599999999
  0
SPLINE
  5
1B05
330
D1
100
AcDbEntity
  8
0
  6
Continuous
100
AcDbSpline
210
0.0
220
0.0
230
1.0
 70
     8
 71
     3
 72
    13
 73
     9
 74
     7
 42
0.0000000001
 43
0.0000000001
 44
0.00001
 12
0.3961836001156706
 22
-0.918171310268071
 32
0.0
 13
0.8422435502752508
 23
-0.5390972101761805
 33
0.0
 40
0.0
 40
0.0
 40
0.0
 40
0.0
 40
0.9156978081272518
 40
1.831686289318587
 40
2.747943148703166
 40
3.664036941022491
 40
4.580435810494609
 40
5.493993040942967
 40
5.493993040942967
 40
5.493993040942967
 40
5.493993040942967
 10
374.835644
 20
114.7
 30
0.0
 10
374.956572151414
 20
114.419744181234
 30
0.0
 10
375.2248610985157
 20
113.8701080928002
 30
0.0
 10
375.703163423053
 20
113.0873706982494
 30
0.0
 10
376.2555153182209
 20
112.3545649282913
 30
0.0
 10
376.8808723614137
 20
111.6825108053587
 30
0.0
 10
377.5734237795
 20
111.0815772564039
 30
0.0
 10
378.0721297716159
 20
110.7284553847569
 30
0.0
 10
378.328609
 20
110.5642899999999
 30
0.0
 11
374.835644
 21
114.7
 31
0.0
 11
375.237439
 21
113.87716
 31
0.0
 11
375.715435
 21
113.09578
 31
0.0
 11
376.267695
 21
112.36466
 31
0.0
 11
376.892104
 21
111.69433
 31
0.0
 11
377.58346
 21
111.0928199999999
 31
0.0
 11
378.328609
 21
110.5642899999999
 31
0.0
  0
ELLIPSE
  5
1B06
330
D1
100
AcDbEntity
  8
0
  6
Continuous
100
AcDbEllipse
 10
381.774742
 20
113.4
 30
0.0
 11
0.48302394
 21
-0.0023656286
 31
0.0
210
0.0
220
0.0
230
1.0
 40
0.82810641
 41
3.1475067
 42
4.716444599999999
  0
ELLIPSE
  5
1B07
330
D1
100
AcDbEntity
  8
0
  6
Continuous
100
AcDbEllipse
 10
384.702942
 20
143.0
 30
0.0
 11
0.0
 21
3.999999899999999
 31
0.0
210
0.0
220
0.0
230
1.0
 40
0.8528071
 41
6.283185299999999
 42
6.517241637179585
  0
POINT
  5
1B0A
330
D1
100
AcDbEntity
  8
0
  6
Continuous
100
AcDbPoint
 10
0.0
 20
0.0
 30
0.0
  0
LINE
  5
1B0B
330
D1
100
AcDbEntity
  8
0
  6
Continuous
100
AcDbLine
 10
64.87670900000001
 20
-4.0
 30
0.0
 11
60.5
 21
-4.0
 31
0.0
  0
LINE
  5
1B0C
330
D1
100
AcDbEntity
  8
0
  6
Continuous
100
AcDbLine
 10
60.5
 20
4.0
 30
0.0
 11
60.5
 21
-4.0
 31
0.0
  0
LINE
  5
1B0D
330
D1
100
AcDbEntity
  8
0
  6
Continuous
100
AcDbLine
 10
-4.0
 20
-60.5
 30
0.0
 11
4.0
 21
-60.5
 31
0.0
  0
LINE
  5
1B0E
330
D1
100
AcDbEntity
  8
0
  6
Continuous
100
AcDbLine
 10
4.0
 20
-64.876801
 30
0.0
 11
4.0
 21
-60.5
 31
0.0
  0
LINE
  5
1B0F
330
D1
100
AcDbEntity
  8
0
  6
Continuous
100
AcDbLine
 10
78.5
 20
73.50001499999996
 30
0.0
 11
78.5
 21
-59.27449000000001
 31
0.0
  0
LINE
  5
1B10
330
D1
100
AcDbEntity
  8
0
  6
Continuous
100
AcDbLine
 10
-17.5
 20
-69.13017300000001
 30
0.0
 11
17.5
 21
-69.13017300000001
 31
0.0
  0
LINE
  5
1B12
330
D1
100
AcDbEntity
  8
0
  6
Continuous
100
AcDbLine
 10
-11.5
 20
-82.46408099999996
 30
0.0
 11
11.5
 21
-82.46408099999996
 31
0.0
  0
LINE
  5
1B13
330
D1
100
AcDbEntity
  8
0
  6
Continuous
100
AcDbLine
 10
-14.25
 20
-79.0
 30
0.0
 11
16.12158199999999
 21
-79.0
 31
0.0
  0
LINE
  5
1B14
330
D1
100
AcDbEntity
  8
0
  6
Continuous
100
AcDbLine
 10
11.5
 20
-83.61879
 30
0.0
 11
11.5
 21
-86.36526500000002
 31
0.0
  0
LINE
  5
1B15
330
D1
100
AcDbEntity
  8
0
  6
Continuous
100
AcDbLine
 10
16.00008000000002
 20
-79.86602800000003
 30
0.0
 11
12.50003400000003
 21
-81.88678000000004
 31
0.0
  0
LINE
  5
1B16
330
D1
100
AcDbEntity
  8
0
  6
Continuous
100
AcDbLine
 10
17.5
 20
-72.99292000000003
 30
0.0
 11
17.5
 21
-77.26794399999994
 31
0.0
  0
LINE
  5
1B17
330
D1
100
AcDbEntity
  8
0
  6
Continuous
100
AcDbLine
 10
70.779289
 20
-67.26959999999997
 30
0.0
 11
21.36043899999998
 21
-68.99534600000004
 31
0.0
  0
LINE
  5
1B18
330
D1
100
AcDbEntity
  8
0
  6
Continuous
100
AcDbLine
 10
-70.77929699999998
 20
-67.0
 30
0.0
 11
70.18554699999999
 21
-67.0
 31
0.0
  0
LINE
  5
1B19
330
D1
100
AcDbEntity
  8
0
  6
Continuous
100
AcDbLine
 10
-118.5
 20
38.14999399999999
 30
0.0
 11
-143.07446
 21
38.14999399999999
 31
0.0
  0
LINE
  5
1B1A
330
D1
100
AcDbEntity
  8
0
  6
Continuous
100
AcDbLine
 10
-19.0
 20
101.0
 30
0.0
 11
-19.0
 21
99.832672
 31
0.0
  0
LINE
  5
1B1B
330
D1
100
AcDbEntity
  8
0
  6
Continuous
100
AcDbLine
 10
-118.5
 20
65.0
 30
0.0
 11
-100.5
 21
65.0
 31
0.0
  0
LINE
  5
1B1C
330
D1
100
AcDbEntity
  8
0
  6
Continuous
100
AcDbLine
 10
-150.0
 20
45.49999999999999
 30
0.0
 11
-147.71021
 21
45.49999999999999
 31
0.0
  0
LINE
  5
1B1D
330
D1
100
AcDbEntity
  8
0
  6
Continuous
100
AcDbLine
 10
-100.5
 20
-51.99998500000003
 30
0.0
 11
-78.5
 21
-51.99998500000004
 31
0.0
  0
LINE
  5
1B1E
330
D1
100
AcDbEntity
  8
0
  6
Continuous
100
AcDbLine
 10
-118.5
 20
4.0
 30
0.0
 11
-100.5
 21
4.0
 31
0.0
  0
LINE
  5
1B1F
330
D1
100
AcDbEntity
  8
0
  6
Continuous
100
AcDbLine
 10
-17.5
 20
-96.0
 30
0.0
 11
-17.5
 21
-90.0
 31
0.0
  0
LINE
  5
1B20
330
D1
100
AcDbEntity
  8
0
  6
Continuous
100
AcDbLine
 10
-118.5
 20
-38.14999399999999
 30
0.0
 11
-143.07446
 21
-38.14999399999999
 31
0.0
  0
LINE
  5
1B21
330
D1
100
AcDbEntity
  8
0
  6
Continuous
100
AcDbLine
 10
-118.5
 20
-4.0
 30
0.0
 11
-100.5
 21
-4.0
 31
0.0
  0
LINE
  5
1B22
330
D1
100
AcDbEntity
  8
0
  6
Continuous
100
AcDbLine
 10
-64.87670900000001
 20
4.0
 30
0.0
 11
-60.5
 21
4.0
 31
0.0
  0
LINE
  5
1B23
330
D1
100
AcDbEntity
  8
0
  6
Continuous
100
AcDbLine
 10
-4.0
 20
64.876801
 30
0.0
 11
-4.0
 21
60.5
 31
0.0
  0
LINE
  5
1B24
330
D1
100
AcDbEntity
  8
0
  6
Continuous
100
AcDbLine
 10
-147.1499
 20
-44.97362499999996
 30
0.0
 11
-147.1499
 21
43.16094999999996
 31
0.0
  0
LINE
  5
1B25
330
D1
100
AcDbEntity
  8
0
  6
Continuous
100
AcDbLine
 10
-100.5
 20
52.0
 30
0.0
 11
-78.5
 21
52.00000000000001
 31
0.0
  0
LINE
  5
1B26
330
D1
100
AcDbEntity
  8
0
  6
Continuous
100
AcDbLine
 10
-100.5
 20
65.0
 30
0.0
 11
-100.5
 21
-65.0
 31
0.0
  0
LINE
  5
1B27
330
D1
100
AcDbEntity
  8
0
  6
Continuous
100
AcDbLine
 10
-146.95831
 20
44.97364000000004
 30
0.0
 11
-144.9537
 21
39.46602199999995
 31
0.0
  0
LINE
  5
1B28
330
D1
100
AcDbEntity
  8
0
  6
Continuous
100
AcDbLine
 10
-70.77921300000003
 20
-67.26960799999995
 30
0.0
 11
-21.36036300000001
 21
-68.99534600000004
 31
0.0
  0
LINE
  5
1B29
330
D1
100
AcDbEntity
  8
0
  6
Continuous
100
AcDbLine
 10
-17.5
 20
-72.99292000000003
 30
0.0
 11
-17.5
 21
-77.26794399999994
 31
0.0
  0
LINE
  5
1B2A
330
D1
100
AcDbEntity
  8
0
  6
Continuous
100
AcDbLine
 10
-144.47485
 20
-38.14999399999999
 30
0.0
 11
-144.47485
 21
37.72537199999999
 31
0.0
  0
LINE
  5
1B2B
330
D1
100
AcDbEntity
  8
0
  6
Continuous
100
AcDbLine
 10
-150.0
 20
45.49999999999999
 30
0.0
 11
-150.0
 21
-45.49999999999999
 31
0.0
  0
LINE
  5
1B2C
330
D1
100
AcDbEntity
  8
0
  6
Continuous
100
AcDbLine
 10
-118.5
 20
-65.0
 30
0.0
 11
-100.5
 21
-65.0
 31
0.0
  0
LINE
  5
1B2E
330
D1
100
AcDbEntity
  8
0
  6
Continuous
100
AcDbLine
 10
-17.40087899999997
 20
-90.0
 30
0.0
 11
-17.40087899999997
 21
-96.0
 31
0.0
  0
LINE
  5
1B2F
330
D1
100
AcDbEntity
  8
0
  6
Continuous
100
AcDbLine
 10
-16.00009899999998
 20
-79.86605799999995
 30
0.0
 11
-12.50005299999998
 21
-81.88680999999997
 31
0.0
  0
LINE
  5
1B30
330
D1
100
AcDbEntity
  8
0
  6
Continuous
100
AcDbLine
 10
-60.5
 20
4.0
 30
0.0
 11
-60.5
 21
-4.0
 31
0.0
  0
LINE
  5
1B31
330
D1
100
AcDbEntity
  8
0
  6
Continuous
100
AcDbLine
 10
-11.5
 20
-83.61879
 30
0.0
 11
-11.5
 21
-86.36526500000002
 31
0.0
  0
LINE
  5
1B32
330
D1
100
AcDbEntity
  8
0
  6
Continuous
100
AcDbLine
 10
-78.5
 20
73.50001499999996
 30
0.0
 11
-78.5
 21
-59.27449000000001
 31
0.0
  0
LINE
  5
1B33
330
D1
100
AcDbEntity
  8
0
  6
Continuous
100
AcDbLine
 10
-10.31201199999998
 20
-90.0
 30
0.0
 11
-10.31201199999998
 21
-96.0
 31
0.0
  0
LINE
  5
1B34
330
D1
100
AcDbEntity
  8
0
  6
Continuous
100
AcDbLine
 10
-118.5
 20
65.0
 30
0.0
 11
-118.5
 21
-65.0
 31
0.0
  0
LINE
  5
1B35
330
D1
100
AcDbEntity
  8
0
  6
Continuous
100
AcDbLine
 10
-4.0
 20
-64.876801
 30
0.0
 11
-4.0
 21
-60.5
 31
0.0
  0
LINE
  5
1B36
330
D1
100
AcDbEntity
  8
0
  6
Continuous
100
AcDbLine
 10
-150.0
 20
-45.49999999999999
 30
0.0
 11
-147.71021
 21
-45.49999999999999
 31
0.0
  0
LINE
  5
1B37
330
D1
100
AcDbEntity
  8
0
  6
Continuous
100
AcDbLine
 10
-146.95824
 20
-44.97365999999999
 30
0.0
 11
-144.9536
 21
-39.46598400000005
 31
0.0
  0
LINE
  5
1B38
330
D1
100
AcDbEntity
  8
0
  6
Continuous
100
AcDbLine
 10
-7.088622999999984
 20
-90.0
 30
0.0
 11
-7.088622999999984
 21
-96.0
 31
0.0
  0
LINE
  5
1B3A
330
D1
100
AcDbEntity
  8
0
  6
Continuous
100
AcDbLine
 10
-64.87670900000001
 20
-4.0
 30
0.0
 11
-60.5
 21
-4.0
 31
0.0
  0
LINE
  5
1B3C
330
D1
100
AcDbEntity
  8
0
  6
Continuous
100
AcDbLine
 10
19.0
 20
101.0
 30
0.0
 11
19.0
 21
99.832672
 31
0.0
  0
LINE
  5
1B3D
330
D1
100
AcDbEntity
  8
0
  6
Continuous
100
AcDbLine
 10
19.0
 20
101.0
 30
0.0
 11
-19.0
 21
101.0
 31
0.0
  0
LINE
  5
1B47
330
D1
100
AcDbEntity
  8
0
  6
Continuous
100
AcDbLine
 10
4.0
 20
64.876801
 30
0.0
 11
4.0
 21
60.5
 31
0.0
  0
LINE
  5
1B48
330
D1
100
AcDbEntity
  8
0
  6
Continuous
100
AcDbLine
 10
-4.0
 20
60.5
 30
0.0
 11
4.0
 21
60.5
 31
0.0
  0
LINE
  5
1B49
330
D1
100
AcDbEntity
  8
0
  6
Continuous
100
AcDbLine
 10
64.87670900000001
 20
4.0
 30
0.0
 11
60.5
 21
4.0
 31
0.0
  0
LINE
  5
1B53
330
D1
100
AcDbEntity
  8
0
  6
Continuous
100
AcDbLine
 10
9.5
 20
-104.0
 30
0.0
 11
-9.5
 21
-104.0
 31
0.0
  0
LINE
  5
1B54
330
D1
100
AcDbEntity
  8
0
  6
Continuous
100
AcDbLine
 10
17.5
 20
-96.0
 30
0.0
 11
17.5
 21
-90.0
 31
0.0
  0
LINE
  5
1B55
330
D1
100
AcDbEntity
  8
0
  6
Continuous
100
AcDbLine
 10
14.5
 20
-87.0
 30
0.0
 11
-14.5
 21
-87.0
 31
0.0
  0
LINE
  5
1B59
330
D1
100
AcDbEntity
  8
0
  6
Continuous
100
AcDbLine
 10
7.088622999999984
 20
-90.0
 30
0.0
 11
7.088622999999984
 21
-96.0
 31
0.0
  0
LINE
  5
1B5A
330
D1
100
AcDbEntity
  8
0
  6
Continuous
100
AcDbLine
 10
10.31201199999998
 20
-90.0
 30
0.0
 11
10.31201199999998
 21
-96.0
 31
0.0
  0
LINE
  5
1B5B
330
D1
100
AcDbEntity
  8
0
  6
Continuous
100
AcDbLine
 10
17.40087899999997
 20
-90.0
 30
0.0
 11
17.40087899999997
 21
-96.0
 31
0.0
  0
LINE
  5
1B5F
330
D1
100
AcDbEntity
  8
0
  6
Continuous
100
AcDbLine
 10
92.0
 20
98.50001499999997
 30
0.0
 11
92.0
 21
73.50001499999996
 31
0.0
  0
LINE
  5
1B60
330
D1
100
AcDbEntity
  8
0
  6
Continuous
100
AcDbLine
 10
92.0
 20
98.50001499999997
 30
0.0
 11
-92.0
 21
98.50001499999997
 31
0.0
  0
LINE
  5
1B61
330
D1
100
AcDbEntity
  8
0
  6
Continuous
100
AcDbLine
 10
92.0
 20
73.50001499999996
 30
0.0
 11
-92.0
 21
73.50001499999996
 31
0.0
  0
LINE
  5
1B79
330
D1
100
AcDbEntity
  8
0
  6
Continuous
100
AcDbLine
 10
78.662506
 20
73.50001499999996
 30
0.0
 11
78.662506
 21
73.00001499999996
 31
0.0
  0
LINE
  5
1B8F
330
D1
100
AcDbEntity
  8
0
  6
Continuous
100
AcDbLine
 10
-31.48820899999999
 20
145.0
 30
0.0
 11
-16.08820700000001
 21
145.0
 31
0.0
  0
LINE
  5
1B90
330
D1
100
AcDbEntity
  8
0
  6
Continuous
100
AcDbLine
 10
-29.42218200000002
 20
137.0
 30
0.0
 11
-18.15423399999997
 21
137.0
 31
0.0
  0
LINE
  5
1B91
330
D1
100
AcDbEntity
  8
0
  6
Continuous
100
AcDbLine
 10
-30.288208
 20
137.5
 30
0.0
 11
-30.288208
 21
145.0
 31
0.0
  0
LINE
  5
1B92
330
D1
100
AcDbEntity
  8
0
  6
Continuous
100
AcDbLine
 10
-17.288208
 20
137.5
 30
0.0
 11
-17.288208
 21
145.0
 31
0.0
  0
LINE
  5
1B96
330
D1
100
AcDbEntity
  8
0
  6
Continuous
100
AcDbLine
 10
41.0
 20
115.0
 30
0.0
 11
41.0
 21
113.0
 31
0.0
  0
LINE
  5
1B99
330
D1
100
AcDbEntity
  8
0
  6
Continuous
100
AcDbLine
 10
-17.5
 20
115.0
 30
0.0
 11
-17.5
 21
113.0
 31
0.0
  0
LINE
  5
1BA4
330
D1
100
AcDbEntity
  8
0
  6
Continuous
100
AcDbLine
 10
-30.288208
 20
143.75
 30
0.0
 11
-17.288208
 21
143.75
 31
0.0
  0
LINE
  5
1BA5
330
D1
100
AcDbEntity
  8
0
  6
Continuous
100
AcDbLine
 10
-30.288208
 20
137.5
 30
0.0
 11
-17.288208
 21
137.5
 31
0.0
  0
LINE
  5
1BA6
330
D1
100
AcDbEntity
  8
0
  6
Continuous
100
AcDbLine
 10
-29.42218600000001
 20
137.0
 30
0.0
 11
-30.28821199999999
 21
137.5
 31
0.0
  0
LINE
  5
1BA7
330
D1
100
AcDbEntity
  8
0
  6
Continuous
100
AcDbLine
 10
-18.15423800000002
 20
137.0
 30
0.0
 11
-17.28821199999998
 21
137.5
 31
0.0
  0
LINE
  5
1BB3
330
D1
100
AcDbEntity
  8
0
  6
Continuous
100
AcDbLine
 10
29.42230999999998
 20
137.0
 30
0.0
 11
30.28833400000002
 21
137.5
 31
0.0
  0
LINE
  5
1BB4
330
D1
100
AcDbEntity
  8
0
  6
Continuous
100
AcDbLine
 10
18.154356
 20
137.0
 30
0.0
 11
17.28833200000002
 21
137.5
 31
0.0
  0
LINE
  5
1BB5
330
D1
100
AcDbEntity
  8
0
  6
Continuous
100
AcDbLine
 10
17.28832999999997
 20
137.5
 30
0.0
 11
30.28832999999997
 21
137.5
 31
0.0
  0
LINE
  5
1BB6
330
D1
100
AcDbEntity
  8
0
  6
Continuous
100
AcDbLine
 10
17.28832999999997
 20
143.75
 30
0.0
 11
30.28832999999997
 21
143.75
 31
0.0
  0
LINE
  5
1BB7
330
D1
100
AcDbEntity
  8
0
  6
Continuous
100
AcDbLine
 10
16.08832899999999
 20
145.0
 30
0.0
 11
31.48833100000002
 21
145.0
 31
0.0
  0
LINE
  5
1BB8
330
D1
100
AcDbEntity
  8
0
  6
Continuous
100
AcDbLine
 10
-31.48820899999999
 20
145.0
 30
0.0
 11
-31.48820899999999
 21
147.0
 31
0.0
  0
LINE
  5
1BB9
330
D1
100
AcDbEntity
  8
0
  6
Continuous
100
AcDbLine
 10
-12.5
 20
143.0
 30
0.0
 11
-12.5
 21
108.0
 31
0.0
  0
LINE
  5
1BBB
330
D1
100
AcDbEntity
  8
0
  6
Continuous
100
AcDbLine
 10
-20.000002
 20
102.0
 30
0.0
 11
-19.00000199999999
 21
101.0
 31
0.0
  0
LINE
  5
1BBD
330
D1
100
AcDbEntity
  8
0
  6
Continuous
100
AcDbLine
 10
-15.0
 20
117.0
 30
0.0
 11
-15.0
 21
115.0
 31
0.0
  0
LINE
  5
1BBE
330
D1
100
AcDbEntity
  8
0
  6
Continuous
100
AcDbLine
 10
-17.5
 20
115.0
 30
0.0
 11
-12.5
 21
115.0
 31
0.0
  0
LINE
  5
1BBF
330
D1
100
AcDbEntity
  8
0
  6
Continuous
100
AcDbLine
 10
-15.0
 20
117.0
 30
0.0
 11
-12.5
 21
117.0
 31
0.0
  0
LINE
  5
1BC0
330
D1
100
AcDbEntity
  8
0
  6
Continuous
100
AcDbLine
 10
12.5
 20
115.0
 30
0.0
 11
41.0
 21
115.0
 31
0.0
  0
LINE
  5
1BC1
330
D1
100
AcDbEntity
  8
0
  6
Continuous
100
AcDbLine
 10
15.0
 20
117.0
 30
0.0
 11
15.0
 21
115.0
 31
0.0
  0
LINE
  5
1BC2
330
D1
100
AcDbEntity
  8
0
  6
Continuous
100
AcDbLine
 10
12.5
 20
117.0
 30
0.0
 11
15.0
 21
117.0
 31
0.0
  0
LINE
  5
1BC4
330
D1
100
AcDbEntity
  8
0
  6
Continuous
100
AcDbLine
 10
31.48833100000002
 20
145.0
 30
0.0
 11
31.48833100000002
 21
147.0
 31
0.0
  0
LINE
  5
1BC7
330
D1
100
AcDbEntity
  8
0
  6
Continuous
100
AcDbLine
 10
18.154356
 20
137.0
 30
0.0
 11
29.422304
 21
137.0
 31
0.0
  0
LINE
  5
1BC8
330
D1
100
AcDbEntity
  8
0
  6
Continuous
100
AcDbLine
 10
30.28832999999997
 20
137.5
 30
0.0
 11
30.28832999999997
 21
145.0
 31
0.0
  0
LINE
  5
1BC9
330
D1
100
AcDbEntity
  8
0
  6
Continuous
100
AcDbLine
 10
19.00000199999999
 20
101.0
 30
0.0
 11
20.000002
 21
102.0
 31
0.0
  0
LINE
  5
1BD0
330
D1
100
AcDbEntity
  8
0
  6
Continuous
100
AcDbLine
 10
5.654700300000001
 20
107.7
 30
0.0
 11
3.34529950000001
 21
107.7
 31
0.0
  0
LINE
  5
1BD1
330
D1
100
AcDbEntity
  8
0
  6
Continuous
100
AcDbLine
 10
6.809401499999978
 20
109.7
 30
0.0
 11
5.654700300000001
 21
107.7
 31
0.0
  0
LINE
  5
1BD2
330
D1
100
AcDbEntity
  8
0
  6
Continuous
100
AcDbLine
 10
2.19060109999998
 20
109.7
 30
0.0
 11
3.345302300000014
 21
107.7
 31
0.0
  0
LINE
  5
1BD3
330
D1
100
AcDbEntity
  8
0
  6
Continuous
100
AcDbLine
 10
-0.5
 20
109.7
 30
0.0
 11
-0.5
 21
108.0
 31
0.0
  0
LINE
  5
1BD4
330
D1
100
AcDbEntity
  8
0
  6
Continuous
100
AcDbLine
 10
9.5
 20
109.7
 30
0.0
 11
9.5
 21
108.0
 31
0.0
  0
LINE
  5
1BD5
330
D1
100
AcDbEntity
  8
0
  6
Continuous
100
AcDbLine
 10
3.345296399999995
 20
111.7
 30
0.0
 11
2.190595099999995
 21
109.7
 31
0.0
  0
LINE
  5
1BD6
330
D1
100
AcDbEntity
  8
0
  6
Continuous
100
AcDbLine
 10
5.654702699999972
 20
111.7
 30
0.0
 11
6.809403900000006
 21
109.7
 31
0.0
  0
LINE
  5
1BD8
330
D1
100
AcDbEntity
  8
0
  6
Continuous
100
AcDbLine
 10
3.34529950000001
 20
111.7
 30
0.0
 11
5.654700300000001
 21
111.7
 31
0.0
  0
LINE
  5
1BD9
330
D1
100
AcDbEntity
  8
0
  6
Continuous
100
AcDbLine
 10
-19.00000399999999
 20
113.0
 30
0.0
 11
-20.0
 21
112.0
 31
0.0
  0
LINE
  5
1BDA
330
D1
100
AcDbEntity
  8
0
  6
Continuous
100
AcDbLine
 10
-12.5
 20
113.0
 30
0.0
 11
-19.0
 21
113.0
 31
0.0
  0
LINE
  5
1BDB
330
D1
100
AcDbEntity
  8
0
  6
Continuous
100
AcDbLine
 10
19.00000399999999
 20
113.0
 30
0.0
 11
20.0
 21
112.0
 31
0.0
  0
LINE
  5
1BDD
330
D1
100
AcDbEntity
  8
0
  6
Continuous
100
AcDbLine
 10
-32.5
 20
147.0
 30
0.0
 11
32.5
 21
147.0
 31
0.0
  0
LINE
  5
1BDE
330
D1
100
AcDbEntity
  8
0
  6
Continuous
100
AcDbLine
 10
41.0
 20
113.0
 30
0.0
 11
12.5
 21
113.0
 31
0.0
  0
LINE
  5
1BDF
330
D1
100
AcDbEntity
  8
0
  6
Continuous
100
AcDbLine
 10
12.5
 20
143.0
 30
0.0
 11
12.5
 21
108.0
 31
0.0
  0
LINE
  5
1BE1
330
D1
100
AcDbEntity
  8
0
  6
Continuous
100
AcDbLine
 10
-20.0
 20
112.0
 30
0.0
 11
-20.0
 21
102.0
 31
0.0
  0
LINE
  5
1BE3
330
D1
100
AcDbEntity
  8
0
  6
Continuous
100
AcDbLine
 10
16.08832899999999
 20
145.0
 30
0.0
 11
16.08832899999999
 21
147.0
 31
0.0
  0
LINE
  5
1BE4
330
D1
100
AcDbEntity
  8
0
  6
Continuous
100
AcDbLine
 10
20.0
 20
112.0
 30
0.0
 11
20.0
 21
102.0
 31
0.0
  0
LINE
  5
1BE5
330
D1
100
AcDbEntity
  8
0
  6
Continuous
100
AcDbLine
 10
-32.5
 20
151.0
 30
0.0
 11
-32.5
 21
147.0
 31
0.0
  0
LINE
  5
1BE7
330
D1
100
AcDbEntity
  8
0
  6
Continuous
100
AcDbLine
 10
32.5
 20
151.0
 30
0.0
 11
32.5
 21
147.0
 31
0.0
  0
LINE
  5
1BE9
330
D1
100
AcDbEntity
  8
0
  6
Continuous
100
AcDbLine
 10
17.28832999999997
 20
137.5
 30
0.0
 11
17.28832999999997
 21
145.0
 31
0.0
  0
LINE
  5
1BEA
330
D1
100
AcDbEntity
  8
0
  6
Continuous
100
AcDbLine
 10
-16.08820700000001
 20
145.0
 30
0.0
 11
-16.08820700000001
 21
147.0
 31
0.0
  0
LINE
  5
1BEB
330
D1
100
AcDbEntity
  8
0
  6
Continuous
100
AcDbLine
 10
-14.75
 20
146.5968736424845
 30
0.0
 11
-14.75
 21
117.0
 31
0.0
  0
LINE
  5
1BEC
330
D1
100
AcDbEntity
  8
0
  6
Continuous
100
AcDbLine
 10
14.75
 20
146.5968736424845
 30
0.0
 11
14.75
 21
117.0
 31
0.0
  0
ARC
  5
1C5C
330
D1
100
AcDbEntity
  8
0
  6
Continuous
100
AcDbCircle
 10
-147.71021
 20
-44.69998199999998
 30
0.0
 40
0.8000000099999999
100
AcDbArc
 50
270.0
 51
339.9999699999969
  0
ARC
  5
1C5D
330
D1
100
AcDbEntity
  8
0
  6
Continuous
100
AcDbCircle
 10
0.0
 20
0.0
 30
0.0
 40
65.0
100
AcDbArc
 50
183.5281299999991
 51
266.4718799999997
  0
ARC
  5
1C5E
330
D1
100
AcDbEntity
  8
0
  6
Continuous
100
AcDbCircle
 10
-70.5
 20
-59.27449000000001
 30
0.0
 40
8.0
100
AcDbArc
 50
180.0
 51
267.9999900000004
  0
ARC
  5
1C5F
330
D1
100
AcDbEntity
  8
0
  6
Continuous
100
AcDbCircle
 10
-13.5
 20
-83.61879
 30
0.0
 40
2.0
100
AcDbArc
 50
0.0
 51
59.99996000000071
  0
ARC
  5
1C60
330
D1
100
AcDbEntity
  8
0
  6
Continuous
100
AcDbCircle
 10
-12.5
 20
-86.36526500000002
 30
0.0
 40
1.0
100
AcDbArc
 50
320.5996999999996
 51
0.0
  0
ARC
  5
1C61
330
D1
100
AcDbEntity
  8
0
  6
Continuous
100
AcDbCircle
 10
-21.5
 20
-72.99292000000003
 30
0.0
 40
4.0
100
AcDbArc
 50
0.0
 51
87.99998899999884
  0
ARC
  5
1C62
330
D1
100
AcDbEntity
  8
0
  6
Continuous
100
AcDbCircle
 10
-14.5
 20
-77.26794399999994
 30
0.0
 40
3.0
100
AcDbArc
 50
180.0
 51
239.9999999999995
  0
ARC
  5
1C67
330
D1
100
AcDbEntity
  8
0
  6
Continuous
100
AcDbCircle
 10
0.0
 20
0.0
 30
0.0
 40
65.0
100
AcDbArc
 50
93.52812300000087
 51
176.4718700000008
  0
ARC
  5
1C68
330
D1
100
AcDbEntity
  8
0
  6
Continuous
100
AcDbCircle
 10
-147.71021
 20
44.70001200000001
 30
0.0
 40
0.8000000099999999
100
AcDbArc
 50
20.00002899999847
 51
90.0
  0
ARC
  5
1C69
330
D1
100
AcDbEntity
  8
0
  6
Continuous
100
AcDbCircle
 10
-143.07446
 20
-40.14999399999999
 30
0.0
 40
2.0
100
AcDbArc
 50
90.0
 51
159.9999499999983
  0
ARC
  5
1C6C
330
D1
100
AcDbEntity
  8
0
  6
Continuous
100
AcDbCircle
 10
-143.07446
 20
40.14999399999999
 30
0.0
 40
2.0
100
AcDbArc
 50
200.0000500000016
 51
270.0
  0
ARC
  5
1C6D
330
D1
100
AcDbEntity
  8
0
  6
Continuous
100
AcDbCircle
 10
-21.0
 20
99.832672
 30
0.0
 40
2.0
100
AcDbArc
 50
318.2156600000006
 51
0.0
  0
ARC
  5
1C6E
330
D1
100
AcDbEntity
  8
0
  6
Continuous
100
AcDbCircle
 10
-14.5
 20
-90.0
 30
0.0
 40
3.0
100
AcDbArc
 50
90.0
 51
180.0
  0
ARC
  5
1C6F
330
D1
100
AcDbEntity
  8
0
  6
Continuous
100
AcDbCircle
 10
-9.5
 20
-96.0
 30
0.0
 40
8.0
100
AcDbArc
 50
180.0
 51
270.000010000001
  0
ARC
  5
1C82
330
D1
100
AcDbEntity
  8
0
  6
Continuous
100
AcDbCircle
 10
9.5
 20
-96.0
 30
0.0
 40
8.0
100
AcDbArc
 50
270.0
 51
0.0
  0
ARC
  5
1C83
330
D1
100
AcDbEntity
  8
0
  6
Continuous
100
AcDbCircle
 10
14.5
 20
-90.0
 30
0.0
 40
3.0
100
AcDbArc
 50
0.0
 51
90.0
  0
ARC
  5
1C84
330
D1
100
AcDbEntity
  8
0
  6
Continuous
100
AcDbCircle
 10
21.0
 20
99.832672
 30
0.0
 40
2.0
100
AcDbArc
 50
180.0
 51
221.7843000000014
  0
CIRCLE
  5
1C8B
330
D1
100
AcDbEntity
  8
0
  6
Continuous
100
AcDbCircle
 10
0.0
 20
0.0
 30
0.0
 40
50.25
  0
CIRCLE
  5
1C8C
330
D1
100
AcDbEntity
  8
0
  6
Continuous
100
AcDbCircle
 10
0.0
 20
0.0
 30
0.0
 40
36.149994
  0
CIRCLE
  5
1C8D
330
D1
100
AcDbEntity
  8
0
  6
Continuous
100
AcDbCircle
 10
0.0
 20
0.0
 30
0.0
 40
45.49999999999999
  0
ARC
  5
1C8E
330
D1
100
AcDbEntity
  8
0
  6
Continuous
100
AcDbCircle
 10
0.0
 20
0.0
 30
0.0
 40
65.0
100
AcDbArc
 50
3.52812909999818
 51
86.47187499999995
  0
ARC
  5
1C8F
330
D1
100
AcDbEntity
  8
0
  6
Continuous
100
AcDbCircle
 10
14.5
 20
-77.26794399999994
 30
0.0
 40
3.0
100
AcDbArc
 50
300.0000000000005
 51
0.0
  0
ARC
  5
1C90
330
D1
100
AcDbEntity
  8
0
  6
Continuous
100
AcDbCircle
 10
21.5
 20
-72.99292000000003
 30
0.0
 40
4.0
100
AcDbArc
 50
91.99998399999861
 51
180.0
  0
ARC
  5
1C91
330
D1
100
AcDbEntity
  8
0
  6
Continuous
100
AcDbCircle
 10
12.5
 20
-86.36526500000002
 30
0.0
 40
1.0
100
AcDbArc
 50
180.0
 51
219.4003000000004
  0
ARC
  5
1C92
330
D1
100
AcDbEntity
  8
0
  6
Continuous
100
AcDbCircle
 10
13.5
 20
-83.61879
 30
0.0
 40
2.0
100
AcDbArc
 50
120.0000399999993
 51
180.0
  0
ARC
  5
1C93
330
D1
100
AcDbEntity
  8
0
  6
Continuous
100
AcDbCircle
 10
70.5
 20
-59.27449000000001
 30
0.0
 40
8.0
100
AcDbArc
 50
272.0000099999996
 51
0.0
  0
ARC
  5
1C94
330
D1
100
AcDbEntity
  8
0
  6
Continuous
100
AcDbCircle
 10
0.0
 20
0.0
 30
0.0
 40
65.0
100
AcDbArc
 50
273.5281200000003
 51
356.4718700000008
  0
ARC
  5
1CA1
330
D1
100
AcDbEntity
  8
0
  6
Continuous
100
AcDbCircle
 10
78.162506
 20
73.00001499999996
 30
0.0
 40
0.5
100
AcDbArc
 50
312.4534099999979
 51
0.0
  0
ARC
  5
1CB0
330
D1
100
AcDbEntity
  8
0
  6
Continuous
100
AcDbCircle
 10
4.5
 20
109.7
 30
0.0
 40
5.0
100
AcDbArc
 50
0.0
 51
180.0
  0
CIRCLE
  5
1CB1
330
D1
100
AcDbEntity
  8
0
  6
Continuous
100
AcDbCircle
 10
4.5
 20
109.7
 30
0.0
 40
3.730384799999999
  0
CIRCLE
  5
1CB2
330
D1
100
AcDbEntity
  8
0
  6
Continuous
100
AcDbCircle
 10
4.5
 20
109.7
 30
0.0
 40
4.25
  0
ARC
  5
1CB3
330
D1
100
AcDbEntity
  8
0
  6
Continuous
100
AcDbCircle
 10
-16.5
 20
143.0
 30
0.0
 40
4.0
100
AcDbArc
 50
0.0
 51
90.0
  0
ARC
  5
1CB4
330
D1
100
AcDbEntity
  8
0
  6
Continuous
100
AcDbCircle
 10
16.5
 20
143.0
 30
0.0
 40
4.0
100
AcDbArc
 50
90.0
 51
180.0
  0
ELLIPSE
  5
1CDB
330
D1
100
AcDbEntity
  8
0
  6
Continuous
100
AcDbEllipse
 10
-13.85644500000001
 20
-90.0
 30
0.0
 11
-3.544361799999999
 21
0.0
 31
0.0
210
0.0
220
0.0
230
1.0
 40
0.7330163200000001
 41
3.1415927
 42
6.283185299999999
  0
ELLIPSE
  5
1CDC
330
D1
100
AcDbEntity
  8
0
  6
Continuous
100
AcDbEllipse
 10
13.85644500000001
 20
-96.0
 30
0.0
 11
0.0
 21
-4.663686999999999
 31
0.0
210
0.0
220
0.0
230
1.0
 40
0.75999135
 41
4.712388999999999
 42
7.853981607179585
  0
ELLIPSE
  5
1CDD
330
D1
100
AcDbEntity
  8
0
  6
Continuous
100
AcDbEllipse
 10
13.85644500000001
 20
-90.0
 30
0.0
 11
3.544361799999999
 21
0.0
 31
0.0
210
0.0
220
0.0
230
1.0
 40
0.7330163200000001
 41
0.0
 42
3.1415927
  0
ELLIPSE
  5
1CDE
330
D1
100
AcDbEntity
  8
0
  6
Continuous
100
AcDbEllipse
 10
0.0
 20
-90.0
 30
0.0
 11
7.088723599999998
 21
0.0
 31
0.0
210
0.0
220
0.0
230
1.0
 40
0.36650816
 41
0.0
 42
3.146919399999999
  0
ELLIPSE
  5
1CDF
330
D1
100
AcDbEntity
  8
0
  6
Continuous
100
AcDbEllipse
 10
0.0
 20
-96.0
 30
0.0
 11
7.0886469
 21
0.032989695
 31
0.0
210
0.0
220
0.0
230
1.0
 40
0.65790222
 41
3.134519
 42
6.276111599999999
  0
ELLIPSE
  5
1CE0
330
D1
100
AcDbEntity
  8
0
  6
Continuous
100
AcDbEllipse
 10
-13.85644500000001
 20
-96.0
 30
0.0
 11
0.0
 21
-4.663686999999999
 31
0.0
210
0.0
220
0.0
230
1.0
 40
0.75999135
 41
4.712388999999999
 42
7.853981607179585
  0
LINE
  5
1D03
330
D1
100
AcDbEntity
  8
0
  6
Continuous
100
AcDbLine
 10
100.5
 20
495.0
 30
0.0
 11
100.5
 21
625.0
 31
0.0
  0
LINE
  5
1D04
330
D1
100
AcDbEntity
  8
0
  6
Continuous
100
AcDbLine
 10
118.5
 20
598.150024
 30
0.0
 11
143.07446
 21
598.150024
 31
0.0
  0
LINE
  5
1D08
330
D1
100
AcDbEntity
  8
0
  6
Continuous
100
AcDbLine
 10
-44.97366299999998
 20
413.0416
 30
0.0
 11
-39.46604500000001
 21
415.0462
 31
0.0
  0
LINE
  5
1D09
330
D1
100
AcDbEntity
  8
0
  6
Continuous
100
AcDbLine
 10
-38.149902
 20
441.5
 30
0.0
 11
-38.149902
 21
416.9256
 31
0.0
  0
LINE
  5
1D0A
330
D1
100
AcDbEntity
  8
0
  6
Continuous
100
AcDbLine
 10
-45.49999999999999
 20
410.0
 30
0.0
 11
-45.49999999999999
 21
412.28986
 31
0.0
  0
LINE
  5
1D0B
330
D1
100
AcDbEntity
  8
0
  6
Continuous
100
AcDbLine
 10
38.149902
 20
441.5
 30
0.0
 11
38.149902
 21
416.9256
 31
0.0
  0
LINE
  5
1D0C
330
D1
100
AcDbEntity
  8
0
  6
Continuous
100
AcDbLine
 10
44.97359799999998
 20
413.0416299999999
 30
0.0
 11
39.46598399999999
 21
415.0462299999999
 31
0.0
  0
LINE
  5
1D0D
330
D1
100
AcDbEntity
  8
0
  6
Continuous
100
AcDbLine
 10
45.49999999999999
 20
410.0
 30
0.0
 11
45.49999999999999
 21
412.28986
 31
0.0
  0
LINE
  5
1D0E
330
D1
100
AcDbEntity
  8
0
  6
Continuous
100
AcDbLine
 10
-65.0
 20
441.5
 30
0.0
 11
65.0
 21
441.5
 31
0.0
  0
LINE
  5
1D0F
330
D1
100
AcDbEntity
  8
0
  6
Continuous
100
AcDbLine
 10
-45.49999999999999
 20
410.0
 30
0.0
 11
45.49999999999999
 21
410.0
 31
0.0
  0
LINE
  5
1D10
330
D1
100
AcDbEntity
  8
0
  6
Continuous
100
AcDbLine
 10
38.149902
 20
415.5251800000001
 30
0.0
 11
-37.72534200000001
 21
415.5251800000001
 31
0.0
  0
LINE
  5
1D11
330
D1
100
AcDbEntity
  8
0
  6
Continuous
100
AcDbLine
 10
44.973633
 20
412.8500100000001
 30
0.0
 11
-43.16088899999999
 21
412.8500100000001
 31
0.0
  0
LINE
  5
1D12
330
D1
100
AcDbEntity
  8
0
  6
Continuous
100
AcDbLine
 10
4.0
 20
441.5
 30
0.0
 11
4.0
 21
459.4999999999999
 31
0.0
  0
LINE
  5
1D13
330
D1
100
AcDbEntity
  8
0
  6
Continuous
100
AcDbLine
 10
-4.0
 20
441.5
 30
0.0
 11
-4.0
 21
459.4999999999999
 31
0.0
  0
LINE
  5
1D14
330
D1
100
AcDbEntity
  8
0
  6
Continuous
100
AcDbLine
 10
52.0
 20
459.4999999999999
 30
0.0
 11
52.0
 21
484.1053309999999
 31
0.0
  0
LINE
  5
1D15
330
D1
100
AcDbEntity
  8
0
  6
Continuous
100
AcDbLine
 10
-65.0
 20
441.5
 30
0.0
 11
-65.0
 21
459.4999999999999
 31
0.0
  0
LINE
  5
1D16
330
D1
100
AcDbEntity
  8
0
  6
Continuous
100
AcDbLine
 10
65.0
 20
441.5
 30
0.0
 11
65.0
 21
459.4999999999999
 31
0.0
  0
LINE
  5
1D19
330
D1
100
AcDbEntity
  8
0
  6
Continuous
100
AcDbLine
 10
-52.00000000000001
 20
459.4999999999999
 30
0.0
 11
-52.0
 21
484.1053181285045
 31
0.0
  0
LINE
  5
1D1A
330
D1
100
AcDbEntity
  8
0
  6
Continuous
100
AcDbLine
 10
-65.0
 20
459.4999999999999
 30
0.0
 11
65.0
 21
459.4999999999999
 31
0.0
  0
LINE
  5
1D1B
330
D1
100
AcDbEntity
  8
0
  6
Continuous
100
AcDbLine
 10
146.9585
 20
604.9735639999998
 30
0.0
 11
144.95387
 21
599.4658890000001
 31
0.0
  0
LINE
  5
1D1C
330
D1
100
AcDbEntity
  8
0
  6
Continuous
100
AcDbLine
 10
150.0
 20
605.4999999999999
 30
0.0
 11
147.71021
 21
605.4999999999999
 31
0.0
  0
LINE
  5
1D1D
330
D1
100
AcDbEntity
  8
0
  6
Continuous
100
AcDbLine
 10
118.5
 20
625.0
 30
0.0
 11
100.5
 21
625.0
 31
0.0
  0
LINE
  5
1D1E
330
D1
100
AcDbEntity
  8
0
  6
Continuous
100
AcDbLine
 10
150.0
 20
514.5
 30
0.0
 11
147.71021
 21
514.5
 31
0.0
  0
LINE
  5
1D1F
330
D1
100
AcDbEntity
  8
0
  6
Continuous
100
AcDbLine
 10
100.5
 20
612.0
 30
0.0
 11
75.89464580853906
 21
612.0
 31
0.0
  0
LINE
  5
1D20
330
D1
100
AcDbEntity
  8
0
  6
Continuous
100
AcDbLine
 10
100.5
 20
507.9999999999999
 30
0.0
 11
75.89466099999999
 21
508.0
 31
0.0
  0
LINE
  5
1D21
330
D1
100
AcDbEntity
  8
0
  6
Continuous
100
AcDbLine
 10
118.5
 20
556.0
 30
0.0
 11
100.5
 21
556.0
 31
0.0
  0
LINE
  5
1D22
330
D1
100
AcDbEntity
  8
0
  6
Continuous
100
AcDbLine
 10
-146.9584499999999
 20
604.973621
 30
0.0
 11
-144.9538
 21
599.4658890000001
 31
0.0
  0
LINE
  5
1D23
330
D1
100
AcDbEntity
  8
0
  6
Continuous
100
AcDbLine
 10
146.9584
 20
515.026409
 30
0.0
 11
144.9538
 21
520.5340269999999
 31
0.0
  0
LINE
  5
1D24
330
D1
100
AcDbEntity
  8
0
  6
Continuous
100
AcDbLine
 10
-118.5
 20
598.150024
 30
0.0
 11
-143.07446
 21
598.150024
 31
0.0
  0
LINE
  5
1D25
330
D1
100
AcDbEntity
  8
0
  6
Continuous
100
AcDbLine
 10
-150.0
 20
605.4999999999999
 30
0.0
 11
-147.71021
 21
605.4999999999999
 31
0.0
  0
LINE
  5
1D26
330
D1
100
AcDbEntity
  8
0
  6
Continuous
100
AcDbLine
 10
-118.5
 20
521.8499759999998
 30
0.0
 11
-143.07446
 21
521.8499759999999
 31
0.0
  0
LINE
  5
1D27
330
D1
100
AcDbEntity
  8
0
  6
Continuous
100
AcDbLine
 10
-146.9583599999999
 20
515.0263520000001
 30
0.0
 11
-144.9537199999999
 21
520.5340269999999
 31
0.0
  0
LINE
  5
1D28
330
D1
100
AcDbEntity
  8
0
  6
Continuous
100
AcDbLine
 10
-150.0
 20
514.5
 30
0.0
 11
-147.71021
 21
514.5
 31
0.0
  0
LINE
  5
1D2B
330
D1
100
AcDbEntity
  8
0
  6
Continuous
100
AcDbLine
 10
-144.47485
 20
521.8499759999999
 30
0.0
 11
-144.47485
 21
598.150024
 31
0.0
  0
LINE
  5
1D2C
330
D1
100
AcDbEntity
  8
0
  6
Continuous
100
AcDbLine
 10
-147.1499
 20
515.0263669999999
 30
0.0
 11
-147.1499
 21
604.973621
 31
0.0
  0
LINE
  5
1D2E
330
D1
100
AcDbEntity
  8
0
  6
Continuous
100
AcDbLine
 10
118.5
 20
495.0
 30
0.0
 11
118.5
 21
625.0
 31
0.0
  0
LINE
  5
1D2F
330
D1
100
AcDbEntity
  8
0
  6
Continuous
100
AcDbLine
 10
150.0
 20
605.4999999999999
 30
0.0
 11
150.0
 21
514.5
 31
0.0
  0
LINE
  5
1D30
330
D1
100
AcDbEntity
  8
0
  6
Continuous
100
AcDbLine
 10
118.5
 20
521.8499760000001
 30
0.0
 11
143.07446
 21
521.8499759999999
 31
0.0
  0
LINE
  5
1D32
330
D1
100
AcDbEntity
  8
0
  6
Continuous
100
AcDbLine
 10
118.5
 20
495.0
 30
0.0
 11
100.5
 21
495.0
 31
0.0
  0
LINE
  5
1D34
330
D1
100
AcDbEntity
  8
0
  6
Continuous
100
AcDbLine
 10
-118.5
 20
625.0
 30
0.0
 11
-100.5
 21
625.0
 31
0.0
  0
LINE
  5
1D35
330
D1
100
AcDbEntity
  8
0
  6
Continuous
100
AcDbLine
 10
-118.5
 20
495.0
 30
0.0
 11
-100.5
 21
495.0
 31
0.0
  0
LINE
  5
1D37
330
D1
100
AcDbEntity
  8
0
  6
Continuous
100
AcDbLine
 10
-100.5
 20
612.0
 30
0.0
 11
-75.89466099999999
 21
612.0
 31
0.0
  0
LINE
  5
1D38
330
D1
100
AcDbEntity
  8
0
  6
Continuous
100
AcDbLine
 10
118.5
 20
564.0
 30
0.0
 11
100.5
 21
564.0
 31
0.0
  0
LINE
  5
1D3A
330
D1
100
AcDbEntity
  8
0
  6
Continuous
100
AcDbLine
 10
147.1499
 20
604.9735720000001
 30
0.0
 11
147.1499
 21
515.0264279999999
 31
0.0
  0
LINE
  5
1D3B
330
D1
100
AcDbEntity
  8
0
  6
Continuous
100
AcDbLine
 10
144.47485
 20
598.150024
 30
0.0
 11
144.47485
 21
521.8499759999999
 31
0.0
  0
LINE
  5
1D3C
330
D1
100
AcDbEntity
  8
0
  6
Continuous
100
AcDbLine
 10
-150.0
 20
605.4999999999999
 30
0.0
 11
-150.0
 21
514.5
 31
0.0
  0
LINE
  5
1D3D
330
D1
100
AcDbEntity
  8
0
  6
Continuous
100
AcDbLine
 10
-118.5
 20
625.0
 30
0.0
 11
-118.5
 21
495.0
 31
0.0
  0
LINE
  5
1D3E
330
D1
100
AcDbEntity
  8
0
  6
Continuous
100
AcDbLine
 10
-100.5
 20
625.0
 30
0.0
 11
-100.5
 21
495.0
 31
0.0
  0
ARC
  5
1DBB
330
D1
100
AcDbEntity
  8
0
  6
Continuous
100
AcDbCircle
 10
-40.14990199999999
 20
416.9256
 30
0.0
 40
2.0
100
AcDbArc
 50
290.0000500000016
 51
0.0
  0
ARC
  5
1DBD
330
D1
100
AcDbEntity
  8
0
  6
Continuous
100
AcDbCircle
 10
-44.699951
 20
412.28986
 30
0.0
 40
0.8000000099999999
100
AcDbArc
 50
110.00003
 51
180.0
  0
ARC
  5
1DBE
330
D1
100
AcDbEntity
  8
0
  6
Continuous
100
AcDbCircle
 10
44.699951
 20
412.28986
 30
0.0
 40
0.8000000099999999
100
AcDbArc
 50
0.0
 51
69.99997100000264
  0
ARC
  5
1DC0
330
D1
100
AcDbEntity
  8
0
  6
Continuous
100
AcDbCircle
 10
40.14990199999999
 20
416.9256
 30
0.0
 40
2.0
100
AcDbArc
 50
180.0
 51
249.9999499999983
  0
ARC
  5
1DC6
330
D1
100
AcDbEntity
  8
0
  6
Continuous
100
AcDbCircle
 10
-143.07446
 20
600.150024
 30
0.0
 40
2.0
100
AcDbArc
 50
200.0000500000016
 51
270.0
  0
ARC
  5
1DC8
330
D1
100
AcDbEntity
  8
0
  6
Continuous
100
AcDbCircle
 10
-147.71021
 20
604.7000119999999
 30
0.0
 40
0.8000000099999999
100
AcDbArc
 50
20.00002900000571
 51
90.0
  0
ARC
  5
1DC9
330
D1
100
AcDbEntity
  8
0
  6
Continuous
100
AcDbCircle
 10
-147.71021
 20
515.3000489999999
 30
0.0
 40
0.8000000099999999
100
AcDbArc
 50
270.0
 51
339.9999699999969
  0
ARC
  5
1DCA
330
D1
100
AcDbEntity
  8
0
  6
Continuous
100
AcDbCircle
 10
-143.07446
 20
519.8499759999999
 30
0.0
 40
2.0
100
AcDbArc
 50
90.0
 51
159.9999499999983
  0
ARC
  5
1DCC
330
D1
100
AcDbEntity
  8
0
  6
Continuous
100
AcDbCircle
 10
147.71021
 20
604.7000119999999
 30
0.0
 40
0.8000000099999999
100
AcDbArc
 50
90.0
 51
159.9999699999968
  0
ARC
  5
1DCD
330
D1
100
AcDbEntity
  8
0
  6
Continuous
100
AcDbCircle
 10
143.07446
 20
600.150024
 30
0.0
 40
2.0
100
AcDbArc
 50
270.0
 51
339.9999499999984
  0
ARC
  5
1DD3
330
D1
100
AcDbEntity
  8
0
  6
Continuous
100
AcDbCircle
 10
143.07446
 20
519.8499759999999
 30
0.0
 40
2.0
100
AcDbArc
 50
20.000052999995
 51
90.0
  0
LINE
  5
1E22
330
D1
100
AcDbEntity
  8
0
  6
CENTER
100
AcDbLine
 10
400.0
 20
-113.1610268466647
 30
0.0
 11
400.0
 21
356.9638583417482
 31
0.0
  0
LINE
  5
1E23
330
D1
100
AcDbEntity
  8
0
  6
CENTER
100
AcDbLine
 10
231.2655331828573
 20
0.0
 30
0.0
 11
496.5929168355142
 21
0.0
 31
0.0
  0
LINE
  5
1E24
330
D1
100
AcDbEntity
  8
0
  6
CENTER
100
AcDbLine
 10
0.0
 20
-111.4071575888038
 30
0.0
 11
0.0
 21
359.8274453790236
 31
0.0
  0
LINE
  5
1E25
330
D1
100
AcDbEntity
  8
0
  6
CENTER
100
AcDbLine
 10
-173.6254748990559
 20
0.0
 30
0.0
 11
173.6254748990559
 21
0.0
 31
0.0
  0
LINE
  5
1E26
330
D1
100
AcDbEntity
  8
0
  6
CENTER
100
AcDbLine
 10
0.0
 20
389.9473068132857
 30
0.0
 11
0.0
 21
663.4509265908309
 31
0.0
  0
LINE
  5
1E27
330
D1
100
AcDbEntity
  8
0
  6
CENTER
100
AcDbLine
 10
-168.6226256839536
 20
560.0
 30
0.0
 11
168.6226256839536
 21
560.0
 31
0.0
  0
TEXT
  5
1E28
330
D1
100
AcDbEntity
  8
0
100
AcDbText
 10
-333.3333333333333
 20
709.1666666666666
 30
0.0
 40
50.0
  1
3BA__V08000 3S
 72
     4
 11
0.0
 21
730.0
 31
0.0
100
AcDbText
  0
ARC
  5
1E29
330
D1
100
AcDbEntity
  8
0
  6
Continuous
100
AcDbCircle
 10
147.71021
 20
515.299988
 30
0.0
 40
0.8000000099999999
100
AcDbArc
 50
200.0000300000032
 51
270.0
  0
LINE
  5
1E2A
330
D1
100
AcDbEntity
  8
0
  6
Continuous
100
AcDbLine
 10
-118.5
 20
556.0
 30
0.0
 11
-100.5
 21
556.0
 31
0.0
  0
LINE
  5
1E2B
330
D1
100
AcDbEntity
  8
0
  6
Continuous
100
AcDbLine
 10
-118.5
 20
564.0
 30
0.0
 11
-100.5
 21
564.0
 31
0.0
  0
LINE
  5
1E2C
330
D1
100
AcDbEntity
  8
0
  6
Continuous
100
AcDbLine
 10
-100.5
 20
508.0
 30
0.0
 11
-75.89466099999999
 21
508.0
 31
0.0
  0
LINE
  5
1E2D
330
D1
100
AcDbEntity
  8
0
  6
Continuous
100
AcDbLine
 10
118.5
 20
38.14999399999999
 30
0.0
 11
143.07446
 21
38.14999399999999
 31
0.0
  0
LINE
  5
1E2E
330
D1
100
AcDbEntity
  8
0
  6
Continuous
100
AcDbLine
 10
118.5
 20
65.0
 30
0.0
 11
100.5
 21
65.0
 31
0.0
  0
LINE
  5
1E2F
330
D1
100
AcDbEntity
  8
0
  6
Continuous
100
AcDbLine
 10
150.0
 20
45.49999999999999
 30
0.0
 11
147.71021
 21
45.49999999999999
 31
0.0
  0
LINE
  5
1E30
330
D1
100
AcDbEntity
  8
0
  6
Continuous
100
AcDbLine
 10
100.5
 20
-51.99998500000003
 30
0.0
 11
78.5
 21
-51.99998500000004
 31
0.0
  0
LINE
  5
1E31
330
D1
100
AcDbEntity
  8
0
  6
Continuous
100
AcDbLine
 10
118.5
 20
4.0
 30
0.0
 11
100.5
 21
4.0
 31
0.0
  0
LINE
  5
1E32
330
D1
100
AcDbEntity
  8
0
  6
Continuous
100
AcDbLine
 10
118.5
 20
-38.14999399999999
 30
0.0
 11
143.07446
 21
-38.14999399999999
 31
0.0
  0
LINE
  5
1E33
330
D1
100
AcDbEntity
  8
0
  6
Continuous
100
AcDbLine
 10
118.5
 20
-4.0
 30
0.0
 11
100.5
 21
-4.0
 31
0.0
  0
LINE
  5
1E34
330
D1
100
AcDbEntity
  8
0
  6
Continuous
100
AcDbLine
 10
147.1499
 20
-44.97362499999996
 30
0.0
 11
147.1499
 21
43.16094999999996
 31
0.0
  0
LINE
  5
1E35
330
D1
100
AcDbEntity
  8
0
  6
Continuous
100
AcDbLine
 10
100.5
 20
52.0
 30
0.0
 11
78.5
 21
52.00000000000001
 31
0.0
  0
LINE
  5
1E36
330
D1
100
AcDbEntity
  8
0
  6
Continuous
100
AcDbLine
 10
100.5
 20
65.0
 30
0.0
 11
100.5
 21
-65.0
 31
0.0
  0
LINE
  5
1E37
330
D1
100
AcDbEntity
  8
0
  6
Continuous
100
AcDbLine
 10
146.95831
 20
44.97364000000004
 30
0.0
 11
144.9537
 21
39.46602199999995
 31
0.0
  0
LINE
  5
1E38
330
D1
100
AcDbEntity
  8
0
  6
Continuous
100
AcDbLine
 10
144.47485
 20
-38.14999399999999
 30
0.0
 11
144.47485
 21
37.72537199999999
 31
0.0
  0
LINE
  5
1E39
330
D1
100
AcDbEntity
  8
0
  6
Continuous
100
AcDbLine
 10
150.0
 20
45.49999999999999
 30
0.0
 11
150.0
 21
-45.49999999999999
 31
0.0
  0
LINE
  5
1E3A
330
D1
100
AcDbEntity
  8
0
  6
Continuous
100
AcDbLine
 10
118.5
 20
-65.0
 30
0.0
 11
100.5
 21
-65.0
 31
0.0
  0
LINE
  5
1E3B
330
D1
100
AcDbEntity
  8
0
  6
Continuous
100
AcDbLine
 10
118.5
 20
65.0
 30
0.0
 11
118.5
 21
-65.0
 31
0.0
  0
LINE
  5
1E3C
330
D1
100
AcDbEntity
  8
0
  6
Continuous
100
AcDbLine
 10
150.0
 20
-45.49999999999999
 30
0.0
 11
147.71021
 21
-45.49999999999999
 31
0.0
  0
LINE
  5
1E3D
330
D1
100
AcDbEntity
  8
0
  6
Continuous
100
AcDbLine
 10
146.95824
 20
-44.97365999999999
 30
0.0
 11
144.9536
 21
-39.46598400000005
 31
0.0
  0
ARC
  5
1E3E
330
D1
100
AcDbEntity
  8
0
  6
Continuous
100
AcDbCircle
 10
147.71021
 20
-44.69998199999998
 30
0.0
 40
0.8000000099999999
100
AcDbArc
 50
200.0000300000031
 51
270.0
  0
ARC
  5
1E3F
330
D1
100
AcDbEntity
  8
0
  6
Continuous
100
AcDbCircle
 10
147.71021
 20
44.70001200000001
 30
0.0
 40
0.8000000099999999
100
AcDbArc
 50
90.0
 51
159.9999710000015
  0
ARC
  5
1E40
330
D1
100
AcDbEntity
  8
0
  6
Continuous
100
AcDbCircle
 10
143.07446
 20
-40.14999399999999
 30
0.0
 40
2.0
100
AcDbArc
 50
20.00005000000163
 51
90.0
  0
ARC
  5
1E41
330
D1
100
AcDbEntity
  8
0
  6
Continuous
100
AcDbCircle
 10
143.07446
 20
40.14999399999999
 30
0.0
 40
2.0
100
AcDbArc
 50
270.0
 51
339.9999499999984
  0
LINE
  5
1E42
330
D1
100
AcDbEntity
  8
0
  6
Continuous
100
AcDbLine
 10
-92.0
 20
98.50001499999997
 30
0.0
 11
-92.0
 21
73.50001499999996
 31
0.0
  0
LINE
  5
1E46
330
D1
100
AcDbEntity
  8
0
  6
Continuous
100
AcDbLine
 10
307.9999892870666
 20
98.50000000000001
 30
0.0
 11
307.9999892870666
 21
73.5
 31
0.0
  0
LINE
  5
1E47
330
D1
100
AcDbEntity
  8
0
  6
Continuous
100
AcDbLine
 10
492.0000107129334
 20
98.50000000000001
 30
0.0
 11
492.0000107129334
 21
73.5
 31
0.0
  0
LINE
  5
2747
330
D1
100
AcDbEntity
  8
0
100
AcDbLine
 10
28.80941772460938
 20
563.9999389648437
 30
0.0
 11
24.19058227539063
 21
563.9999389648437
 31
0.0
  0
LINE
  5
2748
330
D1
100
AcDbEntity
  8
0
100
AcDbLine
 10
-24.19061986062331
 20
555.9998626985145
 30
0.0
 11
-21.88120210492639
 21
559.9998915154897
 31
0.0
  0
LINE
  5
2749
330
D1
100
AcDbEntity
  8
0
100
AcDbLine
 10
-28.80941772460938
 20
555.9998779296875
 30
0.0
 11
-24.19058227539063
 21
555.9998779296875
 31
0.0
  0
LINE
  5
274A
330
D1
100
AcDbEntity
  8
0
100
AcDbLine
 10
28.80941772460938
 20
555.9998779296875
 30
0.0
 11
24.19058227539063
 21
555.9998779296875
 31
0.0
  0
LINE
  5
274B
330
D1
100
AcDbEntity
  8
0
100
AcDbLine
 10
31.11878507160941
 20
559.9998632685504
 30
0.0
 11
28.8093673159126
 21
555.9998344515752
 31
0.0
  0
LINE
  5
274C
330
D1
100
AcDbEntity
  8
0
100
AcDbLine
 10
21.88116081309954
 20
559.9998364127684
 30
0.0
 11
24.19057856879636
 21
563.9998652297435
 31
0.0
  0
LINE
  5
274D
330
D1
100
AcDbEntity
  8
0
100
AcDbLine
 10
31.11881981740771
 20
559.9999238779655
 30
0.0
 11
28.8094020617109
 21
563.9999526949407
 31
0.0
  0
LINE
  5
274E
330
D1
100
AcDbEntity
  8
0
100
AcDbLine
 10
-21.88128196384832
 20
559.9998118446269
 30
0.0
 11
-24.19069971954514
 21
563.9998406616021
 31
0.0
  0
LINE
  5
274F
330
D1
100
AcDbEntity
  8
0
100
AcDbLine
 10
-28.80941772460938
 20
563.9999389648437
 30
0.0
 11
-24.19058227539063
 21
563.9999389648437
 31
0.0
  0
LINE
  5
2750
330
D1
100
AcDbEntity
  8
0
100
AcDbLine
 10
24.19056376022388
 20
555.9998933065424
 30
0.0
 11
21.88114600452696
 21
559.9999221235175
 31
0.0
  0
CIRCLE
  5
2751
330
D1
100
AcDbEntity
  8
0
100
AcDbCircle
 10
0.0
 20
560.0
 30
0.0
 40
45.5999755859375
  0
CIRCLE
  5
2752
330
D1
100
AcDbEntity
  8
0
100
AcDbCircle
 10
0.0
 20
560.0
 30
0.0
 40
44.54998779296874
  0
CIRCLE
  5
2753
330
D1
100
AcDbEntity
  8
0
100
AcDbCircle
 10
0.0
 20
560.0
 30
0.0
 40
12.0
  0
CIRCLE
  5
2754
330
D1
100
AcDbEntity
  8
0
100
AcDbCircle
 10
0.0
 20
560.0
 30
0.0
 40
7.75
  0
CIRCLE
  5
2755
330
D1
100
AcDbEntity
  8
0
100
AcDbCircle
 10
21.21318054199219
 20
581.2132263183594
 30
0.0
 40
3.0
  0
CIRCLE
  5
2756
330
D1
100
AcDbEntity
  8
0
100
AcDbCircle
 10
-21.21318817138672
 20
581.2132263183594
 30
0.0
 40
3.0
  0
CIRCLE
  5
2757
330
D1
100
AcDbEntity
  8
0
100
AcDbCircle
 10
21.21318054199219
 20
538.7867736816406
 30
0.0
 40
3.0
  0
CIRCLE
  5
2758
330
D1
100
AcDbEntity
  8
0
100
AcDbCircle
 10
-21.21318817138672
 20
581.2132263183594
 30
0.0
 40
2.599999904632568
  0
CIRCLE
  5
2759
330
D1
100
AcDbEntity
  8
0
100
AcDbCircle
 10
21.21318054199219
 20
581.2132263183594
 30
0.0
 40
2.599999904632568
  0
CIRCLE
  5
275A
330
D1
100
AcDbEntity
  8
0
100
AcDbCircle
 10
-21.21318817138672
 20
538.7868041992187
 30
0.0
 40
3.0
  0
CIRCLE
  5
275B
330
D1
100
AcDbEntity
  8
0
100
AcDbCircle
 10
-21.21318817138672
 20
538.7868041992187
 30
0.0
 40
2.599999904632568
  0
CIRCLE
  5
275C
330
D1
100
AcDbEntity
  8
0
100
AcDbCircle
 10
21.21318054199219
 20
538.7867736816406
 30
0.0
 40
2.599999904632568
  0
CIRCLE
  5
275D
330
D1
100
AcDbEntity
  8
0
100
AcDbCircle
 10
26.5
 20
560.0
 30
0.0
 40
4.0
  0
CIRCLE
  5
275E
330
D1
100
AcDbEntity
  8
0
100
AcDbCircle
 10
-26.5
 20
560.0
 30
0.0
 40
4.0
  0
CIRCLE
  5
275F
330
D1
100
AcDbEntity
  8
0
100
AcDbCircle
 10
26.5
 20
560.0
 30
0.0
 40
2.0
  0
CIRCLE
  5
2760
330
D1
100
AcDbEntity
  8
0
100
AcDbCircle
 10
-26.5
 20
560.0
 30
0.0
 40
2.0
  0
CIRCLE
  5
2761
330
D1
100
AcDbEntity
  8
0
100
AcDbCircle
 10
-26.5
 20
560.0
 30
0.0
 40
2.5
  0
CIRCLE
  5
2762
330
D1
100
AcDbEntity
  8
0
100
AcDbCircle
 10
26.5
 20
560.0
 30
0.0
 40
2.5
  0
CIRCLE
  5
2763
330
D1
100
AcDbEntity
  8
0
100
AcDbCircle
 10
26.5
 20
560.0
 30
0.0
 40
5.0
  0
LINE
  5
2764
330
D1
100
AcDbEntity
  8
0
100
AcDbLine
 10
-31.11878507160941
 20
559.9998632685504
 30
0.0
 11
-28.8093673159126
 21
555.9998344515752
 31
0.0
  0
LINE
  5
2765
330
D1
100
AcDbEntity
  8
0
100
AcDbLine
 10
-31.11881981740771
 20
559.9999238779655
 30
0.0
 11
-28.8094020617109
 21
563.9999526949407
 31
0.0
  0
CIRCLE
  5
27DA
330
D1
100
AcDbEntity
  8
0
  6
Continuous
100
AcDbCircle
 10
0.0
 20
560.0
 30
0.0
 40
74.25
  0
CIRCLE
  5
27DB
330
D1
100
AcDbEntity
  8
0
  6
Continuous
100
AcDbCircle
 10
-0.0000107129339995
 20
559.99998931262
 30
0.0
 40
80.0
  0
CIRCLE
  5
27DC
330
D1
100
AcDbEntity
  8
0
  6
Continuous
100
AcDbCircle
 10
-0.0000107129339995
 20
559.99998931262
 30
0.0
 40
92.0
  0
LINE
  5
27E5
330
D1
100
AcDbEntity
  8
0
100
AcDbLine
 10
44.54998779296852
 20
194.6543884277339
 30
0.0
 11
-44.54998779296897
 21
194.6543884277338
 31
0.0
  0
LINE
  5
27E6
330
D1
100
AcDbEntity
  8
0
100
AcDbLine
 10
44.60003662109374
 20
151.0
 30
0.0
 11
-44.60003662109374
 21
151.0
 31
0.0
  0
LINE
  5
27E7
330
D1
100
AcDbEntity
  8
0
100
AcDbLine
 10
44.54998779296874
 20
318.9
 30
0.0
 11
44.54998779296874
 21
194.6543884277343
 31
0.0
  0
LINE
  5
27E8
330
D1
100
AcDbEntity
  8
0
100
AcDbLine
 10
45.60003662109375
 20
152.0
 30
0.0
 11
45.60003662109375
 21
182.65283203125
 31
0.0
  0
LINE
  5
27EC
330
D1
100
AcDbEntity
  8
0
100
AcDbLine
 10
-43.54998779296898
 20
319.8999999999994
 30
0.0
 11
43.54998779296852
 21
319.8999999999995
 31
0.0
  0
LINE
  5
27ED
330
D1
100
AcDbEntity
  8
0
100
AcDbLine
 10
-44.54998779296874
 20
318.9
 30
0.0
 11
-44.54998779296874
 21
194.6543884277343
 31
0.0
  0
LINE
  5
27EE
330
D1
100
AcDbEntity
  8
0
100
AcDbLine
 10
-44.54996785383719
 20
194.6543759615856
 30
0.0
 11
-45.59996740550537
 21
182.6528261331035
 31
0.0
  0
LINE
  5
27EF
330
D1
100
AcDbEntity
  8
0
100
AcDbLine
 10
-45.60003662109375
 20
152.0
 30
0.0
 11
-45.60003662109375
 21
182.65283203125
 31
0.0
  0
LINE
  5
27F1
330
D1
100
AcDbEntity
  8
0
100
AcDbLine
 10
-45.60003662109375
 20
182.65283203125
 30
0.0
 11
45.60003662109375
 21
182.65283203125
 31
0.0
  0
LINE
  5
27F2
330
D1
100
AcDbEntity
  8
0
100
AcDbLine
 10
44.54996467142336
 20
194.6543818738254
 30
0.0
 11
45.59996555298266
 21
182.6528168446185
 31
0.0
  0
ARC
  5
27F8
330
D1
100
AcDbEntity
  8
0
100
AcDbCircle
 10
43.54998779296875
 20
318.9
 30
0.0
 40
1.0
100
AcDbArc
 50
0.0
 51
90.00000250446868
  0
ARC
  5
27F9
330
D1
100
AcDbEntity
  8
0
100
AcDbCircle
 10
44.60003662109374
 20
152.0
 30
0.0
 40
1.000000119209289
100
AcDbArc
 50
269.9999974955182
 51
0.0
  0
ARC
  5
27FA
330
D1
100
AcDbEntity
  8
0
100
AcDbCircle
 10
-43.54998779296875
 20
318.9
 30
0.0
 40
1.0
100
AcDbArc
 50
90.00000250446868
 51
180.0000050089569
  0
ARC
  5
27FB
330
D1
100
AcDbEntity
  8
0
100
AcDbCircle
 10
-44.60003662109374
 20
152.0
 30
0.0
 40
1.000000119209289
100
AcDbArc
 50
179.9999913485786
 51
270.000000683243
  0
LINE
  5
2805
330
D1
100
AcDbEntity
  8
0
  6
Continuous
100
AcDbLine
 10
367.5
 20
151.0
 30
0.0
 11
432.5
 21
151.0
 31
0.0
  0
LINE
  5
2807
330
D1
100
AcDbEntity
  8
0
100
AcDbLine
 10
355.450012207031
 20
318.8999999999997
 30
0.0
 11
355.450012207031
 21
194.6543731689451
 31
0.0
  0
LINE
  5
2808
330
D1
100
AcDbEntity
  8
0
100
AcDbLine
 10
355.4500148119748
 20
194.6543759976539
 30
0.0
 11
354.4000139304155
 21
182.6528109684471
 31
0.0
  0
LINE
  5
2809
330
D1
100
AcDbEntity
  8
0
100
AcDbLine
 10
444.6000366210937
 20
151.0
 30
0.0
 11
355.3999633789063
 21
151.0
 31
0.0
  0
LINE
  5
280A
330
D1
100
AcDbEntity
  8
0
100
AcDbLine
 10
354.3999633789062
 20
152.0
 30
0.0
 11
354.3999633789062
 21
182.6528167724609
 31
0.0
  0
LINE
  5
2812
330
D1
100
AcDbEntity
  8
0
100
AcDbLine
 10
356.4500122070308
 20
319.8999999999998
 30
0.0
 11
443.5500488281245
 21
319.8999999999998
 31
0.0
  0
LINE
  5
2820
330
D1
100
AcDbEntity
  8
0
100
AcDbLine
 10
354.3999633789062
 20
182.6528167724609
 30
0.0
 11
445.6000366210937
 21
182.6528167724609
 31
0.0
  0
LINE
  5
2821
330
D1
100
AcDbEntity
  8
0
100
AcDbLine
 10
444.5500488281247
 20
194.6543731689451
 30
0.0
 11
355.450012207031
 21
194.654373168945
 31
0.0
  0
LINE
  5
2826
330
D1
100
AcDbEntity
  8
0
100
AcDbLine
 10
444.5500246707502
 20
194.6543732864878
 30
0.0
 11
445.6000255523097
 21
182.6528082572809
 31
0.0
  0
LINE
  5
2827
330
D1
100
AcDbEntity
  8
0
100
AcDbLine
 10
444.5500488281252
 20
318.9000000000002
 30
0.0
 11
444.5500488281252
 21
194.6543731689456
 31
0.0
  0
LINE
  5
2828
330
D1
100
AcDbEntity
  8
0
100
AcDbLine
 10
445.6000366210937
 20
152.0
 30
0.0
 11
445.6000366210937
 21
182.6528167724609
 31
0.0
  0
ARC
  5
2836
330
D1
100
AcDbEntity
  8
0
100
AcDbCircle
 10
356.4500122070313
 20
318.9
 30
0.0
 40
1.0
100
AcDbArc
 50
90.00000250446868
 51
180.0000050089569
  0
ARC
  5
2837
330
D1
100
AcDbEntity
  8
0
100
AcDbCircle
 10
355.3999633789063
 20
152.0
 30
0.0
 40
1.000000119209289
100
AcDbArc
 50
179.9999913485786
 51
270.000000683243
  0
ARC
  5
2838
330
D1
100
AcDbEntity
  8
0
100
AcDbCircle
 10
444.6000366210937
 20
152.0
 30
0.0
 40
1.000000119209289
100
AcDbArc
 50
269.9999974955182
 51
0.0
  0
ARC
  5
2839
330
D1
100
AcDbEntity
  8
0
100
AcDbCircle
 10
443.550048828125
 20
318.9
 30
0.0
 40
1.0
100
AcDbArc
 50
0.0
 51
90.00000250446868
  0
LINE
  5
2844
330
D1
100
AcDbEntity
  8
0
  6
Continuous
100
AcDbLine
 10
421.299999
 20
108.9102618321369
 30
0.0
 11
421.299999
 21
105.1
 31
0.0
  0
LINE
  5
2845
330
D1
100
AcDbEntity
  8
0
  6
Continuous
100
AcDbLine
 10
426.2999989999999
 20
113.43039
 30
0.0
 11
426.2999989999999
 21
105.9696199999999
 31
0.0
  0
LINE
  5
2846
330
D1
100
AcDbEntity
  8
0
  6
Continuous
100
AcDbLine
 10
426.0
 20
105.45
 30
0.0
 11
421.299999
 21
105.45
 31
0.0
  0
LINE
  5
2847
330
D1
100
AcDbEntity
  8
0
  6
Continuous
100
AcDbLine
 10
421.299999
 20
105.1
 30
0.0
 11
420.0
 21
105.1
 31
0.0
  0
LINE
  5
2848
330
D1
100
AcDbEntity
  8
0
  6
Continuous
100
AcDbLine
 10
422.0
 20
109.4004088530108
 30
0.0
 11
422.0
 21
105.45
 31
0.0
  0
LINE
  5
2849
330
D1
100
AcDbEntity
  8
0
  6
Continuous
100
AcDbLine
 10
426.0
 20
112.9617228144669
 30
0.0
 11
426.0
 21
105.45
 31
0.0
  0
LINE
  5
284A
330
D1
100
AcDbEntity
  8
0
  6
Continuous
100
AcDbLine
 10
426.0000019999999
 20
105.45
 30
0.0
 11
426.3000009999999
 21
105.96961
 31
0.0
  0
LINE
  5
284B
330
D1
100
AcDbEntity
  8
0
  6
Continuous
100
AcDbLine
 10
426.2999989999999
 20
113.43039
 30
0.0
 11
426.2953036597413
 21
113.4385225129478
 31
0.0
  0
LINE
  5
295F
330
D1
100
AcDbEntity
  8
0
100
AcDbLine
 10
28.59997558593796
 20
327.9000305175781
 30
0.0
 11
24.39996337890671
 21
327.9000305175781
 31
0.0
  0
LINE
  5
2960
330
D1
100
AcDbEntity
  8
0
100
AcDbLine
 10
-31.1188354492183
 20
324.5356201171875
 30
0.0
 11
-31.1188354492183
 21
320.9000305175781
 31
0.0
  0
LINE
  5
2961
330
D1
100
AcDbEntity
  8
0
100
AcDbLine
 10
-24.19064331054642
 20
324.5356201171875
 30
0.0
 11
-24.19064331054642
 21
320.9000305175781
 31
0.0
  0
LINE
  5
2962
330
D1
100
AcDbEntity
  8
0
100
AcDbLine
 10
21.49996948242233
 20
320.9000305175781
 30
0.0
 11
21.49996948242233
 21
319.9000305175781
 31
0.0
  0
LINE
  5
2963
330
D1
100
AcDbEntity
  8
0
100
AcDbLine
 10
31.49996948242233
 20
319.9000305175781
 30
0.0
 11
31.49996948242233
 21
320.9000305175781
 31
0.0
  0
LINE
  5
2964
330
D1
100
AcDbEntity
  8
0
100
AcDbLine
 10
31.49996948242233
 20
320.9000305175781
 30
0.0
 11
21.49996948242233
 21
320.9000305175781
 31
0.0
  0
LINE
  5
2965
330
D1
100
AcDbEntity
  8
0
100
AcDbLine
 10
-24.00003051757767
 20
327.5000366210937
 30
0.0
 11
-24.00003051757767
 21
324.9000305175781
 31
0.0
  0
LINE
  5
2966
330
D1
100
AcDbEntity
  8
0
100
AcDbLine
 10
-24.40001900972447
 20
327.9000036809166
 30
0.0
 11
-24.00002720991756
 21
327.5000118811097
 31
0.0
  0
LINE
  5
2967
330
D1
100
AcDbEntity
  8
0
100
AcDbLine
 10
-29.00003051757767
 20
327.5000366210937
 30
0.0
 11
-29.00003051757767
 21
324.9000305175781
 31
0.0
  0
LINE
  5
2968
330
D1
100
AcDbEntity
  8
0
100
AcDbLine
 10
-28.60001922444303
 20
327.9000036809166
 30
0.0
 11
-29.00001641904646
 21
327.5000064863131
 31
0.0
  0
LINE
  5
2969
330
D1
100
AcDbEntity
  8
0
100
AcDbLine
 10
-21.88122558593704
 20
324.5356201171875
 30
0.0
 11
-21.88122558593704
 21
320.9000305175781
 31
0.0
  0
LINE
  5
296A
330
D1
100
AcDbEntity
  8
0
100
AcDbLine
 10
21.88116455078171
 20
324.5356201171875
 30
0.0
 11
21.88116455078171
 21
320.9000305175781
 31
0.0
  0
LINE
  5
296B
330
D1
100
AcDbEntity
  8
0
100
AcDbLine
 10
28.80937194824264
 20
324.5356201171875
 30
0.0
 11
28.80937194824264
 21
320.9000305175781
 31
0.0
  0
LINE
  5
296C
330
D1
100
AcDbEntity
  8
0
100
AcDbLine
 10
23.99996948242233
 20
327.5000366210937
 30
0.0
 11
23.99996948242233
 21
324.9000305175781
 31
0.0
  0
LINE
  5
296D
330
D1
100
AcDbEntity
  8
0
100
AcDbLine
 10
28.59996263442395
 20
327.9000360496963
 30
0.0
 11
28.99997601341738
 21
327.5000226707029
 31
0.0
  0
LINE
  5
296E
330
D1
100
AcDbEntity
  8
0
100
AcDbLine
 10
24.39996241970539
 20
327.9000360496963
 30
0.0
 11
23.99995983030521
 21
327.5000334602961
 31
0.0
  0
LINE
  5
296F
330
D1
100
AcDbEntity
  8
0
100
AcDbLine
 10
-31.50003051757767
 20
319.9000305175781
 30
0.0
 11
-31.50003051757767
 21
320.9000305175781
 31
0.0
  0
LINE
  5
2970
330
D1
100
AcDbEntity
  8
0
100
AcDbLine
 10
-31.50003051757767
 20
320.9000305175781
 30
0.0
 11
-21.50003051757767
 21
320.9000305175781
 31
0.0
  0
LINE
  5
2971
330
D1
100
AcDbEntity
  8
0
100
AcDbLine
 10
-21.50003051757767
 20
320.9000305175781
 30
0.0
 11
-21.50003051757767
 21
319.9000305175781
 31
0.0
  0
LINE
  5
2972
330
D1
100
AcDbEntity
  8
0
100
AcDbLine
 10
31.11877441406296
 20
324.5356201171875
 30
0.0
 11
31.11877441406296
 21
320.9000305175781
 31
0.0
  0
LINE
  5
2973
330
D1
100
AcDbEntity
  8
0
100
AcDbLine
 10
28.99996948242233
 20
327.5000366210937
 30
0.0
 11
28.99996948242233
 21
324.9000305175781
 31
0.0
  0
LINE
  5
2974
330
D1
100
AcDbEntity
  8
0
100
AcDbLine
 10
-24.40002441406205
 20
327.9000305175781
 30
0.0
 11
-28.6000366210933
 21
327.9000305175781
 31
0.0
  0
LINE
  5
2975
330
D1
100
AcDbEntity
  8
0
100
AcDbLine
 10
-29.96414184570267
 20
324.9000305175781
 30
0.0
 11
-23.03591918945267
 21
324.9000305175781
 31
0.0
  0
LINE
  5
2976
330
D1
100
AcDbEntity
  8
0
100
AcDbLine
 10
-28.80941772460892
 20
324.5356201171875
 30
0.0
 11
-28.80941772460892
 21
320.9000305175781
 31
0.0
  0
LINE
  5
2977
330
D1
100
AcDbEntity
  8
0
100
AcDbLine
 10
-12.00003051757767
 20
343.4000305175781
 30
0.0
 11
-12.00003051757767
 21
322.9000305175781
 31
0.0
  0
LINE
  5
2978
330
D1
100
AcDbEntity
  8
0
100
AcDbLine
 10
-11.00003051757767
 20
321.9000305175781
 30
0.0
 11
10.99996948242233
 21
321.9000305175781
 31
0.0
  0
LINE
  5
2979
330
D1
100
AcDbEntity
  8
0
100
AcDbLine
 10
-11.00003051757767
 20
344.4000305175781
 30
0.0
 11
10.99996948242233
 21
344.4000305175781
 31
0.0
  0
LINE
  5
297A
330
D1
100
AcDbEntity
  8
0
100
AcDbLine
 10
24.19056701660202
 20
324.5356201171875
 30
0.0
 11
24.19056701660202
 21
320.9000305175781
 31
0.0
  0
LINE
  5
297B
330
D1
100
AcDbEntity
  8
0
100
AcDbLine
 10
-7.00003051757767
 20
319.9000305175781
 30
0.0
 11
-7.00003051757767
 21
321.9000305175781
 31
0.0
  0
LINE
  5
297C
330
D1
100
AcDbEntity
  8
0
100
AcDbLine
 10
6.999969482422329
 20
321.9000305175781
 30
0.0
 11
6.999969482422329
 21
319.9000305175781
 31
0.0
  0
LINE
  5
297D
330
D1
100
AcDbEntity
  8
0
100
AcDbLine
 10
23.03587341308639
 20
324.9000305175781
 30
0.0
 11
29.96406555175827
 21
324.9000305175781
 31
0.0
  0
LINE
  5
297E
330
D1
100
AcDbEntity
  8
0
100
AcDbLine
 10
11.99996948242233
 20
343.4000305175781
 30
0.0
 11
11.99996948242233
 21
322.9000305175781
 31
0.0
  0
ARC
  5
297F
330
D1
100
AcDbEntity
  8
0
100
AcDbCircle
 10
-29.96414184570267
 20
322.8883728027343
 30
0.0
 40
2.011653184890747
100
AcDbArc
 50
54.96996349690306
 51
125.0300415120584
  0
ARC
  5
2980
330
D1
100
AcDbEntity
  8
0
100
AcDbCircle
 10
26.49996948242233
 20
317.4000305175781
 30
0.0
 40
7.5
100
AcDbArc
 50
72.06606359322845
 51
107.9339345855393
  0
ARC
  5
2981
330
D1
100
AcDbEntity
  8
0
100
AcDbCircle
 10
29.96406555175827
 20
322.8883728027343
 30
0.0
 40
2.011653184890747
100
AcDbArc
 50
54.96996349690306
 51
125.0300415120584
  0
ARC
  5
2982
330
D1
100
AcDbEntity
  8
0
100
AcDbCircle
 10
23.03587341308639
 20
322.8883728027343
 30
0.0
 40
2.011653184890747
100
AcDbArc
 50
54.96996349690306
 51
125.0300415120584
  0
ARC
  5
2983
330
D1
100
AcDbEntity
  8
0
100
AcDbCircle
 10
-23.03591918945267
 20
322.8883728027343
 30
0.0
 40
2.011653184890747
100
AcDbArc
 50
54.96996349690306
 51
125.0300415120584
  0
CIRCLE
  5
2984
330
D1
100
AcDbEntity
  8
0
100
AcDbCircle
 10
-0.0000305175776703
 20
312.9
 30
0.0
 40
4.158030033111572
  0
CIRCLE
  5
2985
330
D1
100
AcDbEntity
  8
0
100
AcDbCircle
 10
-0.0000305175776703
 20
312.9
 30
0.0
 40
4.738999843597412
  0
ARC
  5
2986
330
D1
100
AcDbEntity
  8
0
100
AcDbCircle
 10
10.99996948242233
 20
322.9000305175781
 30
0.0
 40
1.0
100
AcDbArc
 50
269.9999974955182
 51
0.0
  0
ARC
  5
2987
330
D1
100
AcDbEntity
  8
0
100
AcDbCircle
 10
-11.00003051757767
 20
322.9000305175781
 30
0.0
 40
1.0
100
AcDbArc
 50
179.999994991043
 51
269.9999974955182
  0
ARC
  5
2988
330
D1
100
AcDbEntity
  8
0
100
AcDbCircle
 10
-11.00003051757767
 20
343.4000305175781
 30
0.0
 40
1.0
100
AcDbArc
 50
90.00000250446868
 51
180.0000050089569
  0
ARC
  5
2989
330
D1
100
AcDbEntity
  8
0
100
AcDbCircle
 10
10.99996948242233
 20
343.4000305175781
 30
0.0
 40
1.0
100
AcDbArc
 50
0.0
 51
90.00000250446868
  0
ARC
  5
298A
330
D1
100
AcDbEntity
  8
0
100
AcDbCircle
 10
-26.50003051757767
 20
317.4000305175781
 30
0.0
 40
7.5
100
AcDbArc
 50
72.06606359322845
 51
107.9339345855393
  0
CIRCLE
  5
298B
330
D1
100
AcDbEntity
  8
0
100
AcDbCircle
 10
-0.0000305175776703
 20
172.5
 30
0.0
 40
4.158030033111572
  0
CIRCLE
  5
298C
330
D1
100
AcDbEntity
  8
0
100
AcDbCircle
 10
-0.0000305175776703
 20
172.5
 30
0.0
 40
4.738999843597412
  0
LINE
  5
298D
330
D1
100
AcDbEntity
  8
0
100
AcDbLine
 10
388.0000610351562
 20
343.4000000000003
 30
0.0
 11
388.0000610351562
 21
322.9000000000003
 31
0.0
  0
LINE
  5
298E
330
D1
100
AcDbEntity
  8
0
100
AcDbLine
 10
397.5000610351563
 20
327.5000061035159
 30
0.0
 11
397.5000610351563
 21
324.9000000000003
 31
0.0
  0
LINE
  5
298F
330
D1
100
AcDbEntity
  8
0
100
AcDbLine
 10
405.0000610351562
 20
320.9000000000003
 30
0.0
 11
405.0000610351562
 21
319.9000000000002
 31
0.0
  0
LINE
  5
2990
330
D1
100
AcDbEntity
  8
0
100
AcDbLine
 10
412.0000610351562
 20
343.4000000000003
 30
0.0
 11
412.0000610351562
 21
322.9000000000003
 31
0.0
  0
LINE
  5
2991
330
D1
100
AcDbEntity
  8
0
100
AcDbLine
 10
397.9000605040731
 20
327.9000171679084
 30
0.0
 11
397.5000606120712
 21
327.5000172759065
 31
0.0
  0
LINE
  5
2992
330
D1
100
AcDbEntity
  8
0
100
AcDbLine
 10
389.0000610351563
 20
344.4000000000003
 30
0.0
 11
411.0000610351562
 21
344.4000000000003
 31
0.0
  0
LINE
  5
2993
330
D1
100
AcDbEntity
  8
0
100
AcDbLine
 10
404.6188659667969
 20
321.9000000000002
 30
0.0
 11
411.0000610351562
 21
321.9000000000002
 31
0.0
  0
LINE
  5
2994
330
D1
100
AcDbEntity
  8
0
100
AcDbLine
 10
389.0000610351563
 20
321.9000000000002
 30
0.0
 11
395.3812561035156
 21
321.9000000000002
 31
0.0
  0
LINE
  5
2995
330
D1
100
AcDbEntity
  8
0
100
AcDbLine
 10
402.5000610351562
 20
327.5000061035159
 30
0.0
 11
402.5000610351562
 21
324.9000000000003
 31
0.0
  0
LINE
  5
2996
330
D1
100
AcDbEntity
  8
0
100
AcDbLine
 10
395.0000610351563
 20
320.9000000000003
 30
0.0
 11
405.0000610351562
 21
320.9000000000003
 31
0.0
  0
LINE
  5
2997
330
D1
100
AcDbEntity
  8
0
100
AcDbLine
 10
402.1000607187918
 20
327.9000171679084
 30
0.0
 11
402.5000525185987
 21
327.5000253681014
 31
0.0
  0
LINE
  5
2998
330
D1
100
AcDbEntity
  8
0
100
AcDbLine
 10
402.1000671386718
 20
327.9000000000003
 30
0.0
 11
397.9000549316406
 21
327.9000000000003
 31
0.0
  0
LINE
  5
2999
330
D1
100
AcDbEntity
  8
0
100
AcDbLine
 10
395.0000610351563
 20
319.9000000000002
 30
0.0
 11
395.0000610351563
 21
320.9000000000003
 31
0.0
  0
LINE
  5
299A
330
D1
100
AcDbEntity
  8
0
100
AcDbLine
 10
407.0000610351562
 20
321.9000000000002
 30
0.0
 11
407.0000610351562
 21
319.9000000000002
 31
0.0
  0
LINE
  5
299B
330
D1
100
AcDbEntity
  8
0
100
AcDbLine
 10
393.0000610351563
 20
319.9000000000002
 30
0.0
 11
393.0000610351563
 21
321.9000000000002
 31
0.0
  0
ARC
  5
299C
330
D1
100
AcDbEntity
  8
0
100
AcDbCircle
 10
389.0000610351563
 20
322.9000000000003
 30
0.0
 40
1.0
100
AcDbArc
 50
179.999994991043
 51
269.9999974955182
  0
ARC
  5
299D
330
D1
100
AcDbEntity
  8
0
100
AcDbCircle
 10
411.0000610351562
 20
322.9000000000003
 30
0.0
 40
1.0
100
AcDbArc
 50
269.9999974955182
 51
0.0
  0
ARC
  5
299E
330
D1
100
AcDbEntity
  8
0
100
AcDbCircle
 10
389.0000610351563
 20
343.4000000000003
 30
0.0
 40
1.0
100
AcDbArc
 50
90.00000250446868
 51
180.0000050089569
  0
ARC
  5
299F
330
D1
100
AcDbEntity
  8
0
100
AcDbCircle
 10
411.0000610351562
 20
343.4000000000003
 30
0.0
 40
1.0
100
AcDbArc
 50
0.0
 51
90.00000250446868
  0
ARC
  5
29A0
330
D1
100
AcDbEntity
  8
0
100
AcDbCircle
 10
398.0000644834322
 20
319.0654861111006
 30
0.0
 40
5.776760101318358
100
AcDbArc
 50
69.74444580078149
 51
110.2555541992185
  0
LINE
  5
29A1
330
D1
100
AcDbEntity
  8
0
100
AcDbLine
 10
404.0000644834321
 20
324.899981212419
 30
0.0
 11
396.0000644834322
 21
324.899981212419
 31
0.0
  0
LINE
  5
29A2
330
D1
100
AcDbEntity
  8
0
100
AcDbLine
 10
396.0000644834322
 20
320.899981212419
 30
0.0
 11
396.0000644834322
 21
324.899981212419
 31
0.0
  0
LINE
  5
29A3
330
D1
100
AcDbEntity
  8
0
100
AcDbLine
 10
400.0000644834321
 20
320.899981212419
 30
0.0
 11
400.0000644834321
 21
324.4849820324189
 31
0.0
  0
ARC
  5
29A4
330
D1
100
AcDbEntity
  8
0
100
AcDbCircle
 10
402.0000644834322
 20
319.0654861111005
 30
0.0
 40
5.776760101318358
100
AcDbArc
 50
69.74444580078149
 51
110.2555541992185
  0
LINE
  5
29A5
330
D1
100
AcDbEntity
  8
0
100
AcDbLine
 10
404.0000644834321
 20
320.899981212419
 30
0.0
 11
404.0000644834321
 21
324.899981212419
 31
0.0
  0
ENDSEC
  0
SECTION
  2
OBJECTS
  0
DICTIONARY
  5
17FA
330
0
100
AcDbDictionary
281
     1
  3
ACAD_2007HEADERVARS_RT
350
2D5F
  3
ACAD_CIP_PREVIOUS_PRODUCT_INFO
350
1856
  3
ACAD_COLOR
350
1834
  3
ACAD_DETAILVIEWSTYLE
350
2D12
  3
ACAD_GROUP
350
17FB
  3
ACAD_LAYOUT
350
184C
  3
ACAD_MATERIAL
350
1802
  3
ACAD_MLEADERSTYLE
350
1849
  3
ACAD_MLINESTYLE
350
17FC
  3
ACAD_PLOTSETTINGS
350
184D
  3
ACAD_PLOTSTYLENAME
350
1800
  3
ACAD_SCALELIST
350
1837
  3
ACAD_SECTIONVIEWSTYLE
350
2D10
  3
ACAD_TABLESTYLE
350
1835
  3
ACAD_VISUALSTYLE
350
181B
  3
ACDB_RECOMPOSE_DATA
350
2D5E
  3
AcDbVariableDictionary
350
1965
  3
AcmDictionary
350
18C9
  3
AEC_PROPERTY_SET_DEFS
350
1E20
  3
AMG
350
1858
  3
AMGSNAPSETTINGS
350
195B
  0
DICTIONARY
  5
1E4C
330
E2
100
AcDbDictionary
280
     1
281
     1
  0
DICTIONARY
  5
1E12
330
C8
100
AcDbDictionary
280
     1
281
     1
  3
ACAD_LAYERSTATES
360
1E13
  0
DICTIONARY
  5
1963
330
C9
100
AcDbDictionary
280
     1
281
     1
  3
ADSK_XREC_LAYER_RECONCILED
360
1964
  0
DICTIONARY
  5
1B08
330
D1
100
AcDbDictionary
280
     1
281
     1
  3
ACAD_SORTENTS
360
1B09
  0
DICTIONARY
  5
2D5F
102
{ACAD_REACTORS
330
17FA
102
}
330
17FA
100
AcDbDictionary
281
     1
  3
DIMARCSYM
350
2D60
  3
DIMLTEX1
350
2D63
  3
DIMLTEX2
350
2D64
  3
DIMLTYPE
350
2D62
  3
DIMTFILL
350
2D61
  0
XRECORD
  5
1856
102
{ACAD_REACTORS
330
17FA
102
}
330
17FA
100
AcDbXrecord
280
     1
300
AMECH_PP
300
2012
300
PDSU_F_S
  0
DICTIONARY
  5
1834
102
{ACAD_REACTORS
330
17FA
102
}
330
17FA
100
AcDbDictionary
281
     1
  0
DICTIONARY
  5
2D12
102
{ACAD_REACTORS
330
17FA
102
}
330
17FA
100
AcDbDictionary
281
     1
  3
Metric50
350
2D13
  0
DICTIONARY
  5
17FB
102
{ACAD_REACTORS
330
17FA
102
}
330
17FA
100
AcDbDictionary
281
     1
  0
DICTIONARY
  5
184C
102
{ACAD_REACTORS
330
17FA
102
}
330
17FA
100
AcDbDictionary
281
     1
  3
Model
350
184E
  3
レイアウト1
350
184F
  0
DICTIONARY
  5
1802
102
{ACAD_REACTORS
330
17FA
102
}
330
17FA
100
AcDbDictionary
281
     1
  3
ByBlock
350
180B
  3
ByLayer
350
1803
  3
Global
350
1813
  0
DICTIONARY
  5
1849
102
{ACAD_REACTORS
330
17FA
102
}
330
17FA
100
AcDbDictionary
281
     1
  3
Standard
350
184A
  0
DICTIONARY
  5
17FC
102
{ACAD_REACTORS
330
17FA
102
}
330
17FA
100
AcDbDictionary
281
     1
  3
STANDARD
350
17FD
  0
DICTIONARY
  5
184D
102
{ACAD_REACTORS
330
17FA
102
}
330
17FA
100
AcDbDictionary
281
     1
  0
ACDBDICTIONARYWDFLT
  5
1800
102
{ACAD_REACTORS
330
17FA
102
}
330
17FA
100
AcDbDictionary
281
     1
  3
Normal
350
1801
100
AcDbDictionaryWithDefault
340
1801
  0
DICTIONARY
  5
1837
102
{ACAD_REACTORS
330
17FA
102
}
330
17FA
100
AcDbDictionary
281
     1
  3
A0
350
1838
  3
A1
350
1839
  3
A2
350
183A
  3
A3
350
183B
  3
A4
350
183C
  3
A5
350
183D
  3
A6
350
183E
  3
A7
350
183F
  3
A8
350
1840
  3
A9
350
1841
  3
B0
350
1842
  3
B1
350
1843
  3
B2
350
1844
  3
B3
350
1845
  3
B4
350
1846
  3
B5
350
1847
  3
B6
350
1848
  0
DICTIONARY
  5
2D10
102
{ACAD_REACTORS
330
17FA
102
}
330
17FA
100
AcDbDictionary
281
     1
  3
Metric50
350
2D11
  0
DICTIONARY
  5
1835
102
{ACAD_REACTORS
330
17FA
102
}
330
17FA
100
AcDbDictionary
281
     1
  3
Standard
350
1836
  0
DICTIONARY
  5
181B
102
{ACAD_REACTORS
330
17FA
102
}
330
17FA
100
AcDbDictionary
281
     1
  3
2dWireframe
350
1821
  3
3D Hidden
350
2D58
  3
3dWireframe
350
2D57
  3
Basic
350
1820
  3
Brighten
350
1827
  3
ColorChange
350
182B
  3
Conceptual
350
1824
  3
Dim
350
1826
  3
EdgeColorOff
350
1833
  3
Facepattern
350
182A
  3
Flat
350
181C
  3
FlatWithEdges
350
181D
  3
Gouraud
350
181E
  3
GouraudWithEdges
350
181F
  3
Hidden
350
1823
  3
JitterOff
350
1831
  3
Linepattern
350
1829
  3
OverhangOff
350
1832
  3
Realistic
350
1825
  3
Shaded
350
1830
  3
Shaded with edges
350
182F
  3
Shades of Gray
350
182C
  3
Sketchy
350
182D
  3
Thicken
350
1828
  3
Wireframe
350
1822
  3
X-Ray
350
182E
  0
XRECORD
  5
2D5E
102
{ACAD_REACTORS
330
17FA
102
}
330
17FA
100
AcDbXrecord
280
     1
 90
        1
330
1836
  0
DICTIONARY
  5
1965
102
{ACAD_REACTORS
330
17FA
102
}
330
17FA
100
AcDbDictionary
281
     1
  3
CANNOSCALE
350
1969
  3
CMLEADERSTYLE
350
1967
  3
CTABLESTYLE
350
1966
  3
CVIEWDETAILSTYLE
350
2D53
  3
CVIEWSECTIONSTYLE
350
2D54
  3
DIMASSOC
350
1E88
  3
INDEXCTL
350
1E87
  3
LAYEREVAL
350
196B
  3
LAYERNOTIFY
350
196C
  3
LIGHTINGUNITS
350
196A
  3
MSLTSCALE
350
1968
  3
SORTENTS
350
1E86
  3
XCLIPFRAME
350
2D5C
  0
DICTIONARY
  5
18C9
102
{ACAD_REACTORS
330
17FA
102
}
330
17FA
100
AcDbDictionary
281
     1
  3
AcmStdDictionary
350
18CA
  0
DICTIONARY
  5
1E20
102
{ACAD_REACTORS
330
17FA
102
}
330
17FA
100
AcDbDictionary
281
     1
  0
DICTIONARY
  5
1858
102
{ACAD_REACTORS
330
17FA
102
}
330
17FA
100
AcDbDictionary
281
     1
  0
DICTIONARY
  5
195B
102
{ACAD_REACTORS
330
17FA
102
}
330
17FA
100
AcDbDictionary
281
     1
  0
DICTIONARY
  5
1E13
102
{ACAD_REACTORS
330
1E12
102
}
330
1E12
100
AcDbDictionary
281
     1
  0
XRECORD
  5
1964
102
{ACAD_REACTORS
330
1963
102
}
330
1963
100
AcDbXrecord
280
     1
290
     1
  0
SORTENTSTABLE
  5
1B09
102
{ACAD_REACTORS
330
1B08
102
}
330
1B08
100
AcDbSortentsTable
330
D1
331
19AE
  5
1CBA
331
1B16
  5
1AA9
331
19AA
  5
1CB6
331
1B12
  5
1AA5
331
1BA4
  5
1B39
331
1AB7
  5
1DC3
331
19A6
  5
1CB2
331
19FD
  5
1D09
331
1B0E
  5
1AA2
331
1BE7
  5
1B7D
331
1A3C
  5
1D50
331
1AB3
  5
1DC0
331
19A2
  5
1CAE
331
19F9
  5
1D07
331
1B49
  5
1AE5
331
1B0A
  5
1A9D
331
1BE3
  5
1B79
331
1D1D
  5
19A6
331
1A38
  5
1D45
331
27DA
  5
1A3A
331
1C92
  5
1C33
331
1D19
  5
19A2
331
1DCC
  5
1A56
331
2762
  5
2765
331
1DC8
  5
1A52
331
1AAF
  5
1DBC
331
199E
  5
1CAA
331
19F5
  5
1D05
331
199A
  5
1CA8
331
1B06
  5
1E23
331
1BDF
  5
1B76
331
1A34
  5
1D40
331
1B02
  5
1E10
331
1BDB
  5
1B71
331
1C8E
  5
1C23
331
1D15
  5
199E
331
1A30
  5
1D3D
331
1996
  5
1CA2
331
1B90
  5
1B28
331
1E47
  5
2530
331
1D11
  5
199A
331
1B3D
  5
1AD9
331
1A2C
  5
1D3B
331
1992
  5
1C9E
331
1AFA
  5
1E0A
331
1BD3
  5
1B68
331
275E
  5
2761
331
1D0D
  5
1996
331
1A28
  5
1D36
331
275A
  5
275D
331
1DC0
  5
1A4F
331
1E3F
  5
1E42
331
1C82
  5
1C1D
331
1D09
  5
1992
331
2756
  5
2759
331
1E3B
  5
1E3E
331
2752
  5
2755
331
198E
  5
1C9A
331
1A9F
  5
1DB8
331
1B35
  5
1AC8
331
1A9B
  5
1DA7
331
198A
  5
1C96
331
19C5
  5
1CEB
331
1B31
  5
1AC4
331
1C6E
  5
1C15
331
1A20
  5
1D2C
331
1A5B
  5
1DA2
331
1ADE
  5
1DEE
331
1E37
  5
1E3A
331
1BC7
  5
1B62
331
19C1
  5
1CCF
331
1ADA
  5
1DE6
331
274E
  5
2751
331
1D3C
  5
19C5
331
1E33
  5
1E36
331
1B29
  5
1ABC
331
1B60
  5
1B21
331
1C62
  5
1BFB
331
274A
  5
274D
331
1D38
  5
19C1
331
1E2F
  5
1E32
331
1E2B
  5
1E2E
331
1D34
  5
19BD
331
1D30
  5
19B9
331
1A57
  5
1D65
331
19BD
  5
1CCB
331
1A53
  5
1D64
331
1B25
  5
1AB8
331
1BBF
  5
1B54
331
19B9
  5
1CC5
331
19B5
  5
1CC1
331
1A10
  5
1D1C
331
1AC2
  5
1DE5
331
1BBB
  5
1B51
331
1CDD
  5
1C72
331
1C5E
  5
1BF3
331
1B21
  5
1AB4
331
19B1
  5
1CBE
331
1A04
  5
1D1B
331
1ABE
  5
1DCA
331
1E27
  5
1E2A
331
1BB7
  5
1B4D
331
1B1D
  5
1AB0
331
1A00
  5
1D0C
331
1ABA
  5
1DC6
331
1BB3
  5
1B48
331
1E23
  5
1E26
331
1D2C
  5
19B5
331
1B54
  5
1AEA
331
1B19
  5
1AAC
331
1BEA
  5
1B80
331
1D28
  5
19B1
331
1CB1
  5
1C46
331
1D24
  5
19AD
331
1D20
  5
19A9
331
1A47
  5
1D53
331
19AD
  5
1CB9
331
19A9
  5
1CB5
331
1B15
  5
1AA8
331
1BA7
  5
1B47
331
1AB6
  5
1DC2
331
19A5
  5
1CB1
331
19FC
  5
1D08
331
19A1
  5
1CAD
331
1CA1
  5
1C44
331
1B0D
  5
1AA0
331
19F8
  5
1D06
331
1B48
  5
1AE4
331
1DD3
  5
1A64
331
1D1C
  5
19A5
331
1C91
  5
1C26
331
2765
  5
27DC
331
2761
  5
2764
331
1A37
  5
1D43
331
199D
  5
1CA9
331
19F4
  5
1D02
331
1A33
  5
1D3F
331
1BDE
  5
1B75
331
1B05
  5
1E22
331
1999
  5
1CA7
331
19F0
  5
1CFE
331
1995
  5
1CA1
331
1BDA
  5
1B70
331
1C8D
  5
1C22
331
1D14
  5
199D
331
1B01
  5
1E0F
331
1991
  5
1C9D
331
1BD6
  5
1B6C
331
1E46
  5
252F
331
1D10
  5
1999
331
1B8F
  5
1B24
331
1B3C
  5
1AD8
331
1BD2
  5
1B67
331
275D
  5
2760
331
1E42
  5
252E
331
1D0C
  5
1995
331
1AF9
  5
1E05
331
1B38
  5
1ACD
331
2759
  5
275C
331
1E3E
  5
1E41
331
1D08
  5
1991
331
1E3A
  5
1E3D
331
2755
  5
2758
331
1DBB
  5
1A46
331
2751
  5
2754
331
1A9E
  5
1DAA
331
198D
  5
1C99
331
1A23
  5
1D33
331
1B34
  5
1AC7
331
1A9A
  5
1DA6
331
1A5E
  5
1DA4
331
1B30
  5
1AC3
331
1C6D
  5
1C14
331
1D04
  5
198D
331
1A5A
  5
1D67
331
1E36
  5
1E39
331
1C69
  5
1C00
331
1B2C
  5
1AC0
331
19C0
  5
1CCE
331
1B28
  5
1ABB
331
1E32
  5
1E35
331
274D
  5
2750
331
1D3B
  5
19C4
331
1BC2
  5
1B5A
331
1C61
  5
1BFA
331
1E2E
  5
1E31
331
2749
  5
274C
331
1D37
  5
19C0
331
1CE0
  5
1C95
331
1E2A
  5
1E2D
331
19BC
  5
1CCA
331
1A52
  5
1D63
331
1A13
  5
1D2A
331
1BBE
  5
1B53
331
1B5F
  5
1B0B
331
1B24
  5
1AB7
331
19B8
  5
1CC4
331
1A4E
  5
1D5C
331
1AC1
  5
1DE4
331
1CDC
  5
1C71
331
1C5D
  5
1BF2
331
1B5B
  5
1AF1
331
1B20
  5
1AB3
331
19B4
  5
1CC0
331
1A4A
  5
1D59
331
1A03
  5
1D1A
331
1ABD
  5
1DC9
331
1E26
  5
1E29
331
1D2F
  5
19B8
331
1BB6
  5
1B4B
331
1B1C
  5
1AAF
331
19B0
  5
1CBD
331
1AB9
  5
1DC5
331
1B53
  5
1AE9
331
1E22
  5
1E25
331
1D2B
  5
19B4
331
1CB4
  5
1C6F
331
1B18
  5
1AAB
331
1BE9
  5
1B7E
331
1D27
  5
19B0
331
1CB0
  5
1C45
331
1D23
  5
19AC
331
1A46
  5
1D52
331
19AC
  5
1CB8
331
19A8
  5
1CB4
331
1BA6
  5
1B46
331
1B14
  5
1AA7
331
19FF
  5
1D0B
331
19A4
  5
1CB0
331
1B10
  5
1AA4
331
1A3A
  5
1D4F
331
1BE5
  5
1B7C
331
1D1F
  5
19A8
331
1B0C
  5
1A9F
331
1AB1
  5
1DBF
331
19A0
  5
1CAC
331
1BE1
  5
1B77
331
27DC
  5
1A9B
331
1C94
  5
1C43
331
1D1B
  5
19A4
331
1C90
  5
1C25
331
2764
  5
27DB
331
1DCA
  5
1A55
331
2760
  5
2763
331
1A36
  5
1D42
331
1B47
  5
1AE3
331
19F3
  5
1D01
331
1A32
  5
1D3E
331
1B96
  5
1B37
331
1BDD
  5
1B73
331
1998
  5
1CA6
331
19EF
  5
1CFD
331
1994
  5
1CA0
331
1BD9
  5
1B6F
331
1B92
  5
1B36
331
1C8C
  5
1C21
331
1D13
  5
199C
331
1A2A
  5
1D39
331
1BD5
  5
1B6B
331
1DC6
  5
1A51
331
1D0F
  5
1998
331
1AFC
  5
1E0E
331
1AA1
  5
1DBA
331
1990
  5
1C9C
331
1BD1
  5
1B66
331
275C
  5
275F
331
1E41
  5
1E47
331
1C84
  5
1C1F
331
1D0B
  5
1994
331
2758
  5
275B
331
1DBE
  5
1A49
331
1E3D
  5
1E40
331
2754
  5
2757
331
1E39
  5
1E3C
331
2750
  5
2753
331
1A9D
  5
1DA9
331
1B37
  5
1ACC
331
198C
  5
1C98
331
19E3
  5
1CFC
331
1A99
  5
1DA5
331
1A22
  5
1D31
331
1AE4
  5
1E02
331
1B33
  5
1AC6
331
19C7
  5
1CF8
331
1B2F
  5
1AC2
331
1BC9
  5
1B64
331
1C6C
  5
1C01
331
1D03
  5
198C
331
1B2B
  5
1ABF
331
1ADC
  5
1DEC
331
1D3E
  5
19C7
331
1E35
  5
1E38
331
1C68
  5
1BFF
331
1BC1
  5
1B59
331
274C
  5
274F
331
1D3A
  5
19C3
331
1E31
  5
1E34
331
1C60
  5
1BF9
331
1E2D
  5
1E30
331
2748
  5
274B
331
1E29
  5
1E2C
331
1D32
  5
19BB
331
1B27
  5
1ABA
331
19BB
  5
1CC9
331
19B7
  5
1CC3
331
1BBD
  5
1B52
331
1CDF
  5
1C94
331
1B23
  5
1AB6
331
1A12
  5
1D29
331
19B3
  5
1CBF
331
1B1F
  5
1AB2
331
1BB9
  5
1B50
331
1CDB
  5
1C70
331
1C5C
  5
1BF1
331
1B5A
  5
1AF0
331
1AC0
  5
1DE3
331
1A4D
  5
1D5B
331
1A49
  5
1D57
331
1B1B
  5
1AAE
331
1E25
  5
1E28
331
1D2E
  5
19B7
331
1BB5
  5
1B4A
331
1ABC
  5
1DC8
331
1A02
  5
1D19
331
1BEC
  5
1BEF
331
1CB3
  5
1C6E
331
1AB8
  5
1DC4
331
1D26
  5
19AF
331
1D22
  5
19AB
331
19AF
  5
1CBC
331
1B17
  5
1AAA
331
19AB
  5
1CB7
331
1B13
  5
1AA6
331
1BA5
  5
1B45
331
19A7
  5
1CB3
331
19FE
  5
1D0A
331
1B0F
  5
1AA3
331
1AB4
  5
1DC1
331
19A3
  5
1CAF
331
1AB0
  5
1DBD
331
1B0B
  5
1A9E
331
1BE4
  5
1B7B
331
1D1E
  5
19A7
331
1A39
  5
1D4E
331
1B99
  5
1B38
331
27DB
  5
1A9C
331
1C93
  5
1C42
331
1D1A
  5
19A3
331
1DCD
  5
1A5C
331
2763
  5
27DA
331
1DC9
  5
1A53
331
199F
  5
1CAB
331
1B07
  5
1E24
331
1A35
  5
1D41
331
1C8F
  5
1C24
331
1D16
  5
199F
331
1997
  5
1CA3
331
1993
  5
1C9F
331
1B91
  5
1B2B
331
1C8B
  5
1C20
331
1D12
  5
199B
331
1BD8
  5
1B6D
331
1A2D
  5
1D3C
331
1B3A
  5
1AD7
331
1AFB
  5
1E0B
331
1BD4
  5
1B6A
331
275F
  5
2762
331
1D0E
  5
1997
331
1AA0
  5
1DB9
331
1BD0
  5
1B65
331
275B
  5
275E
331
1E40
  5
1E46
331
1C83
  5
1C1E
331
1D0A
  5
1993
331
1E3C
  5
1E3F
331
2757
  5
275A
331
1DBD
  5
1A47
331
2753
  5
2756
331
1E38
  5
1E3B
331
198F
  5
1C9B
331
1A9C
  5
1DA8
331
1B36
  5
1ACA
331
1A25
  5
1D35
331
198B
  5
1C97
331
19E2
  5
1CF9
331
1B32
  5
1AC5
331
1AE3
  5
1DEF
331
1C6F
  5
1C16
331
1A21
  5
1D2E
331
19C6
  5
1CEC
331
1B79
  5
1B23
331
1BC8
  5
1B63
331
1B2E
  5
1AC1
331
1A5C
  5
1DA3
331
19C2
  5
1CD0
331
1B2A
  5
1ABE
331
1BC4
  5
1B5B
331
274F
  5
2752
331
1D3D
  5
19C6
331
1E34
  5
1E37
331
1C67
  5
1BFE
331
1A19
  5
1D2B
331
1BC0
  5
1B56
331
274B
  5
274E
331
1E30
  5
1E33
331
1B61
  5
1B22
331
1E2C
  5
1E2F
331
2747
  5
274A
331
1D35
  5
19BE
331
1E28
  5
1E2B
331
1B26
  5
1AB9
331
19BA
  5
1CC6
331
1A50
  5
1D60
331
1B22
  5
1AB5
331
1CDE
  5
1C93
331
1C5F
  5
1BF4
331
1A11
  5
1D22
331
19B6
  5
1CC2
331
1B1E
  5
1AB1
331
1BB8
  5
1B4F
331
1B59
  5
1AEF
331
1ABF
  5
1DCB
331
1A48
  5
1D56
331
1B1A
  5
1AAD
331
1BB4
  5
1B49
331
1E24
  5
1E27
331
1B55
  5
1AEB
331
1ABB
  5
1DC7
331
1A01
  5
1D0D
331
1BEB
  5
1BEE
331
1CB2
  5
1C6D
331
1D25
  5
19AE
331
1D21
  5
19AA
  0
XRECORD
  5
2D60
102
{ACAD_REACTORS
330
2D5F
102
}
330
2D5F
100
AcDbXrecord
280
     1
 70
     1
  0
XRECORD
  5
2D63
102
{ACAD_REACTORS
330
2D5F
102
}
330
2D5F
100
AcDbXrecord
280
     1
340
28
  0
XRECORD
  5
2D64
102
{ACAD_REACTORS
330
2D5F
102
}
330
2D5F
100
AcDbXrecord
280
     1
340
28
  0
XRECORD
  5
2D62
102
{ACAD_REACTORS
330
2D5F
102
}
330
2D5F
100
AcDbXrecord
280
     1
340
28
  0
XRECORD
  5
2D61
102
{ACAD_REACTORS
330
2D5F
102
}
330
2D5F
100
AcDbXrecord
280
     1
 70
     1
  0
ACAD_PROXY_OBJECT
  5
2D13
102
{ACAD_REACTORS
330
2D12
102
}
330
2D12
100
AcDbProxyObject
 90
      499
 91
      584
 95
  6815769
 70
     0
 93
     1145
310
9094D6574726963353000481C000000600000000000000002881403000000180000000000000000A2023300000018001000000180000000000000000A20400000000000017202029C129E2E20B1AB30B9102B34B2BBA232BA30B4B624B21F129014129E2E20B1AB30B9102B34B2BBA9B1B0B632902E33101112B9B7111F129
310
480233000000180008CC0000006000004C
340
23
340
0
340
28
340
23
340
28
340
28
 94
        0
  0
LAYOUT
  5
184E
102
{ACAD_REACTORS
330
184C
102
}
330
184C
100
AcDbPlotSettings
  1

  2
iR C4580
  4

  6

 40
0.0
 41
0.0
 42
0.0
 43
0.0
 44
0.0
 45
0.0
 46
0.0
 47
0.0
 48
0.0
 49
0.0
140
0.0
141
0.0
142
1.0
143
1.0
 70
  1712
 72
     0
 73
     0
 74
     0
  7

 75
     0
147
1.0
 76
     0
 77
     2
 78
   300
148
0.0
149
0.0
100
AcDbLayout
  1
Model
 70
     1
 71
     0
 10
0.0
 20
0.0
 11
12.0
 21
9.0
 12
0.0
 22
0.0
 32
0.0
 14
0.0
 24
0.0
 34
0.0
 15
0.0
 25
0.0
 35
0.0
146
0.0
 13
0.0
 23
0.0
 33
0.0
 16
1.0
 26
0.0
 36
0.0
 17
0.0
 27
1.0
 37
0.0
 76
     0
330
D1
331
1855
  0
LAYOUT
  5
184F
102
{ACAD_REACTORS
330
184C
102
}
330
184C
100
AcDbPlotSettings
  1

  2
iR C4580
  4

  6

 40
0.0
 41
0.0
 42
0.0
 43
0.0
 44
0.0
 45
0.0
 46
0.0
 47
0.0
 48
0.0
 49
0.0
140
0.0
141
0.0
142
1.0
143
1.0
 70
   688
 72
     0
 73
     0
 74
     5
  7

 75
    16
147
1.0
 76
     0
 77
     2
 78
   300
148
0.0
149
0.0
100
AcDbLayout
  1
レイアウト1
 70
     1
 71
     1
 10
-2550.0
 20
0.0
 11
0.0
 21
1800.0
 12
0.0
 22
0.0
 32
0.0
 14
-2550.0
 24
0.0
 34
0.0
 15
0.0
 25
1800.0
 35
0.0
146
0.0
 13
0.0
 23
0.0
 33
0.0
 16
1.0
 26
0.0
 36
0.0
 17
0.0
 27
1.0
 37
0.0
 76
     0
330
D2
  0
MATERIAL
  5
180B
102
{ACAD_XDICTIONARY
360
180C
102
}
102
{ACAD_REACTORS
330
1802
102
}
330
1802
100
AcDbMaterial
  1
ByBlock
 72
     0
 43
0.0208333333333333
 43
0.0
 43
0.0
 43
0.0
 43
0.0
 43
0.0208333333333333
 43
0.0
 43
0.0
 43
0.0
 43
0.0
 43
1.0
 43
0.0
 43
0.0
 43
0.0
 43
0.0
 43
1.0
 77
     0
 47
0.0208333333333333
 47
0.0
 47
0.0
 47
0.0
 47
0.0
 47
0.0208333333333333
 47
0.0
 47
0.0
 47
0.0
 47
0.0
 47
1.0
 47
0.0
 47
0.0
 47
0.0
 47
0.0
 47
1.0
171
     0
 49
0.0208333333333333
 49
0.0
 49
0.0
 49
0.0
 49
0.0
 49
0.0208333333333333
 49
0.0
 49
0.0
 49
0.0
 49
0.0
 49
1.0
 49
0.0
 49
0.0
 49
0.0
 49
0.0
 49
1.0
175
     0
142
0.0208333333333333
142
0.0
142
0.0
142
0.0
142
0.0
142
0.0208333333333333
142
0.0
142
0.0
142
0.0
142
0.0
142
1.0
142
0.0
142
0.0
142
0.0
142
0.0
142
1.0
179
     0
144
0.0208333333333333
144
0.0
144
0.0
144
0.0
144
0.0
144
0.0208333333333333
144
0.0
144
0.0
144
0.0
144
0.0
144
1.0
144
0.0
144
0.0
144
0.0
144
0.0
144
1.0
147
0.0208333333333333
147
0.0
147
0.0
147
0.0
147
0.0
147
0.0208333333333333
147
0.0
147
0.0
147
0.0
147
0.0
147
1.0
147
0.0
147
0.0
147
0.0
147
0.0
147
1.0
  0
MATERIAL
  5
1803
102
{ACAD_XDICTIONARY
360
1804
102
}
102
{ACAD_REACTORS
330
1802
102
}
330
1802
100
AcDbMaterial
  1
ByLayer
 72
     0
 43
0.0208333333333333
 43
0.0
 43
0.0
 43
0.0
 43
0.0
 43
0.0208333333333333
 43
0.0
 43
0.0
 43
0.0
 43
0.0
 43
1.0
 43
0.0
 43
0.0
 43
0.0
 43
0.0
 43
1.0
 77
     0
 47
0.0208333333333333
 47
0.0
 47
0.0
 47
0.0
 47
0.0
 47
0.0208333333333333
 47
0.0
 47
0.0
 47
0.0
 47
0.0
 47
1.0
 47
0.0
 47
0.0
 47
0.0
 47
0.0
 47
1.0
171
     0
 49
0.0208333333333333
 49
0.0
 49
0.0
 49
0.0
 49
0.0
 49
0.0208333333333333
 49
0.0
 49
0.0
 49
0.0
 49
0.0
 49
1.0
 49
0.0
 49
0.0
 49
0.0
 49
0.0
 49
1.0
175
     0
142
0.0208333333333333
142
0.0
142
0.0
142
0.0
142
0.0
142
0.0208333333333333
142
0.0
142
0.0
142
0.0
142
0.0
142
1.0
142
0.0
142
0.0
142
0.0
142
0.0
142
1.0
179
     0
144
0.0208333333333333
144
0.0
144
0.0
144
0.0
144
0.0
144
0.0208333333333333
144
0.0
144
0.0
144
0.0
144
0.0
144
1.0
144
0.0
144
0.0
144
0.0
144
0.0
144
1.0
147
0.0208333333333333
147
0.0
147
0.0
147
0.0
147
0.0
147
0.0208333333333333
147
0.0
147
0.0
147
0.0
147
0.0
147
1.0
147
0.0
147
0.0
147
0.0
147
0.0
147
1.0
  0
MATERIAL
  5
1813
102
{ACAD_XDICTIONARY
360
1814
102
}
102
{ACAD_REACTORS
330
1802
102
}
330
1802
100
AcDbMaterial
  1
Global
 72
     0
 43
0.0208333333333333
 43
0.0
 43
0.0
 43
0.0
 43
0.0
 43
0.0208333333333333
 43
0.0
 43
0.0
 43
0.0
 43
0.0
 43
1.0
 43
0.0
 43
0.0
 43
0.0
 43
0.0
 43
1.0
 77
     0
 47
0.0208333333333333
 47
0.0
 47
0.0
 47
0.0
 47
0.0
 47
0.0208333333333333
 47
0.0
 47
0.0
 47
0.0
 47
0.0
 47
1.0
 47
0.0
 47
0.0
 47
0.0
 47
0.0
 47
1.0
171
     0
 49
0.0208333333333333
 49
0.0
 49
0.0
 49
0.0
 49
0.0
 49
0.0208333333333333
 49
0.0
 49
0.0
 49
0.0
 49
0.0
 49
1.0
 49
0.0
 49
0.0
 49
0.0
 49
0.0
 49
1.0
175
     0
142
0.0208333333333333
142
0.0
142
0.0
142
0.0
142
0.0
142
0.0208333333333333
142
0.0
142
0.0
142
0.0
142
0.0
142
1.0
142
0.0
142
0.0
142
0.0
142
0.0
142
1.0
179
     0
144
0.0208333333333333
144
0.0
144
0.0
144
0.0
144
0.0
144
0.0208333333333333
144
0.0
144
0.0
144
0.0
144
0.0
144
1.0
144
0.0
144
0.0
144
0.0
144
0.0
144
1.0
147
0.0208333333333333
147
0.0
147
0.0
147
0.0
147
0.0
147
0.0208333333333333
147
0.0
147
0.0
147
0.0
147
0.0
147
1.0
147
0.0
147
0.0
147
0.0
147
0.0
147
1.0
  0
MLEADERSTYLE
  5
184A
102
{ACAD_XDICTIONARY
360
2D51
102
}
102
{ACAD_REACTORS
330
1849
102
}
330
1849
100
AcDbMLeaderStyle
170
     2
171
     1
172
     0
 90
        2
 40
0.0
 41
0.0
173
     1
 91
-1056964608
340
26
 92
       -2
290
     1
 42
2.0
291
     1
 43
0.36
  3
Standard
 44
4.0
300

342
23
174
     1
178
     6
175
     1
176
     0
 93
-1056964608
 45
4.0
292
     0
297
     0
 46
4.0
 94
-1056964608
 47
1.0
 49
1.0
140
1.0
293
     1
141
0.0
294
     1
177
     0
142
1.0
295
     0
296
     0
143
0.125
1001
ACAD_MLEADERVER
1070
     2
  0
MLINESTYLE
  5
17FD
102
{ACAD_REACTORS
330
17FC
102
}
330
17FC
100
AcDbMlineStyle
  2
STANDARD
 70
     0
  3

 62
     0
 51
90.0
 52
90.0
 71
     2
 49
0.5
 62
   256
  6
BYLAYER
 49
-0.5
 62
   256
  6
BYLAYER
  0
ACDBPLACEHOLDER
  5
1801
102
{ACAD_REACTORS
330
1800
102
}
330
1800
  0
SCALE
  5
1838
102
{ACAD_REACTORS
330
1837
102
}
330
1837
100
AcDbScale
 70
     0
300
1:1
140
1.0
141
1.0
290
     1
  0
SCALE
  5
1839
102
{ACAD_REACTORS
330
1837
102
}
330
1837
100
AcDbScale
 70
     0
300
1:2
140
1.0
141
2.0
290
     0
  0
SCALE
  5
183A
102
{ACAD_REACTORS
330
1837
102
}
330
1837
100
AcDbScale
 70
     0
300
1:4
140
1.0
141
4.0
290
     0
  0
SCALE
  5
183B
102
{ACAD_REACTORS
330
1837
102
}
330
1837
100
AcDbScale
 70
     0
300
1:5
140
1.0
141
5.0
290
     0
  0
SCALE
  5
183C
102
{ACAD_REACTORS
330
1837
102
}
330
1837
100
AcDbScale
 70
     0
300
1:8
140
1.0
141
8.0
290
     0
  0
SCALE
  5
183D
102
{ACAD_REACTORS
330
1837
102
}
330
1837
100
AcDbScale
 70
     0
300
1:10
140
1.0
141
10.0
290
     0
  0
SCALE
  5
183E
102
{ACAD_REACTORS
330
1837
102
}
330
1837
100
AcDbScale
 70
     0
300
1:16
140
1.0
141
16.0
290
     0
  0
SCALE
  5
183F
102
{ACAD_REACTORS
330
1837
102
}
330
1837
100
AcDbScale
 70
     0
300
1:20
140
1.0
141
20.0
290
     0
  0
SCALE
  5
1840
102
{ACAD_REACTORS
330
1837
102
}
330
1837
100
AcDbScale
 70
     0
300
1:30
140
1.0
141
30.0
290
     0
  0
SCALE
  5
1841
102
{ACAD_REACTORS
330
1837
102
}
330
1837
100
AcDbScale
 70
     0
300
1:40
140
1.0
141
40.0
290
     0
  0
SCALE
  5
1842
102
{ACAD_REACTORS
330
1837
102
}
330
1837
100
AcDbScale
 70
     0
300
1:50
140
1.0
141
50.0
290
     0
  0
SCALE
  5
1843
102
{ACAD_REACTORS
330
1837
102
}
330
1837
100
AcDbScale
 70
     0
300
1:100
140
1.0
141
100.0
290
     0
  0
SCALE
  5
1844
102
{ACAD_REACTORS
330
1837
102
}
330
1837
100
AcDbScale
 70
     0
300
2:1
140
2.0
141
1.0
290
     0
  0
SCALE
  5
1845
102
{ACAD_REACTORS
330
1837
102
}
330
1837
100
AcDbScale
 70
     0
300
4:1
140
4.0
141
1.0
290
     0
  0
SCALE
  5
1846
102
{ACAD_REACTORS
330
1837
102
}
330
1837
100
AcDbScale
 70
     0
300
8:1
140
8.0
141
1.0
290
     0
  0
SCALE
  5
1847
102
{ACAD_REACTORS
330
1837
102
}
330
1837
100
AcDbScale
 70
     0
300
10:1
140
10.0
141
1.0
290
     0
  0
SCALE
  5
1848
102
{ACAD_REACTORS
330
1837
102
}
330
1837
100
AcDbScale
 70
     0
300
100:1
140
100.0
141
1.0
290
     0
  0
ACAD_PROXY_OBJECT
  5
2D11
102
{ACAD_REACTORS
330
2D10
102
}
330
2D10
100
AcDbProxyObject
 90
      499
 91
      583
 95
  6815769
 70
     0
 93
     2325
310
9094D65747269633530004B34000000600000000000000002881000000180000000000000000A202229258409E5840A25840A65840B05840B4000000000000001220233000000180009940000006000000000000000028800000000000000A20400000060000000000000000288100000000000005C8080AB44A78B882C6AC
310
C2E440ACD2CAEEA6CAC6E8D2DEDCA6E8C2E4E892C87C4A5A4A78B882C6ACC2E440ACD2CAEEA6CAC6E8D2DEDC8ADCC892C87C4A40504A78B882C6ACC2E440ACD2CAEEA6C6C2D8CA40B8CC40444AE6DC447C4A5201000000180010000001900083A0A729A49998803100000000000000881000000000000008808340C16A22A7
310
D90FC9F8CAE65A70A583A07E1FE81C635378FA1F8CAE65A70A583A17E7944A7F127A97E9FC
340
23
340
0
340
0
340
28
340
28
340
23
 94
        0
  0
TABLESTYLE
  5
1836
102
{ACAD_XDICTIONARY
360
1E48
102
}
102
{ACAD_REACTORS
330
1835
102
}
330
1835
100
AcDbTableStyle
  3
Standard
 70
     0
 71
     0
 40
1.5
 41
1.5
280
     0
281
     0
  7
STANDARD
140
4.5
170
     2
 62
     0
 63
     7
283
     0
274
    -2
284
     1
 64
     0
275
    -2
285
     1
 65
     0
276
    -2
286
     1
 66
     0
277
    -2
287
     1
 67
     0
278
    -2
288
     1
 68
     0
279
    -2
289
     1
 69
     0
  7
STANDARD
140
6.0
170
     5
 62
     0
 63
     7
283
     0
274
    -2
284
     1
 64
     0
275
    -2
285
     1
 65
     0
276
    -2
286
     1
 66
     0
277
    -2
287
     1
 67
     0
278
    -2
288
     1
 68
     0
279
    -2
289
     1
 69
     0
  7
STANDARD
140
4.5
170
     5
 62
     0
 63
     7
283
     0
274
    -2
284
     1
 64
     0
275
    -2
285
     1
 65
     0
276
    -2
286
     1
 66
     0
277
    -2
287
     1
 67
     0
278
    -2
288
     1
 68
     0
279
    -2
289
     1
 69
     0
  0
VISUALSTYLE
  5
1821
102
{ACAD_XDICTIONARY
360
2D2A
102
}
102
{ACAD_REACTORS
330
181B
102
}
330
181B
100
AcDbVisualStyle
  2
2dWireframe
 70
     4
 71
     0
 72
     2
 73
     0
 90
        0
 40
-0.6
 41
-30.0
 62
     5
 63
     7
 74
     1
 91
        4
 64
     7
 65
   257
 75
     1
175
     1
 42
1.0
 92
        0
 66
   257
 43
1.0
 76
     1
 77
     6
 78
     2
 67
     7
 79
     5
170
     0
171
     0
290
     0
174
     0
 93
        1
 44
0.0
173
     0
291
     0
 45
0.0
1001
ACAD
1000
AcDbSavedByObjectVersion
1070
     0
  0
VISUALSTYLE
  5
2D58
102
{ACAD_XDICTIONARY
360
2D6B
102
}
102
{ACAD_REACTORS
330
181B
102
}
330
181B
100
AcDbVisualStyle
  2
3D Hidden
 70
     6
 71
     1
 72
     2
 73
     2
 90
        0
 40
-0.6
 41
-30.0
 62
     5
 63
     7
421
 16777215
 74
     2
 91
        2
 64
     7
 65
   257
 75
     2
175
     1
 42
179.0
 92
        0
 66
   257
 43
1.0
 76
     1
 77
     6
 78
     2
 67
     7
 79
     3
170
     0
171
     0
290
     0
174
     0
 93
        1
 44
0.0
173
     0
291
     0
 45
0.0
1001
ACAD
1000
AcDbSavedByObjectVersion
1070
     0
  0
VISUALSTYLE
  5
2D57
102
{ACAD_XDICTIONARY
360
2D69
102
}
102
{ACAD_REACTORS
330
181B
102
}
330
181B
100
AcDbVisualStyle
  2
3dWireframe
 70
     5
 71
     0
 72
     2
 73
     0
 90
        0
 40
-0.6
 41
-30.0
 62
     5
 63
     7
421
 16777215
 74
     1
 91
        4
 64
     7
 65
   257
 75
     1
175
     1
 42
1.0
 92
        0
 66
   257
 43
1.0
 76
     1
 77
     6
 78
     2
 67
     7
 79
     5
170
     0
171
     0
290
     0
174
     0
 93
        1
 44
0.0
173
     0
291
     0
 45
0.0
1001
ACAD
1000
AcDbSavedByObjectVersion
1070
     0
  0
VISUALSTYLE
  5
1820
102
{ACAD_XDICTIONARY
360
2D28
102
}
102
{ACAD_REACTORS
330
181B
102
}
330
181B
100
AcDbVisualStyle
  2
Basic
 70
     7
 71
     1
 72
     0
 73
     1
 90
        0
 40
-0.6
 41
-30.0
 62
     5
 63
     7
 74
     0
 91
        4
 64
     7
 65
   257
 75
     1
175
     1
 42
1.0
 92
        8
 66
     7
 43
1.0
 76
     1
 77
     6
 78
     2
 67
     7
 79
     5
170
     0
171
     0
290
     0
174
     0
 93
        1
 44
0.0
173
     0
291
     1
 45
0.0
1001
ACAD
1000
AcDbSavedByObjectVersion
1070
     0
  0
VISUALSTYLE
  5
1827
102
{ACAD_XDICTIONARY
360
2D36
102
}
102
{ACAD_REACTORS
330
181B
102
}
330
181B
100
AcDbVisualStyle
  2
Brighten
 70
    12
 71
     2
 72
     2
 73
     0
 90
        0
 40
-0.6
 41
-30.0
 62
     5
 63
     7
 74
     1
 91
        4
 64
     7
 65
   257
 75
     1
175
     1
 42
1.0
 92
        8
 66
     7
 43
1.0
 76
     1
 77
     6
 78
     2
 67
     7
 79
     5
170
     0
171
     0
290
     0
174
     0
 93
        1
 44
50.0
173
     0
291
     1
 45
0.0
1001
ACAD
1000
AcDbSavedByObjectVersion
1070
     0
  0
VISUALSTYLE
  5
182B
102
{ACAD_XDICTIONARY
360
2D3E
102
}
102
{ACAD_REACTORS
330
181B
102
}
330
181B
100
AcDbVisualStyle
  2
ColorChange
 70
    16
 71
     2
 72
     2
 73
     3
 90
        0
 40
-0.6
 41
-30.0
 62
     5
 63
     8
 74
     1
 91
        4
 64
     7
 65
   257
 75
     1
175
     1
 42
1.0
 92
        8
 66
     8
 43
1.0
 76
     1
 77
     6
 78
     2
 67
     7
 79
     5
170
     0
171
     0
290
     0
174
     0
 93
        1
 44
0.0
173
     0
291
     1
 45
0.0
1001
ACAD
1000
AcDbSavedByObjectVersion
1070
     0
  0
VISUALSTYLE
  5
1824
102
{ACAD_XDICTIONARY
360
2D30
102
}
102
{ACAD_REACTORS
330
181B
102
}
330
181B
100
AcDbVisualStyle
  2
Conceptual
 70
     9
 71
     3
 72
     2
 73
     0
 90
        0
 40
-0.6
 41
-30.0
 62
     5
 63
     7
 74
     2
 91
        2
 64
     7
 65
   257
 75
     1
175
     1
 42
179.0
 92
        8
 66
     7
 43
1.0
 76
     1
 77
     6
 78
     2
 67
     7
 79
     3
170
     0
171
     0
290
     0
174
     0
 93
        1
 44
0.0
173
     0
291
     0
 45
0.0
1001
ACAD
1000
AcDbSavedByObjectVersion
1070
     0
  0
VISUALSTYLE
  5
1826
102
{ACAD_XDICTIONARY
360
2D34
102
}
102
{ACAD_REACTORS
330
181B
102
}
330
181B
100
AcDbVisualStyle
  2
Dim
 70
    11
 71
     2
 72
     2
 73
     0
 90
        0
 40
-0.6
 41
-30.0
 62
     5
 63
     7
 74
     1
 91
        4
 64
     7
 65
   257
 75
     1
175
     1
 42
1.0
 92
        8
 66
     7
 43
1.0
 76
     1
 77
     6
 78
     2
 67
     7
 79
     5
170
     0
171
     0
290
     0
174
     0
 93
        1
 44
-50.0
173
     0
291
     1
 45
0.0
1001
ACAD
1000
AcDbSavedByObjectVersion
1070
     0
  0
VISUALSTYLE
  5
1833
102
{ACAD_XDICTIONARY
360
2D4E
102
}
102
{ACAD_REACTORS
330
181B
102
}
330
181B
100
AcDbVisualStyle
  2
EdgeColorOff
 70
    22
 71
     2
 72
     2
 73
     0
 90
        0
 40
-0.6
 41
-30.0
 62
     5
 63
     7
 74
     1
 91
        4
 64
     7
 65
   257
 75
     1
175
     1
 42
1.0
 92
        8
 66
     7
 43
1.0
 76
     1
 77
     6
 78
     2
 67
     7
 79
     5
170
     0
171
     0
290
     0
174
     0
 93
        1
 44
0.0
173
     0
291
     1
 45
0.0
1001
ACAD
1000
AcDbSavedByObjectVersion
1070
     0
  0
VISUALSTYLE
  5
182A
102
{ACAD_XDICTIONARY
360
2D3C
102
}
102
{ACAD_REACTORS
330
181B
102
}
330
181B
100
AcDbVisualStyle
  2
Facepattern
 70
    15
 71
     2
 72
     2
 73
     0
 90
        0
 40
-0.6
 41
-30.0
 62
     5
 63
     7
 74
     1
 91
        4
 64
     7
 65
   257
 75
     1
175
     1
 42
1.0
 92
        8
 66
     7
 43
1.0
 76
     1
 77
     6
 78
     2
 67
     7
 79
     5
170
     0
171
     0
290
     0
174
     0
 93
        1
 44
0.0
173
     0
291
     1
 45
0.0
1001
ACAD
1000
AcDbSavedByObjectVersion
1070
     0
  0
VISUALSTYLE
  5
181C
102
{ACAD_XDICTIONARY
360
2D20
102
}
102
{ACAD_REACTORS
330
181B
102
}
330
181B
100
AcDbVisualStyle
  2
Flat
 70
     0
 71
     2
 72
     1
 73
     1
 90
        2
 40
-0.6
 41
30.0
 62
     5
 63
     7
 74
     0
 91
        0
 64
     7
 65
   257
 75
     1
175
     1
 42
1.0
 92
        8
 66
     7
 43
1.0
 76
     1
 77
     6
 78
     2
 67
     7
 79
     5
170
     0
171
     0
290
     0
174
     0
 93
       13
 44
0.0
173
     0
291
     1
 45
0.0
1001
ACAD
1000
AcDbSavedByObjectVersion
1070
     0
  0
VISUALSTYLE
  5
181D
102
{ACAD_XDICTIONARY
360
2D22
102
}
102
{ACAD_REACTORS
330
181B
102
}
330
181B
100
AcDbVisualStyle
  2
FlatWithEdges
 70
     1
 71
     2
 72
     1
 73
     1
 90
        2
 40
-0.6
 41
30.0
 62
     5
 63
     7
 74
     1
 91
        0
 64
     7
 65
   257
 75
     1
175
     1
 42
1.0
 92
        0
 66
   257
 43
1.0
 76
     1
 77
     6
 78
     2
 67
     7
 79
     5
170
     0
171
     0
290
     0
174
     0
 93
       13
 44
0.0
173
     0
291
     1
 45
0.0
1001
ACAD
1000
AcDbSavedByObjectVersion
1070
     0
  0
VISUALSTYLE
  5
181E
102
{ACAD_XDICTIONARY
360
2D24
102
}
102
{ACAD_REACTORS
330
181B
102
}
330
181B
100
AcDbVisualStyle
  2
Gouraud
 70
     2
 71
     2
 72
     2
 73
     1
 90
        2
 40
-0.6
 41
30.0
 62
     5
 63
     7
 74
     0
 91
        0
 64
     7
 65
   257
 75
     1
175
     1
 42
1.0
 92
        0
 66
     7
 43
1.0
 76
     1
 77
     6
 78
     2
 67
     7
 79
     5
170
     0
171
     0
290
     0
174
     0
 93
       13
 44
0.0
173
     0
291
     1
 45
0.0
1001
ACAD
1000
AcDbSavedByObjectVersion
1070
     0
  0
VISUALSTYLE
  5
181F
102
{ACAD_XDICTIONARY
360
2D26
102
}
102
{ACAD_REACTORS
330
181B
102
}
330
181B
100
AcDbVisualStyle
  2
GouraudWithEdges
 70
     3
 71
     2
 72
     2
 73
     1
 90
        2
 40
-0.6
 41
30.0
 62
     5
 63
     7
 74
     1
 91
        0
 64
     7
 65
   257
 75
     1
175
     1
 42
1.0
 92
        0
 66
   257
 43
1.0
 76
     1
 77
     6
 78
     2
 67
     7
 79
     5
170
     0
171
     0
290
     0
174
     0
 93
       13
 44
0.0
173
     0
291
     1
 45
0.0
1001
ACAD
1000
AcDbSavedByObjectVersion
1070
     0
  0
VISUALSTYLE
  5
1823
102
{ACAD_XDICTIONARY
360
2D2E
102
}
102
{ACAD_REACTORS
330
181B
102
}
330
181B
100
AcDbVisualStyle
  2
Hidden
 70
     6
 71
     1
 72
     2
 73
     2
 90
        0
 40
-0.6
 41
-30.0
 62
     5
 63
     7
 74
     2
 91
        2
 64
     7
 65
   257
 75
     2
175
     1
 42
40.0
 92
        0
 66
   257
 43
1.0
 76
     1
 77
     6
 78
     2
 67
     7
 79
     3
170
     0
171
     0
290
     0
174
     0
 93
        1
 44
0.0
173
     0
291
     0
 45
0.0
1001
ACAD
1000
AcDbSavedByObjectVersion
1070
     0
  0
VISUALSTYLE
  5
1831
102
{ACAD_XDICTIONARY
360
2D4A
102
}
102
{ACAD_REACTORS
330
181B
102
}
330
181B
100
AcDbVisualStyle
  2
JitterOff
 70
    20
 71
     2
 72
     2
 73
     0
 90
        0
 40
-0.6
 41
-30.0
 62
     5
 63
     7
 74
     1
 91
        4
 64
     7
 65
   257
 75
     1
175
     1
 42
1.0
 92
       10
 66
     7
 43
1.0
 76
     1
 77
     6
 78
     2
 67
     7
 79
     5
170
     0
171
     0
290
     0
174
     0
 93
        1
 44
0.0
173
     0
291
     1
 45
0.0
1001
ACAD
1000
AcDbSavedByObjectVersion
1070
     0
  0
VISUALSTYLE
  5
1829
102
{ACAD_XDICTIONARY
360
2D3A
102
}
102
{ACAD_REACTORS
330
181B
102
}
330
181B
100
AcDbVisualStyle
  2
Linepattern
 70
    14
 71
     2
 72
     2
 73
     0
 90
        0
 40
-0.6
 41
-30.0
 62
     5
 63
     7
 74
     1
 91
        4
 64
     7
 65
   257
 75
     7
175
     7
 42
1.0
 92
        8
 66
     7
 43
1.0
 76
     1
 77
     6
 78
     2
 67
     7
 79
     5
170
     0
171
     0
290
     0
174
     0
 93
        1
 44
0.0
173
     0
291
     1
 45
0.0
1001
ACAD
1000
AcDbSavedByObjectVersion
1070
     0
  0
VISUALSTYLE
  5
1832
102
{ACAD_XDICTIONARY
360
2D4C
102
}
102
{ACAD_REACTORS
330
181B
102
}
330
181B
100
AcDbVisualStyle
  2
OverhangOff
 70
    21
 71
     2
 72
     2
 73
     0
 90
        0
 40
-0.6
 41
-30.0
 62
     5
 63
     7
 74
     1
 91
        4
 64
     7
 65
   257
 75
     1
175
     1
 42
1.0
 92
        9
 66
     7
 43
1.0
 76
     1
 77
     6
 78
     2
 67
     7
 79
     5
170
     0
171
     0
290
     0
174
     0
 93
        1
 44
0.0
173
     0
291
     1
 45
0.0
1001
ACAD
1000
AcDbSavedByObjectVersion
1070
     0
  0
VISUALSTYLE
  5
1825
102
{ACAD_XDICTIONARY
360
2D32
102
}
102
{ACAD_REACTORS
330
181B
102
}
330
181B
100
AcDbVisualStyle
  2
Realistic
 70
     8
 71
     2
 72
     2
 73
     0
 90
        2
 40
-0.6
 41
30.0
 62
     5
 63
     7
 74
     0
 91
        0
 64
     7
 65
   257
 75
     1
175
     1
 42
1.0
 92
        8
 66
   257
 43
1.0
 76
     1
 77
     6
 78
     2
 67
     7
 79
     3
170
     0
171
     0
290
     0
174
     0
 93
       13
 44
0.0
173
     0
291
     0
 45
0.0
1001
ACAD
1000
AcDbSavedByObjectVersion
1070
     0
  0
VISUALSTYLE
  5
1830
102
{ACAD_XDICTIONARY
360
2D48
102
}
102
{ACAD_REACTORS
330
181B
102
}
330
181B
100
AcDbVisualStyle
  2
Shaded
 70
    27
 71
     2
 72
     2
 73
     1
 90
        2
 40
-0.6
 41
30.0
 62
     5
 63
     7
 74
     0
 91
        4
 64
     7
 65
   257
 75
     1
175
     1
 42
1.0
 92
        8
 66
   257
 43
1.0
 76
     1
 77
     6
 78
     2
 67
     8
 79
     3
170
     0
171
     0
290
     0
174
     0
 93
        5
 44
0.0
173
     0
291
     0
 45
0.0
1001
ACAD
1000
AcDbSavedByObjectVersion
1070
     0
  0
VISUALSTYLE
  5
182F
102
{ACAD_XDICTIONARY
360
2D46
102
}
102
{ACAD_REACTORS
330
181B
102
}
330
181B
100
AcDbVisualStyle
  2
Shaded with edges
 70
    26
 71
     2
 72
     2
 73
     1
 90
        2
 40
-0.6
 41
30.0
 62
     5
 63
     7
 74
     1
 91
       10
 64
     7
 65
   257
 75
     2
175
     1
 42
1.0
 92
        8
 66
   257
 43
1.0
 76
     1
 77
     6
 78
     2
 67
     7
 79
     3
170
     0
171
     0
290
     0
174
     0
 93
        5
 44
0.0
173
     0
291
     0
 45
0.0
1001
ACAD
1000
AcDbSavedByObjectVersion
1070
     0
  0
VISUALSTYLE
  5
182C
102
{ACAD_XDICTIONARY
360
2D40
102
}
102
{ACAD_REACTORS
330
181B
102
}
330
181B
100
AcDbVisualStyle
  2
Shades of Gray
 70
    23
 71
     2
 72
     2
 73
     3
 90
        0
 40
-0.6
 41
-30.0
 62
     5
 63
     7
 74
     2
 91
        2
 64
     7
 65
     7
 75
     1
175
     1
 42
40.0
 92
        8
 66
     7
 43
1.0
 76
     1
 77
     6
 78
     2
 67
     7
 79
     3
170
     0
171
     0
290
     0
174
     0
 93
        1
 44
0.0
173
     0
291
     0
 45
0.0
1001
ACAD
1000
AcDbSavedByObjectVersion
1070
     0
  0
VISUALSTYLE
  5
182D
102
{ACAD_XDICTIONARY
360
2D42
102
}
102
{ACAD_REACTORS
330
181B
102
}
330
181B
100
AcDbVisualStyle
  2
Sketchy
 70
    24
 71
     1
 72
     2
 73
     2
 90
        0
 40
-0.6
 41
-30.0
 62
     5
 63
     7
 74
     2
 91
        2
 64
     7
 65
     7
 75
     1
175
     1
 42
40.0
 92
       11
 66
     7
 43
1.0
 76
     1
 77
     6
 78
     2
 67
     7
 79
     6
170
     0
171
     0
290
     0
174
     0
 93
        1
 44
0.0
173
     0
291
     0
 45
0.0
1001
ACAD
1000
AcDbSavedByObjectVersion
1070
     0
  0
VISUALSTYLE
  5
1828
102
{ACAD_XDICTIONARY
360
2D38
102
}
102
{ACAD_REACTORS
330
181B
102
}
330
181B
100
AcDbVisualStyle
  2
Thicken
 70
    13
 71
     2
 72
     2
 73
     0
 90
        0
 40
-0.6
 41
-30.0
 62
     5
 63
     7
 74
     1
 91
        4
 64
     7
 65
   257
 75
     1
175
     1
 42
1.0
 92
       12
 66
     7
 43
1.0
 76
     1
 77
     6
 78
     2
 67
     7
 79
     5
170
     0
171
     0
290
     0
174
     0
 93
        1
 44
0.0
173
     0
291
     1
 45
0.0
1001
ACAD
1000
AcDbSavedByObjectVersion
1070
     0
  0
VISUALSTYLE
  5
1822
102
{ACAD_XDICTIONARY
360
2D2C
102
}
102
{ACAD_REACTORS
330
181B
102
}
330
181B
100
AcDbVisualStyle
  2
Wireframe
 70
     5
 71
     0
 72
     2
 73
     0
 90
        0
 40
-0.6
 41
-30.0
 62
     5
 63
     7
 74
     1
 91
        4
 64
     7
 65
   257
 75
     1
175
     1
 42
1.0
 92
        0
 66
   257
 43
1.0
 76
     1
 77
     6
 78
     2
 67
     7
 79
     3
170
     0
171
     0
290
     0
174
     0
 93
        1
 44
0.0
173
     0
291
     0
 45
0.0
1001
ACAD
1000
AcDbSavedByObjectVersion
1070
     0
  0
VISUALSTYLE
  5
182E
102
{ACAD_XDICTIONARY
360
2D44
102
}
102
{ACAD_REACTORS
330
181B
102
}
330
181B
100
AcDbVisualStyle
  2
X-Ray
 70
    25
 71
     2
 72
     2
 73
     1
 90
        1
 40
0.5
 41
-30.0
 62
     5
 63
     7
 74
     1
 91
        0
 64
     7
 65
   257
 75
     1
175
     1
 42
1.0
 92
        8
 66
     7
 43
1.0
 76
     1
 77
     6
 78
     2
 67
     7
 79
     3
170
     0
171
     0
290
     0
174
     0
 93
       13
 44
0.0
173
     0
291
     0
 45
0.0
1001
ACAD
1000
AcDbSavedByObjectVersion
1070
     0
  0
DICTIONARYVAR
  5
1969
102
{ACAD_REACTORS
330
1965
102
}
330
1965
100
DictionaryVariables
280
     0
  1
1:1
  0
DICTIONARYVAR
  5
1967
102
{ACAD_REACTORS
330
1965
102
}
330
1965
100
DictionaryVariables
280
     0
  1
STANDARD
  0
DICTIONARYVAR
  5
1966
102
{ACAD_REACTORS
330
1965
102
}
330
1965
100
DictionaryVariables
280
     0
  1
STANDARD
  0
DICTIONARYVAR
  5
2D53
102
{ACAD_REACTORS
330
1965
102
}
330
1965
100
DictionaryVariables
280
     0
  1
Metric50
  0
DICTIONARYVAR
  5
2D54
102
{ACAD_REACTORS
330
1965
102
}
330
1965
100
DictionaryVariables
280
     0
  1
Metric50
  0
DICTIONARYVAR
  5
1E88
102
{ACAD_REACTORS
330
1965
102
}
330
1965
100
DictionaryVariables
280
     0
  1
1
  0
DICTIONARYVAR
  5
1E87
102
{ACAD_REACTORS
330
1965
102
}
330
1965
100
DictionaryVariables
280
     0
  1
0
  0
DICTIONARYVAR
  5
196B
102
{ACAD_REACTORS
330
1965
102
}
330
1965
100
DictionaryVariables
280
     0
  1
1
  0
DICTIONARYVAR
  5
196C
102
{ACAD_REACTORS
330
1965
102
}
330
1965
100
DictionaryVariables
280
     0
  1
15
  0
DICTIONARYVAR
  5
196A
102
{ACAD_REACTORS
330
1965
102
}
330
1965
100
DictionaryVariables
280
     0
  1
0
  0
DICTIONARYVAR
  5
1968
102
{ACAD_REACTORS
330
1965
102
}
330
1965
100
DictionaryVariables
280
     0
  1
0
  0
DICTIONARYVAR
  5
1E86
102
{ACAD_REACTORS
330
1965
102
}
330
1965
100
DictionaryVariables
280
     0
  1
127
  0
DICTIONARYVAR
  5
2D5C
102
{ACAD_REACTORS
330
1965
102
}
330
1965
100
DictionaryVariables
280
     0
  1
2
  0
DICTIONARY
  5
18CA
102
{ACAD_REACTORS
330
18C9
102
}
330
18C9
100
AcDbDictionary
281
     1
  0
DICTIONARY
  5
180C
330
180B
100
AcDbDictionary
280
     1
281
     1
  3
ACAD_XREC_ROUNDTRIP
360
2D66
  3
BUMPTILE
360
180E
  3
DIFFUSETILE
360
180D
  3
OPACITYTILE
360
1811
  3
REFLECTIONTILE
360
1810
  3
REFRACTIONTILE
360
1812
  3
SPECULARTILE
360
180F
  0
DICTIONARY
  5
1804
330
1803
100
AcDbDictionary
280
     1
281
     1
  3
ACAD_XREC_ROUNDTRIP
360
2D65
  3
BUMPTILE
360
1806
  3
DIFFUSETILE
360
1805
  3
OPACITYTILE
360
1809
  3
REFLECTIONTILE
360
1808
  3
REFRACTIONTILE
360
180A
  3
SPECULARTILE
360
1807
  0
DICTIONARY
  5
1814
330
1813
100
AcDbDictionary
280
     1
281
     1
  3
ACAD_XREC_ROUNDTRIP
360
2D67
  3
BUMPTILE
360
1816
  3
DIFFUSETILE
360
1815
  3
OPACITYTILE
360
1819
  3
REFLECTIONTILE
360
1818
  3
REFRACTIONTILE
360
181A
  3
SPECULARTILE
360
1817
  0
DICTIONARY
  5
2D51
330
184A
100
AcDbDictionary
280
     1
281
     1
  3
ACAD_XREC_ROUNDTRIP
360
2D52
  0
DICTIONARY
  5
1E48
330
1836
100
AcDbDictionary
280
     1
281
     1
  3
ACAD_ROUNDTRIP_2008_TABLESTYLE_CELLSTYLEMAP
360
2D5D
  3
ACAD_XREC_ROUNDTRIP
360
2D68
  0
DICTIONARY
  5
2D2A
330
1821
100
AcDbDictionary
280
     1
281
     1
  3
ACAD_XREC_ROUNDTRIP
360
2D2B
  0
DICTIONARY
  5
2D6B
330
2D58
100
AcDbDictionary
280
     1
281
     1
  3
ACAD_XREC_ROUNDTRIP
360
2D6C
  0
DICTIONARY
  5
2D69
330
2D57
100
AcDbDictionary
280
     1
281
     1
  3
ACAD_XREC_ROUNDTRIP
360
2D6A
  0
DICTIONARY
  5
2D28
330
1820
100
AcDbDictionary
280
     1
281
     1
  3
ACAD_XREC_ROUNDTRIP
360
2D29
  0
DICTIONARY
  5
2D36
330
1827
100
AcDbDictionary
280
     1
281
     1
  3
ACAD_XREC_ROUNDTRIP
360
2D37
  0
DICTIONARY
  5
2D3E
330
182B
100
AcDbDictionary
280
     1
281
     1
  3
ACAD_XREC_ROUNDTRIP
360
2D3F
  0
DICTIONARY
  5
2D30
330
1824
100
AcDbDictionary
280
     1
281
     1
  3
ACAD_XREC_ROUNDTRIP
360
2D31
  0
DICTIONARY
  5
2D34
330
1826
100
AcDbDictionary
280
     1
281
     1
  3
ACAD_XREC_ROUNDTRIP
360
2D35
  0
DICTIONARY
  5
2D4E
330
1833
100
AcDbDictionary
280
     1
281
     1
  3
ACAD_XREC_ROUNDTRIP
360
2D4F
  0
DICTIONARY
  5
2D3C
330
182A
100
AcDbDictionary
280
     1
281
     1
  3
ACAD_XREC_ROUNDTRIP
360
2D3D
  0
DICTIONARY
  5
2D20
330
181C
100
AcDbDictionary
280
     1
281
     1
  3
ACAD_XREC_ROUNDTRIP
360
2D21
  0
DICTIONARY
  5
2D22
330
181D
100
AcDbDictionary
280
     1
281
     1
  3
ACAD_XREC_ROUNDTRIP
360
2D23
  0
DICTIONARY
  5
2D24
330
181E
100
AcDbDictionary
280
     1
281
     1
  3
ACAD_XREC_ROUNDTRIP
360
2D25
  0
DICTIONARY
  5
2D26
330
181F
100
AcDbDictionary
280
     1
281
     1
  3
ACAD_XREC_ROUNDTRIP
360
2D27
  0
DICTIONARY
  5
2D2E
330
1823
100
AcDbDictionary
280
     1
281
     1
  3
ACAD_XREC_ROUNDTRIP
360
2D2F
  0
DICTIONARY
  5
2D4A
330
1831
100
AcDbDictionary
280
     1
281
     1
  3
ACAD_XREC_ROUNDTRIP
360
2D4B
  0
DICTIONARY
  5
2D3A
330
1829
100
AcDbDictionary
280
     1
281
     1
  3
ACAD_XREC_ROUNDTRIP
360
2D3B
  0
DICTIONARY
  5
2D4C
330
1832
100
AcDbDictionary
280
     1
281
     1
  3
ACAD_XREC_ROUNDTRIP
360
2D4D
  0
DICTIONARY
  5
2D32
330
1825
100
AcDbDictionary
280
     1
281
     1
  3
ACAD_XREC_ROUNDTRIP
360
2D33
  0
DICTIONARY
  5
2D48
330
1830
100
AcDbDictionary
280
     1
281
     1
  3
ACAD_XREC_ROUNDTRIP
360
2D49
  0
DICTIONARY
  5
2D46
330
182F
100
AcDbDictionary
280
     1
281
     1
  3
ACAD_XREC_ROUNDTRIP
360
2D47
  0
DICTIONARY
  5
2D40
330
182C
100
AcDbDictionary
280
     1
281
     1
  3
ACAD_XREC_ROUNDTRIP
360
2D41
  0
DICTIONARY
  5
2D42
330
182D
100
AcDbDictionary
280
     1
281
     1
  3
ACAD_XREC_ROUNDTRIP
360
2D43
  0
DICTIONARY
  5
2D38
330
1828
100
AcDbDictionary
280
     1
281
     1
  3
ACAD_XREC_ROUNDTRIP
360
2D39
  0
DICTIONARY
  5
2D2C
330
1822
100
AcDbDictionary
280
     1
281
     1
  3
ACAD_XREC_ROUNDTRIP
360
2D2D
  0
DICTIONARY
  5
2D44
330
182E
100
AcDbDictionary
280
     1
281
     1
  3
ACAD_XREC_ROUNDTRIP
360
2D45
  0
XRECORD
  5
2D66
102
{ACAD_REACTORS
330
180C
102
}
330
180C
100
AcDbXrecord
280
     1
102
MATERIAL
148
0.0
149
0.0
149
0.0
 93
        0
 94
      127
282
     0
 72
     0
 77
     0
171
     0
175
     0
179
     0
273
     0
  0
XRECORD
  5
180E
102
{ACAD_REACTORS
330
180C
102
}
330
180C
100
AcDbXrecord
280
     1
270
     1
271
     1
  0
XRECORD
  5
180D
102
{ACAD_REACTORS
330
180C
102
}
330
180C
100
AcDbXrecord
280
     1
270
     1
271
     1
  0
XRECORD
  5
1811
102
{ACAD_REACTORS
330
180C
102
}
330
180C
100
AcDbXrecord
280
     1
270
     1
271
     1
  0
XRECORD
  5
1810
102
{ACAD_REACTORS
330
180C
102
}
330
180C
100
AcDbXrecord
280
     1
270
     1
271
     1
  0
XRECORD
  5
1812
102
{ACAD_REACTORS
330
180C
102
}
330
180C
100
AcDbXrecord
280
     1
270
     1
271
     1
  0
XRECORD
  5
180F
102
{ACAD_REACTORS
330
180C
102
}
330
180C
100
AcDbXrecord
280
     1
270
     1
271
     1
  0
XRECORD
  5
2D65
102
{ACAD_REACTORS
330
1804
102
}
330
1804
100
AcDbXrecord
280
     1
102
MATERIAL
148
0.0
149
0.0
149
0.0
 93
        0
 94
      127
282
     0
 72
     0
 77
     0
171
     0
175
     0
179
     0
273
     0
  0
XRECORD
  5
1806
102
{ACAD_REACTORS
330
1804
102
}
330
1804
100
AcDbXrecord
280
     1
270
     1
271
     1
  0
XRECORD
  5
1805
102
{ACAD_REACTORS
330
1804
102
}
330
1804
100
AcDbXrecord
280
     1
270
     1
271
     1
  0
XRECORD
  5
1809
102
{ACAD_REACTORS
330
1804
102
}
330
1804
100
AcDbXrecord
280
     1
270
     1
271
     1
  0
XRECORD
  5
1808
102
{ACAD_REACTORS
330
1804
102
}
330
1804
100
AcDbXrecord
280
     1
270
     1
271
     1
  0
XRECORD
  5
180A
102
{ACAD_REACTORS
330
1804
102
}
330
1804
100
AcDbXrecord
280
     1
270
     1
271
     1
  0
XRECORD
  5
1807
102
{ACAD_REACTORS
330
1804
102
}
330
1804
100
AcDbXrecord
280
     1
270
     1
271
     1
  0
XRECORD
  5
2D67
102
{ACAD_REACTORS
330
1814
102
}
330
1814
100
AcDbXrecord
280
     1
102
MATERIAL
148
0.0
149
0.0
149
0.0
 93
        0
 94
      127
282
     0
 72
     0
 77
     0
171
     0
175
     0
179
     0
273
     0
  0
XRECORD
  5
1816
102
{ACAD_REACTORS
330
1814
102
}
330
1814
100
AcDbXrecord
280
     1
270
     1
271
     1
  0
XRECORD
  5
1815
102
{ACAD_REACTORS
330
1814
102
}
330
1814
100
AcDbXrecord
280
     1
270
     1
271
     1
  0
XRECORD
  5
1819
102
{ACAD_REACTORS
330
1814
102
}
330
1814
100
AcDbXrecord
280
     1
270
     1
271
     1
  0
XRECORD
  5
1818
102
{ACAD_REACTORS
330
1814
102
}
330
1814
100
AcDbXrecord
280
     1
270
     1
271
     1
  0
XRECORD
  5
181A
102
{ACAD_REACTORS
330
1814
102
}
330
1814
100
AcDbXrecord
280
     1
270
     1
271
     1
  0
XRECORD
  5
1817
102
{ACAD_REACTORS
330
1814
102
}
330
1814
100
AcDbXrecord
280
     1
270
     1
271
     1
  0
XRECORD
  5
2D52
102
{ACAD_REACTORS
330
2D51
102
}
330
2D51
100
AcDbXrecord
280
     1
102
ACAD_ROUNDTRIP_2012_MLEADER_STYLE
298
     1
  0
CELLSTYLEMAP
  5
2D5D
102
{ACAD_REACTORS
330
1E48
102
}
330
1E48
100
AcDbCellStyleMap
 90
        3
300
CELLSTYLE
  1
TABLEFORMAT_BEGIN
 90
        5
170
     1
 91
        0
 92
    32768
 62
   257
 93
        1
300
CONTENTFORMAT
  1
CONTENTFORMAT_BEGIN
 90
        0
 91
        0
 92
      512
 93
        0
300

 40
0.0
140
1.0
 94
        5
 62
     0
340
23
144
6.0
309
CONTENTFORMAT_END
171
     1
301
MARGIN
  1
CELLMARGIN_BEGIN
 40
1.5
 40
1.5
 40
1.5
 40
1.5
 40
4.5
 40
4.5
309
CELLMARGIN_END
 94
        6
 95
        1
302
GRIDFORMAT
  1
GRIDFORMAT_BEGIN
 90
        0
 91
        1
 62
     0
 92
       -2
340
0
 93
        0
 40
1.125
309
GRIDFORMAT_END
 95
        2
302
GRIDFORMAT
  1
GRIDFORMAT_BEGIN
 90
        0
 91
        1
 62
     0
 92
       -2
340
0
 93
        0
 40
1.125
309
GRIDFORMAT_END
 95
        4
302
GRIDFORMAT
  1
GRIDFORMAT_BEGIN
 90
        0
 91
        1
 62
     0
 92
       -2
340
0
 93
        0
 40
1.125
309
GRIDFORMAT_END
 95
        8
302
GRIDFORMAT
  1
GRIDFORMAT_BEGIN
 90
        0
 91
        1
 62
     0
 92
       -2
340
0
 93
        0
 40
1.125
309
GRIDFORMAT_END
 95
       16
302
GRIDFORMAT
  1
GRIDFORMAT_BEGIN
 90
        0
 91
        1
 62
     0
 92
       -2
340
0
 93
        0
 40
1.125
309
GRIDFORMAT_END
 95
       32
302
GRIDFORMAT
  1
GRIDFORMAT_BEGIN
 90
        0
 91
        1
 62
     0
 92
       -2
340
0
 93
        0
 40
1.125
309
GRIDFORMAT_END
309
TABLEFORMAT_END
  1
CELLSTYLE_BEGIN
 90
        1
 91
        1
300
_TITLE
309
CELLSTYLE_END
300
CELLSTYLE
  1
TABLEFORMAT_BEGIN
 90
        5
170
     1
 91
        0
 92
        0
 62
   257
 93
        1
300
CONTENTFORMAT
  1
CONTENTFORMAT_BEGIN
 90
        0
 91
        0
 92
      512
 93
        0
300

 40
0.0
140
1.0
 94
        5
 62
     0
340
23
144
4.5
309
CONTENTFORMAT_END
171
     1
301
MARGIN
  1
CELLMARGIN_BEGIN
 40
1.5
 40
1.5
 40
1.5
 40
1.5
 40
4.5
 40
4.5
309
CELLMARGIN_END
 94
        6
 95
        1
302
GRIDFORMAT
  1
GRIDFORMAT_BEGIN
 90
        0
 91
        1
 62
     0
 92
       -2
340
0
 93
        0
 40
1.125
309
GRIDFORMAT_END
 95
        2
302
GRIDFORMAT
  1
GRIDFORMAT_BEGIN
 90
        0
 91
        1
 62
     0
 92
       -2
340
0
 93
        0
 40
1.125
309
GRIDFORMAT_END
 95
        4
302
GRIDFORMAT
  1
GRIDFORMAT_BEGIN
 90
        0
 91
        1
 62
     0
 92
       -2
340
0
 93
        0
 40
1.125
309
GRIDFORMAT_END
 95
        8
302
GRIDFORMAT
  1
GRIDFORMAT_BEGIN
 90
        0
 91
        1
 62
     0
 92
       -2
340
0
 93
        0
 40
1.125
309
GRIDFORMAT_END
 95
       16
302
GRIDFORMAT
  1
GRIDFORMAT_BEGIN
 90
        0
 91
        1
 62
     0
 92
       -2
340
0
 93
        0
 40
1.125
309
GRIDFORMAT_END
 95
       32
302
GRIDFORMAT
  1
GRIDFORMAT_BEGIN
 90
        0
 91
        1
 62
     0
 92
       -2
340
0
 93
        0
 40
1.125
309
GRIDFORMAT_END
309
TABLEFORMAT_END
  1
CELLSTYLE_BEGIN
 90
        2
 91
        1
300
_HEADER
309
CELLSTYLE_END
300
CELLSTYLE
  1
TABLEFORMAT_BEGIN
 90
        5
170
     1
 91
        0
 92
        0
 62
   257
 93
        1
300
CONTENTFORMAT
  1
CONTENTFORMAT_BEGIN
 90
        0
 91
        0
 92
      512
 93
        0
300

 40
0.0
140
1.0
 94
        2
 62
     0
340
23
144
4.5
309
CONTENTFORMAT_END
171
     1
301
MARGIN
  1
CELLMARGIN_BEGIN
 40
1.5
 40
1.5
 40
1.5
 40
1.5
 40
4.5
 40
4.5
309
CELLMARGIN_END
 94
        6
 95
        1
302
GRIDFORMAT
  1
GRIDFORMAT_BEGIN
 90
        0
 91
        1
 62
     0
 92
       -2
340
0
 93
        0
 40
1.125
309
GRIDFORMAT_END
 95
        2
302
GRIDFORMAT
  1
GRIDFORMAT_BEGIN
 90
        0
 91
        1
 62
     0
 92
       -2
340
0
 93
        0
 40
1.125
309
GRIDFORMAT_END
 95
        4
302
GRIDFORMAT
  1
GRIDFORMAT_BEGIN
 90
        0
 91
        1
 62
     0
 92
       -2
340
0
 93
        0
 40
1.125
309
GRIDFORMAT_END
 95
        8
302
GRIDFORMAT
  1
GRIDFORMAT_BEGIN
 90
        0
 91
        1
 62
     0
 92
       -2
340
0
 93
        0
 40
1.125
309
GRIDFORMAT_END
 95
       16
302
GRIDFORMAT
  1
GRIDFORMAT_BEGIN
 90
        0
 91
        1
 62
     0
 92
       -2
340
0
 93
        0
 40
1.125
309
GRIDFORMAT_END
 95
       32
302
GRIDFORMAT
  1
GRIDFORMAT_BEGIN
 90
        0
 91
        1
 62
     0
 92
       -2
340
0
 93
        0
 40
1.125
309
GRIDFORMAT_END
309
TABLEFORMAT_END
  1
CELLSTYLE_BEGIN
 90
        3
 91
        2
300
_DATA
309
CELLSTYLE_END
  0
XRECORD
  5
2D68
102
{ACAD_REACTORS
330
1E48
102
}
330
1E48
100
AcDbXrecord
280
     1
102
ACAD_ROUNDTRIP_PRE2007_TABLESTYLE
 90
      512
 91
        0
  1

 92
      512
 93
        0
  2

 94
      512
 95
        0
  3

  0
XRECORD
  5
2D2B
102
{ACAD_REACTORS
330
2D2A
102
}
330
2D2A
100
AcDbXrecord
280
     1
102
RTVSPost2010Prop28
280
     1
102
RTVSPost2010PropOp28
 70
     1
102
RTVSPost2010Prop29
280
     1
102
RTVSPost2010PropOp29
 70
     1
102
RTVSPost2010Prop30
280
     0
102
RTVSPost2010PropOp30
 70
     1
102
RTVSPost2010Prop31
280
     0
102
RTVSPost2010PropOp31
 70
     1
102
RTVSPost2010Prop32
280
     0
102
RTVSPost2010PropOp32
 70
     1
102
RTVSPost2010Prop33
280
     0
102
RTVSPost2010PropOp33
 70
     1
102
RTVSPost2010Prop34
280
     0
102
RTVSPost2010PropOp34
 70
     1
102
RTVSPost2010Prop35
280
     0
102
RTVSPost2010PropOp35
 70
     1
102
RTVSPost2010Prop36
280
     0
102
RTVSPost2010PropOp36
 70
     1
102
RTVSPost2010Prop37
 90
       50
102
RTVSPost2010PropOp37
 70
     1
102
RTVSPost2010Prop38
140
0.0
102
RTVSPost2010PropOp38
 70
     1
102
RTVSPost2010Prop39
140
1.0
102
RTVSPost2010PropOp39
 70
     1
102
RTVSPost2010Prop40
 90
        0
102
RTVSPost2010PropOp40
 70
     1
102
RTVSPost2010Prop41ColorIndex
 90
       18
102
RTVSPost2010Prop41ColorRGB
 90
        0
102
RTVSPost2010PropOp41
 70
     1
102
RTVSPost2010Prop42
 90
       50
102
RTVSPost2010PropOp42
 70
     1
102
RTVSPost2010Prop43
 90
        3
102
RTVSPost2010PropOp43
 70
     1
102
RTVSPost2010Prop44ColorIndex
 90
        5
102
RTVSPost2010Prop44ColorRGB
 90
      255
102
RTVSPost2010PropOp44
 70
     1
102
RTVSPost2010Prop45
280
     0
102
RTVSPost2010PropOp45
 70
     1
102
RTVSPost2010Prop46
 90
       50
102
RTVSPost2010PropOp46
 70
     1
102
RTVSPost2010Prop47
 90
       50
102
RTVSPost2010PropOp47
 70
     1
102
RTVSPost2010Prop48
 90
       50
102
RTVSPost2010PropOp48
 70
     1
102
RTVSPost2010Prop49
280
     0
102
RTVSPost2010PropOp49
 70
     1
102
RTVSPost2010Prop50
 90
       50
102
RTVSPost2010PropOp50
 70
     1
102
RTVSPost2010Prop51ColorIndex
 90
      256
102
RTVSPost2010Prop51ColorRGB
 90
-16777216
102
RTVSPost2010PropOp51
 70
     0
102
RTVSPost2010Prop52
140
1.0
102
RTVSPost2010PropOp52
 70
     0
102
RTVSPost2010Prop53
 90
        2
102
RTVSPost2010PropOp53
 70
     1
102
RTVSPost2010Prop54
  1
strokes_ogs.tif
102
RTVSPost2010PropOp54
 70
     1
102
RTVSPost2010Prop55
280
     0
102
RTVSPost2010PropOp55
 70
     1
102
RTVSPost2010Prop56
140
1.0
102
RTVSPost2010PropOp56
 70
     1
102
RTVSPost2010Prop57
140
1.0
102
RTVSPost2010PropOp57
 70
     1
102
RTVSPropertyOp28
 70
     1
102
RTVSPropertyOp29
 70
     1
102
RTVSPropertyOp30
 70
     1
102
RTVSPropertyOp31
 70
     1
102
RTVSPropertyOp32
 70
     1
102
RTVSPropertyOp33
 70
     1
102
RTVSPropertyOp34
 70
     1
102
RTVSPropertyOp35
 70
     1
102
RTVSPropertyOp36
 70
     1
102
RTVSPropertyOp37
 70
     1
102
RTVSPropertyOp38
 70
     1
102
RTVSPropertyOp39
 70
     1
102
RTVSPropertyOp40
 70
     1
102
RTVSPropertyOp41
 70
     1
102
RTVSPropertyOp42
 70
     1
102
RTVSPropertyOp43
 70
     1
102
RTVSPropertyOp44
 70
     1
102
RTVSPropertyOp45
 70
     1
102
RTVSPropertyOp46
 70
     1
102
RTVSPropertyOp47
 70
     1
102
RTVSPropertyOp48
 70
     1
102
RTVSPropertyOp49
 70
     1
102
RTVSPropertyOp50
 70
     1
102
RTVSPropertyOp51
 70
     0
102
RTVSPropertyOp52
 70
     0
102
RTVSPropertyOp53
 70
     1
102
RTVSPropertyOp54
 70
     1
102
RTVSPropertyOp55
 70
     1
102
RTVSPropertyOp56
 70
     1
102
RTVSPropertyOp57
 70
     1
102
RTVSPropertyOp58
 70
     1
102
RTVSPropertyOp59
 70
     1
102
RTVSPropertyOp60
 70
     1
102
RTVSPropertyOp61
 70
     1
102
RTVSPropertyOp62
 70
     1
102
RTVSPropertyOp0
 70
     1
102
RTVSPropertyOp1
 70
     1
102
RTVSPropertyOp2
 70
     1
102
RTVSPropertyOp3
 70
     1
102
RTVSPropertyOp4
 70
     1
102
RTVSPropertyOp5
 70
     1
102
RTVSPropertyOp6
 70
     1
102
RTVSPropertyOp7
 70
     1
102
RTVSPropertyOp8
 70
     1
102
RTVSPropertyOp9
 70
     1
102
RTVSPropertyOp10
 70
     1
102
RTVSPropertyOp11
 70
     1
102
RTVSPropertyOp12
 70
     1
102
RTVSPropertyOp13
 70
     1
102
RTVSPropertyOp14
 70
     1
102
RTVSPropertyOp15
 70
     1
102
RTVSPropertyOp16
 70
     1
102
RTVSPropertyOp17
 70
     1
102
RTVSPropertyOp18
 70
     1
102
RTVSPropertyOp19
 70
     1
102
RTVSPropertyOp20
 70
     1
102
RTVSPropertyOp21
 70
     1
102
RTVSPropertyOp22
 70
     1
102
RTVSPropertyOp23
 70
     1
102
RTVSPropertyOp24
 70
     1
102
RTVSPropertyOp25
 70
     1
102
RTVSPropertyOp26
 70
     1
102
RTVSPropertyOp27
 70
     1
  0
XRECORD
  5
2D6C
102
{ACAD_REACTORS
330
2D6B
102
}
330
2D6B
100
AcDbXrecord
280
     1
102
RTVSPropertyOp0
 70
     1
102
RTVSPropertyOp1
 70
     1
102
RTVSPropertyOp2
 70
     1
102
RTVSPropertyOp3
 70
     1
102
RTVSPropertyOp4
 70
     1
102
RTVSPropertyOp5
 70
     1
102
RTVSPropertyOp6
 70
     1
102
RTVSPropertyOp7
 70
     1
102
RTVSPropertyOp8
 70
     1
102
RTVSPropertyOp9
 70
     1
102
RTVSPropertyOp10
 70
     1
102
RTVSPropertyOp11
 70
     1
102
RTVSPropertyOp12
 70
     1
102
RTVSPropertyOp13
 70
     1
102
RTVSPropertyOp14
 70
     1
102
RTVSPropertyOp15
 70
     1
102
RTVSPropertyOp16
 70
     1
102
RTVSPropertyOp17
 70
     1
102
RTVSPropertyOp18
 70
     1
102
RTVSPropertyOp19
 70
     1
102
RTVSPropertyOp20
 70
     1
102
RTVSPropertyOp21
 70
     1
102
RTVSPropertyOp22
 70
     1
102
RTVSPropertyOp23
 70
     1
102
RTVSPropertyOp24
 70
     1
102
RTVSPropertyOp25
 70
     1
102
RTVSPropertyOp26
 70
     1
102
RTVSPropertyOp27
 70
     1
  0
XRECORD
  5
2D6A
102
{ACAD_REACTORS
330
2D69
102
}
330
2D69
100
AcDbXrecord
280
     1
102
RTVSPropertyOp0
 70
     1
102
RTVSPropertyOp1
 70
     1
102
RTVSPropertyOp2
 70
     1
102
RTVSPropertyOp3
 70
     1
102
RTVSPropertyOp4
 70
     1
102
RTVSPropertyOp5
 70
     1
102
RTVSPropertyOp6
 70
     1
102
RTVSPropertyOp7
 70
     1
102
RTVSPropertyOp8
 70
     1
102
RTVSPropertyOp9
 70
     1
102
RTVSPropertyOp10
 70
     1
102
RTVSPropertyOp11
 70
     1
102
RTVSPropertyOp12
 70
     1
102
RTVSPropertyOp13
 70
     1
102
RTVSPropertyOp14
 70
     1
102
RTVSPropertyOp15
 70
     1
102
RTVSPropertyOp16
 70
     1
102
RTVSPropertyOp17
 70
     1
102
RTVSPropertyOp18
 70
     1
102
RTVSPropertyOp19
 70
     1
102
RTVSPropertyOp20
 70
     1
102
RTVSPropertyOp21
 70
     1
102
RTVSPropertyOp22
 70
     1
102
RTVSPropertyOp23
 70
     1
102
RTVSPropertyOp24
 70
     1
102
RTVSPropertyOp25
 70
     1
102
RTVSPropertyOp26
 70
     1
102
RTVSPropertyOp27
 70
     1
  0
XRECORD
  5
2D29
102
{ACAD_REACTORS
330
2D28
102
}
330
2D28
100
AcDbXrecord
280
     1
102
RTVSPost2010Prop28
280
     0
102
RTVSPost2010PropOp28
 70
     1
102
RTVSPost2010Prop29
280
     1
102
RTVSPost2010PropOp29
 70
     1
102
RTVSPost2010Prop30
280
     1
102
RTVSPost2010PropOp30
 70
     1
102
RTVSPost2010Prop31
280
     0
102
RTVSPost2010PropOp31
 70
     1
102
RTVSPost2010Prop32
280
     0
102
RTVSPost2010PropOp32
 70
     1
102
RTVSPost2010Prop33
280
     0
102
RTVSPost2010PropOp33
 70
     1
102
RTVSPost2010Prop34
280
     0
102
RTVSPost2010PropOp34
 70
     1
102
RTVSPost2010Prop35
280
     0
102
RTVSPost2010PropOp35
 70
     1
102
RTVSPost2010Prop36
280
     0
102
RTVSPost2010PropOp36
 70
     1
102
RTVSPost2010Prop37
 90
       50
102
RTVSPost2010PropOp37
 70
     1
102
RTVSPost2010Prop38
140
0.0
102
RTVSPost2010PropOp38
 70
     1
102
RTVSPost2010Prop39
140
1.0
102
RTVSPost2010PropOp39
 70
     1
102
RTVSPost2010Prop40
 90
        0
102
RTVSPost2010PropOp40
 70
     1
102
RTVSPost2010Prop41ColorIndex
 90
       18
102
RTVSPost2010Prop41ColorRGB
 90
        0
102
RTVSPost2010PropOp41
 70
     1
102
RTVSPost2010Prop42
 90
       50
102
RTVSPost2010PropOp42
 70
     1
102
RTVSPost2010Prop43
 90
        3
102
RTVSPost2010PropOp43
 70
     1
102
RTVSPost2010Prop44ColorIndex
 90
        5
102
RTVSPost2010Prop44ColorRGB
 90
      255
102
RTVSPost2010PropOp44
 70
     1
102
RTVSPost2010Prop45
280
     0
102
RTVSPost2010PropOp45
 70
     1
102
RTVSPost2010Prop46
 90
       50
102
RTVSPost2010PropOp46
 70
     1
102
RTVSPost2010Prop47
 90
       50
102
RTVSPost2010PropOp47
 70
     1
102
RTVSPost2010Prop48
 90
       50
102
RTVSPost2010PropOp48
 70
     1
102
RTVSPost2010Prop49
280
     0
102
RTVSPost2010PropOp49
 70
     1
102
RTVSPost2010Prop50
 90
       50
102
RTVSPost2010PropOp50
 70
     1
102
RTVSPost2010Prop51ColorIndex
 90
      256
102
RTVSPost2010Prop51ColorRGB
 90
-16777216
102
RTVSPost2010PropOp51
 70
     0
102
RTVSPost2010Prop52
140
1.0
102
RTVSPost2010PropOp52
 70
     0
102
RTVSPost2010Prop53
 90
        2
102
RTVSPost2010PropOp53
 70
     1
102
RTVSPost2010Prop54
  1
strokes_ogs.tif
102
RTVSPost2010PropOp54
 70
     1
102
RTVSPost2010Prop55
280
     0
102
RTVSPost2010PropOp55
 70
     1
102
RTVSPost2010Prop56
140
1.0
102
RTVSPost2010PropOp56
 70
     1
102
RTVSPost2010Prop57
140
1.0
102
RTVSPost2010PropOp57
 70
     1
102
RTVSPropertyOp28
 70
     1
102
RTVSPropertyOp29
 70
     1
102
RTVSPropertyOp30
 70
     1
102
RTVSPropertyOp31
 70
     1
102
RTVSPropertyOp32
 70
     1
102
RTVSPropertyOp33
 70
     1
102
RTVSPropertyOp34
 70
     1
102
RTVSPropertyOp35
 70
     1
102
RTVSPropertyOp36
 70
     1
102
RTVSPropertyOp37
 70
     1
102
RTVSPropertyOp38
 70
     1
102
RTVSPropertyOp39
 70
     1
102
RTVSPropertyOp40
 70
     1
102
RTVSPropertyOp41
 70
     1
102
RTVSPropertyOp42
 70
     1
102
RTVSPropertyOp43
 70
     1
102
RTVSPropertyOp44
 70
     1
102
RTVSPropertyOp45
 70
     1
102
RTVSPropertyOp46
 70
     1
102
RTVSPropertyOp47
 70
     1
102
RTVSPropertyOp48
 70
     1
102
RTVSPropertyOp49
 70
     1
102
RTVSPropertyOp50
 70
     1
102
RTVSPropertyOp51
 70
     0
102
RTVSPropertyOp52
 70
     0
102
RTVSPropertyOp53
 70
     1
102
RTVSPropertyOp54
 70
     1
102
RTVSPropertyOp55
 70
     1
102
RTVSPropertyOp56
 70
     1
102
RTVSPropertyOp57
 70
     1
102
RTVSPropertyOp58
 70
     1
102
RTVSPropertyOp59
 70
     1
102
RTVSPropertyOp60
 70
     1
102
RTVSPropertyOp61
 70
     1
102
RTVSPropertyOp62
 70
     1
102
RTVSPropertyOp0
 70
     1
102
RTVSPropertyOp1
 70
     1
102
RTVSPropertyOp2
 70
     1
102
RTVSPropertyOp3
 70
     1
102
RTVSPropertyOp4
 70
     1
102
RTVSPropertyOp5
 70
     1
102
RTVSPropertyOp6
 70
     1
102
RTVSPropertyOp7
 70
     1
102
RTVSPropertyOp8
 70
     1
102
RTVSPropertyOp9
 70
     1
102
RTVSPropertyOp10
 70
     1
102
RTVSPropertyOp11
 70
     1
102
RTVSPropertyOp12
 70
     1
102
RTVSPropertyOp13
 70
     1
102
RTVSPropertyOp14
 70
     1
102
RTVSPropertyOp15
 70
     1
102
RTVSPropertyOp16
 70
     1
102
RTVSPropertyOp17
 70
     1
102
RTVSPropertyOp18
 70
     1
102
RTVSPropertyOp19
 70
     1
102
RTVSPropertyOp20
 70
     1
102
RTVSPropertyOp21
 70
     1
102
RTVSPropertyOp22
 70
     1
102
RTVSPropertyOp23
 70
     1
102
RTVSPropertyOp24
 70
     1
102
RTVSPropertyOp25
 70
     1
102
RTVSPropertyOp26
 70
     1
102
RTVSPropertyOp27
 70
     1
  0
XRECORD
  5
2D37
102
{ACAD_REACTORS
330
2D36
102
}
330
2D36
100
AcDbXrecord
280
     1
102
RTVSPost2010Prop28
280
     0
102
RTVSPost2010PropOp28
 70
     1
102
RTVSPost2010Prop29
280
     1
102
RTVSPost2010PropOp29
 70
     1
102
RTVSPost2010Prop30
280
     1
102
RTVSPost2010PropOp30
 70
     1
102
RTVSPost2010Prop31
280
     0
102
RTVSPost2010PropOp31
 70
     1
102
RTVSPost2010Prop32
280
     0
102
RTVSPost2010PropOp32
 70
     1
102
RTVSPost2010Prop33
280
     0
102
RTVSPost2010PropOp33
 70
     1
102
RTVSPost2010Prop34
280
     0
102
RTVSPost2010PropOp34
 70
     1
102
RTVSPost2010Prop35
280
     0
102
RTVSPost2010PropOp35
 70
     1
102
RTVSPost2010Prop36
280
     0
102
RTVSPost2010PropOp36
 70
     1
102
RTVSPost2010Prop37
 90
       50
102
RTVSPost2010PropOp37
 70
     1
102
RTVSPost2010Prop38
140
0.0
102
RTVSPost2010PropOp38
 70
     1
102
RTVSPost2010Prop39
140
1.0
102
RTVSPost2010PropOp39
 70
     1
102
RTVSPost2010Prop40
 90
        0
102
RTVSPost2010PropOp40
 70
     1
102
RTVSPost2010Prop41ColorIndex
 90
       18
102
RTVSPost2010Prop41ColorRGB
 90
        0
102
RTVSPost2010PropOp41
 70
     1
102
RTVSPost2010Prop42
 90
       50
102
RTVSPost2010PropOp42
 70
     1
102
RTVSPost2010Prop43
 90
        3
102
RTVSPost2010PropOp43
 70
     1
102
RTVSPost2010Prop44ColorIndex
 90
        5
102
RTVSPost2010Prop44ColorRGB
 90
      255
102
RTVSPost2010PropOp44
 70
     1
102
RTVSPost2010Prop45
280
     0
102
RTVSPost2010PropOp45
 70
     1
102
RTVSPost2010Prop46
 90
       50
102
RTVSPost2010PropOp46
 70
     1
102
RTVSPost2010Prop47
 90
       50
102
RTVSPost2010PropOp47
 70
     1
102
RTVSPost2010Prop48
 90
       50
102
RTVSPost2010PropOp48
 70
     1
102
RTVSPost2010Prop49
280
     0
102
RTVSPost2010PropOp49
 70
     1
102
RTVSPost2010Prop50
 90
       50
102
RTVSPost2010PropOp50
 70
     1
102
RTVSPost2010Prop51ColorIndex
 90
      256
102
RTVSPost2010Prop51ColorRGB
 90
-16777216
102
RTVSPost2010PropOp51
 70
     0
102
RTVSPost2010Prop52
140
1.0
102
RTVSPost2010PropOp52
 70
     0
102
RTVSPost2010Prop53
 90
        2
102
RTVSPost2010PropOp53
 70
     1
102
RTVSPost2010Prop54
  1
strokes_ogs.tif
102
RTVSPost2010PropOp54
 70
     1
102
RTVSPost2010Prop55
280
     0
102
RTVSPost2010PropOp55
 70
     1
102
RTVSPost2010Prop56
140
1.0
102
RTVSPost2010PropOp56
 70
     1
102
RTVSPost2010Prop57
140
1.0
102
RTVSPost2010PropOp57
 70
     1
102
RTVSPropertyOp28
 70
     1
102
RTVSPropertyOp29
 70
     1
102
RTVSPropertyOp30
 70
     1
102
RTVSPropertyOp31
 70
     1
102
RTVSPropertyOp32
 70
     1
102
RTVSPropertyOp33
 70
     1
102
RTVSPropertyOp34
 70
     1
102
RTVSPropertyOp35
 70
     1
102
RTVSPropertyOp36
 70
     1
102
RTVSPropertyOp37
 70
     1
102
RTVSPropertyOp38
 70
     1
102
RTVSPropertyOp39
 70
     1
102
RTVSPropertyOp40
 70
     1
102
RTVSPropertyOp41
 70
     1
102
RTVSPropertyOp42
 70
     1
102
RTVSPropertyOp43
 70
     1
102
RTVSPropertyOp44
 70
     1
102
RTVSPropertyOp45
 70
     1
102
RTVSPropertyOp46
 70
     1
102
RTVSPropertyOp47
 70
     1
102
RTVSPropertyOp48
 70
     1
102
RTVSPropertyOp49
 70
     1
102
RTVSPropertyOp50
 70
     1
102
RTVSPropertyOp51
 70
     0
102
RTVSPropertyOp52
 70
     0
102
RTVSPropertyOp53
 70
     1
102
RTVSPropertyOp54
 70
     1
102
RTVSPropertyOp55
 70
     1
102
RTVSPropertyOp56
 70
     1
102
RTVSPropertyOp57
 70
     1
102
RTVSPropertyOp58
 70
     1
102
RTVSPropertyOp59
 70
     1
102
RTVSPropertyOp60
 70
     1
102
RTVSPropertyOp61
 70
     1
102
RTVSPropertyOp62
 70
     1
102
RTVSPropertyOp0
 70
     1
102
RTVSPropertyOp1
 70
     1
102
RTVSPropertyOp2
 70
     1
102
RTVSPropertyOp3
 70
     1
102
RTVSPropertyOp4
 70
     1
102
RTVSPropertyOp5
 70
     1
102
RTVSPropertyOp6
 70
     1
102
RTVSPropertyOp7
 70
     1
102
RTVSPropertyOp8
 70
     1
102
RTVSPropertyOp9
 70
     1
102
RTVSPropertyOp10
 70
     1
102
RTVSPropertyOp11
 70
     1
102
RTVSPropertyOp12
 70
     1
102
RTVSPropertyOp13
 70
     1
102
RTVSPropertyOp14
 70
     1
102
RTVSPropertyOp15
 70
     1
102
RTVSPropertyOp16
 70
     1
102
RTVSPropertyOp17
 70
     1
102
RTVSPropertyOp18
 70
     1
102
RTVSPropertyOp19
 70
     1
102
RTVSPropertyOp20
 70
     1
102
RTVSPropertyOp21
 70
     1
102
RTVSPropertyOp22
 70
     1
102
RTVSPropertyOp23
 70
     1
102
RTVSPropertyOp24
 70
     1
102
RTVSPropertyOp25
 70
     1
102
RTVSPropertyOp26
 70
     1
102
RTVSPropertyOp27
 70
     1
  0
XRECORD
  5
2D3F
102
{ACAD_REACTORS
330
2D3E
102
}
330
2D3E
100
AcDbXrecord
280
     1
102
RTVSPost2010Prop28
280
     0
102
RTVSPost2010PropOp28
 70
     1
102
RTVSPost2010Prop29
280
     1
102
RTVSPost2010PropOp29
 70
     1
102
RTVSPost2010Prop30
280
     1
102
RTVSPost2010PropOp30
 70
     1
102
RTVSPost2010Prop31
280
     0
102
RTVSPost2010PropOp31
 70
     1
102
RTVSPost2010Prop32
280
     0
102
RTVSPost2010PropOp32
 70
     1
102
RTVSPost2010Prop33
280
     0
102
RTVSPost2010PropOp33
 70
     1
102
RTVSPost2010Prop34
280
     0
102
RTVSPost2010PropOp34
 70
     1
102
RTVSPost2010Prop35
280
     0
102
RTVSPost2010PropOp35
 70
     1
102
RTVSPost2010Prop36
280
     0
102
RTVSPost2010PropOp36
 70
     1
102
RTVSPost2010Prop37
 90
       50
102
RTVSPost2010PropOp37
 70
     1
102
RTVSPost2010Prop38
140
0.0
102
RTVSPost2010PropOp38
 70
     1
102
RTVSPost2010Prop39
140
1.0
102
RTVSPost2010PropOp39
 70
     1
102
RTVSPost2010Prop40
 90
        0
102
RTVSPost2010PropOp40
 70
     1
102
RTVSPost2010Prop41ColorIndex
 90
       18
102
RTVSPost2010Prop41ColorRGB
 90
        0
102
RTVSPost2010PropOp41
 70
     1
102
RTVSPost2010Prop42
 90
       50
102
RTVSPost2010PropOp42
 70
     1
102
RTVSPost2010Prop43
 90
        3
102
RTVSPost2010PropOp43
 70
     1
102
RTVSPost2010Prop44ColorIndex
 90
        5
102
RTVSPost2010Prop44ColorRGB
 90
      255
102
RTVSPost2010PropOp44
 70
     1
102
RTVSPost2010Prop45
280
     0
102
RTVSPost2010PropOp45
 70
     1
102
RTVSPost2010Prop46
 90
       50
102
RTVSPost2010PropOp46
 70
     1
102
RTVSPost2010Prop47
 90
       50
102
RTVSPost2010PropOp47
 70
     1
102
RTVSPost2010Prop48
 90
       50
102
RTVSPost2010PropOp48
 70
     1
102
RTVSPost2010Prop49
280
     0
102
RTVSPost2010PropOp49
 70
     1
102
RTVSPost2010Prop50
 90
       50
102
RTVSPost2010PropOp50
 70
     1
102
RTVSPost2010Prop51ColorIndex
 90
      256
102
RTVSPost2010Prop51ColorRGB
 90
-16777216
102
RTVSPost2010PropOp51
 70
     0
102
RTVSPost2010Prop52
140
1.0
102
RTVSPost2010PropOp52
 70
     0
102
RTVSPost2010Prop53
 90
        2
102
RTVSPost2010PropOp53
 70
     1
102
RTVSPost2010Prop54
  1
strokes_ogs.tif
102
RTVSPost2010PropOp54
 70
     1
102
RTVSPost2010Prop55
280
     0
102
RTVSPost2010PropOp55
 70
     1
102
RTVSPost2010Prop56
140
1.0
102
RTVSPost2010PropOp56
 70
     1
102
RTVSPost2010Prop57
140
1.0
102
RTVSPost2010PropOp57
 70
     1
102
RTVSPropertyOp28
 70
     1
102
RTVSPropertyOp29
 70
     1
102
RTVSPropertyOp30
 70
     1
102
RTVSPropertyOp31
 70
     1
102
RTVSPropertyOp32
 70
     1
102
RTVSPropertyOp33
 70
     1
102
RTVSPropertyOp34
 70
     1
102
RTVSPropertyOp35
 70
     1
102
RTVSPropertyOp36
 70
     1
102
RTVSPropertyOp37
 70
     1
102
RTVSPropertyOp38
 70
     1
102
RTVSPropertyOp39
 70
     1
102
RTVSPropertyOp40
 70
     1
102
RTVSPropertyOp41
 70
     1
102
RTVSPropertyOp42
 70
     1
102
RTVSPropertyOp43
 70
     1
102
RTVSPropertyOp44
 70
     1
102
RTVSPropertyOp45
 70
     1
102
RTVSPropertyOp46
 70
     1
102
RTVSPropertyOp47
 70
     1
102
RTVSPropertyOp48
 70
     1
102
RTVSPropertyOp49
 70
     1
102
RTVSPropertyOp50
 70
     1
102
RTVSPropertyOp51
 70
     0
102
RTVSPropertyOp52
 70
     0
102
RTVSPropertyOp53
 70
     1
102
RTVSPropertyOp54
 70
     1
102
RTVSPropertyOp55
 70
     1
102
RTVSPropertyOp56
 70
     1
102
RTVSPropertyOp57
 70
     1
102
RTVSPropertyOp58
 70
     1
102
RTVSPropertyOp59
 70
     1
102
RTVSPropertyOp60
 70
     1
102
RTVSPropertyOp61
 70
     1
102
RTVSPropertyOp62
 70
     1
102
RTVSPropertyOp0
 70
     1
102
RTVSPropertyOp1
 70
     1
102
RTVSPropertyOp2
 70
     1
102
RTVSPropertyOp3
 70
     1
102
RTVSPropertyOp4
 70
     1
102
RTVSPropertyOp5
 70
     1
102
RTVSPropertyOp6
 70
     1
102
RTVSPropertyOp7
 70
     1
102
RTVSPropertyOp8
 70
     1
102
RTVSPropertyOp9
 70
     1
102
RTVSPropertyOp10
 70
     1
102
RTVSPropertyOp11
 70
     1
102
RTVSPropertyOp12
 70
     1
102
RTVSPropertyOp13
 70
     1
102
RTVSPropertyOp14
 70
     1
102
RTVSPropertyOp15
 70
     1
102
RTVSPropertyOp16
 70
     1
102
RTVSPropertyOp17
 70
     1
102
RTVSPropertyOp18
 70
     1
102
RTVSPropertyOp19
 70
     1
102
RTVSPropertyOp20
 70
     1
102
RTVSPropertyOp21
 70
     1
102
RTVSPropertyOp22
 70
     1
102
RTVSPropertyOp23
 70
     1
102
RTVSPropertyOp24
 70
     1
102
RTVSPropertyOp25
 70
     1
102
RTVSPropertyOp26
 70
     1
102
RTVSPropertyOp27
 70
     1
  0
XRECORD
  5
2D31
102
{ACAD_REACTORS
330
2D30
102
}
330
2D30
100
AcDbXrecord
280
     1
102
RTVSPost2010Prop28
280
     0
102
RTVSPost2010PropOp28
 70
     1
102
RTVSPost2010Prop29
280
     1
102
RTVSPost2010PropOp29
 70
     1
102
RTVSPost2010Prop30
280
     1
102
RTVSPost2010PropOp30
 70
     1
102
RTVSPost2010Prop31
280
     0
102
RTVSPost2010PropOp31
 70
     1
102
RTVSPost2010Prop32
280
     0
102
RTVSPost2010PropOp32
 70
     1
102
RTVSPost2010Prop33
280
     0
102
RTVSPost2010PropOp33
 70
     1
102
RTVSPost2010Prop34
280
     0
102
RTVSPost2010PropOp34
 70
     1
102
RTVSPost2010Prop35
280
     0
102
RTVSPost2010PropOp35
 70
     1
102
RTVSPost2010Prop36
280
     0
102
RTVSPost2010PropOp36
 70
     1
102
RTVSPost2010Prop37
 90
       50
102
RTVSPost2010PropOp37
 70
     1
102
RTVSPost2010Prop38
140
0.0
102
RTVSPost2010PropOp38
 70
     1
102
RTVSPost2010Prop39
140
1.0
102
RTVSPost2010PropOp39
 70
     1
102
RTVSPost2010Prop40
 90
        0
102
RTVSPost2010PropOp40
 70
     1
102
RTVSPost2010Prop41ColorIndex
 90
       18
102
RTVSPost2010Prop41ColorRGB
 90
        0
102
RTVSPost2010PropOp41
 70
     1
102
RTVSPost2010Prop42
 90
       50
102
RTVSPost2010PropOp42
 70
     1
102
RTVSPost2010Prop43
 90
        3
102
RTVSPost2010PropOp43
 70
     1
102
RTVSPost2010Prop44ColorIndex
 90
        5
102
RTVSPost2010Prop44ColorRGB
 90
      255
102
RTVSPost2010PropOp44
 70
     1
102
RTVSPost2010Prop45
280
     0
102
RTVSPost2010PropOp45
 70
     1
102
RTVSPost2010Prop46
 90
       50
102
RTVSPost2010PropOp46
 70
     1
102
RTVSPost2010Prop47
 90
       50
102
RTVSPost2010PropOp47
 70
     1
102
RTVSPost2010Prop48
 90
       50
102
RTVSPost2010PropOp48
 70
     1
102
RTVSPost2010Prop49
280
     0
102
RTVSPost2010PropOp49
 70
     1
102
RTVSPost2010Prop50
 90
       50
102
RTVSPost2010PropOp50
 70
     1
102
RTVSPost2010Prop51ColorIndex
 90
      256
102
RTVSPost2010Prop51ColorRGB
 90
-16777216
102
RTVSPost2010PropOp51
 70
     0
102
RTVSPost2010Prop52
140
1.0
102
RTVSPost2010PropOp52
 70
     0
102
RTVSPost2010Prop53
 90
        2
102
RTVSPost2010PropOp53
 70
     1
102
RTVSPost2010Prop54
  1
strokes_ogs.tif
102
RTVSPost2010PropOp54
 70
     1
102
RTVSPost2010Prop55
280
     0
102
RTVSPost2010PropOp55
 70
     1
102
RTVSPost2010Prop56
140
1.0
102
RTVSPost2010PropOp56
 70
     1
102
RTVSPost2010Prop57
140
1.0
102
RTVSPost2010PropOp57
 70
     1
102
RTVSPropertyOp28
 70
     1
102
RTVSPropertyOp29
 70
     1
102
RTVSPropertyOp30
 70
     1
102
RTVSPropertyOp31
 70
     1
102
RTVSPropertyOp32
 70
     1
102
RTVSPropertyOp33
 70
     1
102
RTVSPropertyOp34
 70
     1
102
RTVSPropertyOp35
 70
     1
102
RTVSPropertyOp36
 70
     1
102
RTVSPropertyOp37
 70
     1
102
RTVSPropertyOp38
 70
     1
102
RTVSPropertyOp39
 70
     1
102
RTVSPropertyOp40
 70
     1
102
RTVSPropertyOp41
 70
     1
102
RTVSPropertyOp42
 70
     1
102
RTVSPropertyOp43
 70
     1
102
RTVSPropertyOp44
 70
     1
102
RTVSPropertyOp45
 70
     1
102
RTVSPropertyOp46
 70
     1
102
RTVSPropertyOp47
 70
     1
102
RTVSPropertyOp48
 70
     1
102
RTVSPropertyOp49
 70
     1
102
RTVSPropertyOp50
 70
     1
102
RTVSPropertyOp51
 70
     0
102
RTVSPropertyOp52
 70
     0
102
RTVSPropertyOp53
 70
     1
102
RTVSPropertyOp54
 70
     1
102
RTVSPropertyOp55
 70
     1
102
RTVSPropertyOp56
 70
     1
102
RTVSPropertyOp57
 70
     1
102
RTVSPropertyOp58
 70
     1
102
RTVSPropertyOp59
 70
     1
102
RTVSPropertyOp60
 70
     1
102
RTVSPropertyOp61
 70
     1
102
RTVSPropertyOp62
 70
     1
102
RTVSPropertyOp0
 70
     1
102
RTVSPropertyOp1
 70
     1
102
RTVSPropertyOp2
 70
     1
102
RTVSPropertyOp3
 70
     1
102
RTVSPropertyOp4
 70
     1
102
RTVSPropertyOp5
 70
     1
102
RTVSPropertyOp6
 70
     1
102
RTVSPropertyOp7
 70
     1
102
RTVSPropertyOp8
 70
     1
102
RTVSPropertyOp9
 70
     1
102
RTVSPropertyOp10
 70
     1
102
RTVSPropertyOp11
 70
     1
102
RTVSPropertyOp12
 70
     1
102
RTVSPropertyOp13
 70
     1
102
RTVSPropertyOp14
 70
     1
102
RTVSPropertyOp15
 70
     1
102
RTVSPropertyOp16
 70
     1
102
RTVSPropertyOp17
 70
     1
102
RTVSPropertyOp18
 70
     1
102
RTVSPropertyOp19
 70
     1
102
RTVSPropertyOp20
 70
     1
102
RTVSPropertyOp21
 70
     1
102
RTVSPropertyOp22
 70
     1
102
RTVSPropertyOp23
 70
     1
102
RTVSPropertyOp24
 70
     1
102
RTVSPropertyOp25
 70
     1
102
RTVSPropertyOp26
 70
     1
102
RTVSPropertyOp27
 70
     1
  0
XRECORD
  5
2D35
102
{ACAD_REACTORS
330
2D34
102
}
330
2D34
100
AcDbXrecord
280
     1
102
RTVSPost2010Prop28
280
     0
102
RTVSPost2010PropOp28
 70
     1
102
RTVSPost2010Prop29
280
     1
102
RTVSPost2010PropOp29
 70
     1
102
RTVSPost2010Prop30
280
     1
102
RTVSPost2010PropOp30
 70
     1
102
RTVSPost2010Prop31
280
     0
102
RTVSPost2010PropOp31
 70
     1
102
RTVSPost2010Prop32
280
     0
102
RTVSPost2010PropOp32
 70
     1
102
RTVSPost2010Prop33
280
     0
102
RTVSPost2010PropOp33
 70
     1
102
RTVSPost2010Prop34
280
     0
102
RTVSPost2010PropOp34
 70
     1
102
RTVSPost2010Prop35
280
     0
102
RTVSPost2010PropOp35
 70
     1
102
RTVSPost2010Prop36
280
     0
102
RTVSPost2010PropOp36
 70
     1
102
RTVSPost2010Prop37
 90
       50
102
RTVSPost2010PropOp37
 70
     1
102
RTVSPost2010Prop38
140
0.0
102
RTVSPost2010PropOp38
 70
     1
102
RTVSPost2010Prop39
140
1.0
102
RTVSPost2010PropOp39
 70
     1
102
RTVSPost2010Prop40
 90
        0
102
RTVSPost2010PropOp40
 70
     1
102
RTVSPost2010Prop41ColorIndex
 90
       18
102
RTVSPost2010Prop41ColorRGB
 90
        0
102
RTVSPost2010PropOp41
 70
     1
102
RTVSPost2010Prop42
 90
       50
102
RTVSPost2010PropOp42
 70
     1
102
RTVSPost2010Prop43
 90
        3
102
RTVSPost2010PropOp43
 70
     1
102
RTVSPost2010Prop44ColorIndex
 90
        5
102
RTVSPost2010Prop44ColorRGB
 90
      255
102
RTVSPost2010PropOp44
 70
     1
102
RTVSPost2010Prop45
280
     0
102
RTVSPost2010PropOp45
 70
     1
102
RTVSPost2010Prop46
 90
       50
102
RTVSPost2010PropOp46
 70
     1
102
RTVSPost2010Prop47
 90
       50
102
RTVSPost2010PropOp47
 70
     1
102
RTVSPost2010Prop48
 90
       50
102
RTVSPost2010PropOp48
 70
     1
102
RTVSPost2010Prop49
280
     0
102
RTVSPost2010PropOp49
 70
     1
102
RTVSPost2010Prop50
 90
       50
102
RTVSPost2010PropOp50
 70
     1
102
RTVSPost2010Prop51ColorIndex
 90
      256
102
RTVSPost2010Prop51ColorRGB
 90
-16777216
102
RTVSPost2010PropOp51
 70
     0
102
RTVSPost2010Prop52
140
1.0
102
RTVSPost2010PropOp52
 70
     0
102
RTVSPost2010Prop53
 90
        2
102
RTVSPost2010PropOp53
 70
     1
102
RTVSPost2010Prop54
  1
strokes_ogs.tif
102
RTVSPost2010PropOp54
 70
     1
102
RTVSPost2010Prop55
280
     0
102
RTVSPost2010PropOp55
 70
     1
102
RTVSPost2010Prop56
140
1.0
102
RTVSPost2010PropOp56
 70
     1
102
RTVSPost2010Prop57
140
1.0
102
RTVSPost2010PropOp57
 70
     1
102
RTVSPropertyOp28
 70
     1
102
RTVSPropertyOp29
 70
     1
102
RTVSPropertyOp30
 70
     1
102
RTVSPropertyOp31
 70
     1
102
RTVSPropertyOp32
 70
     1
102
RTVSPropertyOp33
 70
     1
102
RTVSPropertyOp34
 70
     1
102
RTVSPropertyOp35
 70
     1
102
RTVSPropertyOp36
 70
     1
102
RTVSPropertyOp37
 70
     1
102
RTVSPropertyOp38
 70
     1
102
RTVSPropertyOp39
 70
     1
102
RTVSPropertyOp40
 70
     1
102
RTVSPropertyOp41
 70
     1
102
RTVSPropertyOp42
 70
     1
102
RTVSPropertyOp43
 70
     1
102
RTVSPropertyOp44
 70
     1
102
RTVSPropertyOp45
 70
     1
102
RTVSPropertyOp46
 70
     1
102
RTVSPropertyOp47
 70
     1
102
RTVSPropertyOp48
 70
     1
102
RTVSPropertyOp49
 70
     1
102
RTVSPropertyOp50
 70
     1
102
RTVSPropertyOp51
 70
     0
102
RTVSPropertyOp52
 70
     0
102
RTVSPropertyOp53
 70
     1
102
RTVSPropertyOp54
 70
     1
102
RTVSPropertyOp55
 70
     1
102
RTVSPropertyOp56
 70
     1
102
RTVSPropertyOp57
 70
     1
102
RTVSPropertyOp58
 70
     1
102
RTVSPropertyOp59
 70
     1
102
RTVSPropertyOp60
 70
     1
102
RTVSPropertyOp61
 70
     1
102
RTVSPropertyOp62
 70
     1
102
RTVSPropertyOp0
 70
     1
102
RTVSPropertyOp1
 70
     1
102
RTVSPropertyOp2
 70
     1
102
RTVSPropertyOp3
 70
     1
102
RTVSPropertyOp4
 70
     1
102
RTVSPropertyOp5
 70
     1
102
RTVSPropertyOp6
 70
     1
102
RTVSPropertyOp7
 70
     1
102
RTVSPropertyOp8
 70
     1
102
RTVSPropertyOp9
 70
     1
102
RTVSPropertyOp10
 70
     1
102
RTVSPropertyOp11
 70
     1
102
RTVSPropertyOp12
 70
     1
102
RTVSPropertyOp13
 70
     1
102
RTVSPropertyOp14
 70
     1
102
RTVSPropertyOp15
 70
     1
102
RTVSPropertyOp16
 70
     1
102
RTVSPropertyOp17
 70
     1
102
RTVSPropertyOp18
 70
     1
102
RTVSPropertyOp19
 70
     1
102
RTVSPropertyOp20
 70
     1
102
RTVSPropertyOp21
 70
     1
102
RTVSPropertyOp22
 70
     1
102
RTVSPropertyOp23
 70
     1
102
RTVSPropertyOp24
 70
     1
102
RTVSPropertyOp25
 70
     1
102
RTVSPropertyOp26
 70
     1
102
RTVSPropertyOp27
 70
     1
  0
XRECORD
  5
2D4F
102
{ACAD_REACTORS
330
2D4E
102
}
330
2D4E
100
AcDbXrecord
280
     1
102
RTVSPost2010Prop28
280
     0
102
RTVSPost2010PropOp28
 70
     1
102
RTVSPost2010Prop29
280
     1
102
RTVSPost2010PropOp29
 70
     1
102
RTVSPost2010Prop30
280
     1
102
RTVSPost2010PropOp30
 70
     1
102
RTVSPost2010Prop31
280
     0
102
RTVSPost2010PropOp31
 70
     1
102
RTVSPost2010Prop32
280
     0
102
RTVSPost2010PropOp32
 70
     1
102
RTVSPost2010Prop33
280
     0
102
RTVSPost2010PropOp33
 70
     1
102
RTVSPost2010Prop34
280
     0
102
RTVSPost2010PropOp34
 70
     1
102
RTVSPost2010Prop35
280
     0
102
RTVSPost2010PropOp35
 70
     1
102
RTVSPost2010Prop36
280
     0
102
RTVSPost2010PropOp36
 70
     1
102
RTVSPost2010Prop37
 90
       50
102
RTVSPost2010PropOp37
 70
     1
102
RTVSPost2010Prop38
140
0.0
102
RTVSPost2010PropOp38
 70
     1
102
RTVSPost2010Prop39
140
1.0
102
RTVSPost2010PropOp39
 70
     1
102
RTVSPost2010Prop40
 90
        0
102
RTVSPost2010PropOp40
 70
     1
102
RTVSPost2010Prop41ColorIndex
 90
       18
102
RTVSPost2010Prop41ColorRGB
 90
        0
102
RTVSPost2010PropOp41
 70
     1
102
RTVSPost2010Prop42
 90
       50
102
RTVSPost2010PropOp42
 70
     1
102
RTVSPost2010Prop43
 90
        3
102
RTVSPost2010PropOp43
 70
     1
102
RTVSPost2010Prop44ColorIndex
 90
        5
102
RTVSPost2010Prop44ColorRGB
 90
      255
102
RTVSPost2010PropOp44
 70
     1
102
RTVSPost2010Prop45
280
     0
102
RTVSPost2010PropOp45
 70
     1
102
RTVSPost2010Prop46
 90
       50
102
RTVSPost2010PropOp46
 70
     1
102
RTVSPost2010Prop47
 90
       50
102
RTVSPost2010PropOp47
 70
     1
102
RTVSPost2010Prop48
 90
       50
102
RTVSPost2010PropOp48
 70
     1
102
RTVSPost2010Prop49
280
     0
102
RTVSPost2010PropOp49
 70
     1
102
RTVSPost2010Prop50
 90
       50
102
RTVSPost2010PropOp50
 70
     1
102
RTVSPost2010Prop51ColorIndex
 90
      256
102
RTVSPost2010Prop51ColorRGB
 90
-16777216
102
RTVSPost2010PropOp51
 70
     0
102
RTVSPost2010Prop52
140
1.0
102
RTVSPost2010PropOp52
 70
     0
102
RTVSPost2010Prop53
 90
        2
102
RTVSPost2010PropOp53
 70
     1
102
RTVSPost2010Prop54
  1
strokes_ogs.tif
102
RTVSPost2010PropOp54
 70
     1
102
RTVSPost2010Prop55
280
     0
102
RTVSPost2010PropOp55
 70
     1
102
RTVSPost2010Prop56
140
1.0
102
RTVSPost2010PropOp56
 70
     1
102
RTVSPost2010Prop57
140
1.0
102
RTVSPost2010PropOp57
 70
     1
102
RTVSPropertyOp28
 70
     1
102
RTVSPropertyOp29
 70
     1
102
RTVSPropertyOp30
 70
     1
102
RTVSPropertyOp31
 70
     1
102
RTVSPropertyOp32
 70
     1
102
RTVSPropertyOp33
 70
     1
102
RTVSPropertyOp34
 70
     1
102
RTVSPropertyOp35
 70
     1
102
RTVSPropertyOp36
 70
     1
102
RTVSPropertyOp37
 70
     1
102
RTVSPropertyOp38
 70
     1
102
RTVSPropertyOp39
 70
     1
102
RTVSPropertyOp40
 70
     1
102
RTVSPropertyOp41
 70
     1
102
RTVSPropertyOp42
 70
     1
102
RTVSPropertyOp43
 70
     1
102
RTVSPropertyOp44
 70
     1
102
RTVSPropertyOp45
 70
     1
102
RTVSPropertyOp46
 70
     1
102
RTVSPropertyOp47
 70
     1
102
RTVSPropertyOp48
 70
     1
102
RTVSPropertyOp49
 70
     1
102
RTVSPropertyOp50
 70
     1
102
RTVSPropertyOp51
 70
     0
102
RTVSPropertyOp52
 70
     0
102
RTVSPropertyOp53
 70
     1
102
RTVSPropertyOp54
 70
     1
102
RTVSPropertyOp55
 70
     1
102
RTVSPropertyOp56
 70
     1
102
RTVSPropertyOp57
 70
     1
102
RTVSPropertyOp58
 70
     1
102
RTVSPropertyOp59
 70
     1
102
RTVSPropertyOp60
 70
     1
102
RTVSPropertyOp61
 70
     1
102
RTVSPropertyOp62
 70
     1
102
RTVSPropertyOp0
 70
     0
102
RTVSPropertyOp1
 70
     0
102
RTVSPropertyOp2
 70
     0
102
RTVSPropertyOp3
 70
     0
102
RTVSPropertyOp4
 70
     0
102
RTVSPropertyOp5
 70
     0
102
RTVSPropertyOp6
 70
     0
102
RTVSPropertyOp7
 70
     0
102
RTVSPropertyOp8
 70
     0
102
RTVSPropertyOp9
 70
     0
102
RTVSPropertyOp10
 70
     0
102
RTVSPropertyOp11
 70
     0
102
RTVSPropertyOp12
 70
     0
102
RTVSPropertyOp13
 70
     0
102
RTVSPropertyOp14
 70
     2
102
RTVSPropertyOp15
 70
     0
102
RTVSPropertyOp16
 70
     0
102
RTVSPropertyOp17
 70
     0
102
RTVSPropertyOp18
 70
     0
102
RTVSPropertyOp19
 70
     0
102
RTVSPropertyOp20
 70
     0
102
RTVSPropertyOp21
 70
     0
102
RTVSPropertyOp22
 70
     0
102
RTVSPropertyOp23
 70
     0
102
RTVSPropertyOp24
 70
     0
102
RTVSPropertyOp25
 70
     0
102
RTVSPropertyOp26
 70
     0
102
RTVSPropertyOp27
 70
     0
  0
XRECORD
  5
2D3D
102
{ACAD_REACTORS
330
2D3C
102
}
330
2D3C
100
AcDbXrecord
280
     1
102
RTVSPost2010Prop28
280
     0
102
RTVSPost2010PropOp28
 70
     1
102
RTVSPost2010Prop29
280
     1
102
RTVSPost2010PropOp29
 70
     1
102
RTVSPost2010Prop30
280
     1
102
RTVSPost2010PropOp30
 70
     1
102
RTVSPost2010Prop31
280
     0
102
RTVSPost2010PropOp31
 70
     1
102
RTVSPost2010Prop32
280
     0
102
RTVSPost2010PropOp32
 70
     1
102
RTVSPost2010Prop33
280
     0
102
RTVSPost2010PropOp33
 70
     1
102
RTVSPost2010Prop34
280
     0
102
RTVSPost2010PropOp34
 70
     1
102
RTVSPost2010Prop35
280
     0
102
RTVSPost2010PropOp35
 70
     1
102
RTVSPost2010Prop36
280
     0
102
RTVSPost2010PropOp36
 70
     1
102
RTVSPost2010Prop37
 90
       50
102
RTVSPost2010PropOp37
 70
     1
102
RTVSPost2010Prop38
140
0.0
102
RTVSPost2010PropOp38
 70
     1
102
RTVSPost2010Prop39
140
1.0
102
RTVSPost2010PropOp39
 70
     1
102
RTVSPost2010Prop40
 90
        0
102
RTVSPost2010PropOp40
 70
     1
102
RTVSPost2010Prop41ColorIndex
 90
       18
102
RTVSPost2010Prop41ColorRGB
 90
        0
102
RTVSPost2010PropOp41
 70
     1
102
RTVSPost2010Prop42
 90
       50
102
RTVSPost2010PropOp42
 70
     1
102
RTVSPost2010Prop43
 90
        3
102
RTVSPost2010PropOp43
 70
     1
102
RTVSPost2010Prop44ColorIndex
 90
        5
102
RTVSPost2010Prop44ColorRGB
 90
      255
102
RTVSPost2010PropOp44
 70
     1
102
RTVSPost2010Prop45
280
     0
102
RTVSPost2010PropOp45
 70
     1
102
RTVSPost2010Prop46
 90
       50
102
RTVSPost2010PropOp46
 70
     1
102
RTVSPost2010Prop47
 90
       50
102
RTVSPost2010PropOp47
 70
     1
102
RTVSPost2010Prop48
 90
       50
102
RTVSPost2010PropOp48
 70
     1
102
RTVSPost2010Prop49
280
     0
102
RTVSPost2010PropOp49
 70
     1
102
RTVSPost2010Prop50
 90
       50
102
RTVSPost2010PropOp50
 70
     1
102
RTVSPost2010Prop51ColorIndex
 90
      256
102
RTVSPost2010Prop51ColorRGB
 90
-16777216
102
RTVSPost2010PropOp51
 70
     0
102
RTVSPost2010Prop52
140
1.0
102
RTVSPost2010PropOp52
 70
     0
102
RTVSPost2010Prop53
 90
        2
102
RTVSPost2010PropOp53
 70
     1
102
RTVSPost2010Prop54
  1
strokes_ogs.tif
102
RTVSPost2010PropOp54
 70
     1
102
RTVSPost2010Prop55
280
     0
102
RTVSPost2010PropOp55
 70
     1
102
RTVSPost2010Prop56
140
1.0
102
RTVSPost2010PropOp56
 70
     1
102
RTVSPost2010Prop57
140
1.0
102
RTVSPost2010PropOp57
 70
     1
102
RTVSPropertyOp28
 70
     1
102
RTVSPropertyOp29
 70
     1
102
RTVSPropertyOp30
 70
     1
102
RTVSPropertyOp31
 70
     1
102
RTVSPropertyOp32
 70
     1
102
RTVSPropertyOp33
 70
     1
102
RTVSPropertyOp34
 70
     1
102
RTVSPropertyOp35
 70
     1
102
RTVSPropertyOp36
 70
     1
102
RTVSPropertyOp37
 70
     1
102
RTVSPropertyOp38
 70
     1
102
RTVSPropertyOp39
 70
     1
102
RTVSPropertyOp40
 70
     1
102
RTVSPropertyOp41
 70
     1
102
RTVSPropertyOp42
 70
     1
102
RTVSPropertyOp43
 70
     1
102
RTVSPropertyOp44
 70
     1
102
RTVSPropertyOp45
 70
     1
102
RTVSPropertyOp46
 70
     1
102
RTVSPropertyOp47
 70
     1
102
RTVSPropertyOp48
 70
     1
102
RTVSPropertyOp49
 70
     1
102
RTVSPropertyOp50
 70
     1
102
RTVSPropertyOp51
 70
     0
102
RTVSPropertyOp52
 70
     0
102
RTVSPropertyOp53
 70
     1
102
RTVSPropertyOp54
 70
     1
102
RTVSPropertyOp55
 70
     1
102
RTVSPropertyOp56
 70
     1
102
RTVSPropertyOp57
 70
     1
102
RTVSPropertyOp58
 70
     1
102
RTVSPropertyOp59
 70
     1
102
RTVSPropertyOp60
 70
     1
102
RTVSPropertyOp61
 70
     1
102
RTVSPropertyOp62
 70
     1
102
RTVSPropertyOp0
 70
     1
102
RTVSPropertyOp1
 70
     1
102
RTVSPropertyOp2
 70
     1
102
RTVSPropertyOp3
 70
     1
102
RTVSPropertyOp4
 70
     1
102
RTVSPropertyOp5
 70
     1
102
RTVSPropertyOp6
 70
     1
102
RTVSPropertyOp7
 70
     1
102
RTVSPropertyOp8
 70
     1
102
RTVSPropertyOp9
 70
     1
102
RTVSPropertyOp10
 70
     1
102
RTVSPropertyOp11
 70
     1
102
RTVSPropertyOp12
 70
     1
102
RTVSPropertyOp13
 70
     1
102
RTVSPropertyOp14
 70
     1
102
RTVSPropertyOp15
 70
     1
102
RTVSPropertyOp16
 70
     1
102
RTVSPropertyOp17
 70
     1
102
RTVSPropertyOp18
 70
     1
102
RTVSPropertyOp19
 70
     1
102
RTVSPropertyOp20
 70
     1
102
RTVSPropertyOp21
 70
     1
102
RTVSPropertyOp22
 70
     1
102
RTVSPropertyOp23
 70
     1
102
RTVSPropertyOp24
 70
     1
102
RTVSPropertyOp25
 70
     1
102
RTVSPropertyOp26
 70
     1
102
RTVSPropertyOp27
 70
     1
  0
XRECORD
  5
2D21
102
{ACAD_REACTORS
330
2D20
102
}
330
2D20
100
AcDbXrecord
280
     1
102
RTVSPost2010Prop28
280
     0
102
RTVSPost2010PropOp28
 70
     1
102
RTVSPost2010Prop29
280
     1
102
RTVSPost2010PropOp29
 70
     1
102
RTVSPost2010Prop30
280
     1
102
RTVSPost2010PropOp30
 70
     1
102
RTVSPost2010Prop31
280
     0
102
RTVSPost2010PropOp31
 70
     1
102
RTVSPost2010Prop32
280
     0
102
RTVSPost2010PropOp32
 70
     1
102
RTVSPost2010Prop33
280
     0
102
RTVSPost2010PropOp33
 70
     1
102
RTVSPost2010Prop34
280
     0
102
RTVSPost2010PropOp34
 70
     1
102
RTVSPost2010Prop35
280
     0
102
RTVSPost2010PropOp35
 70
     1
102
RTVSPost2010Prop36
280
     0
102
RTVSPost2010PropOp36
 70
     1
102
RTVSPost2010Prop37
 90
       50
102
RTVSPost2010PropOp37
 70
     1
102
RTVSPost2010Prop38
140
0.0
102
RTVSPost2010PropOp38
 70
     1
102
RTVSPost2010Prop39
140
1.0
102
RTVSPost2010PropOp39
 70
     1
102
RTVSPost2010Prop40
 90
        0
102
RTVSPost2010PropOp40
 70
     1
102
RTVSPost2010Prop41ColorIndex
 90
       18
102
RTVSPost2010Prop41ColorRGB
 90
        0
102
RTVSPost2010PropOp41
 70
     1
102
RTVSPost2010Prop42
 90
       50
102
RTVSPost2010PropOp42
 70
     1
102
RTVSPost2010Prop43
 90
        3
102
RTVSPost2010PropOp43
 70
     1
102
RTVSPost2010Prop44ColorIndex
 90
        5
102
RTVSPost2010Prop44ColorRGB
 90
      255
102
RTVSPost2010PropOp44
 70
     1
102
RTVSPost2010Prop45
280
     0
102
RTVSPost2010PropOp45
 70
     1
102
RTVSPost2010Prop46
 90
       50
102
RTVSPost2010PropOp46
 70
     1
102
RTVSPost2010Prop47
 90
       50
102
RTVSPost2010PropOp47
 70
     1
102
RTVSPost2010Prop48
 90
       50
102
RTVSPost2010PropOp48
 70
     1
102
RTVSPost2010Prop49
280
     0
102
RTVSPost2010PropOp49
 70
     1
102
RTVSPost2010Prop50
 90
       50
102
RTVSPost2010PropOp50
 70
     1
102
RTVSPost2010Prop51ColorIndex
 90
      256
102
RTVSPost2010Prop51ColorRGB
 90
-16777216
102
RTVSPost2010PropOp51
 70
     0
102
RTVSPost2010Prop52
140
1.0
102
RTVSPost2010PropOp52
 70
     0
102
RTVSPost2010Prop53
 90
        2
102
RTVSPost2010PropOp53
 70
     1
102
RTVSPost2010Prop54
  1
strokes_ogs.tif
102
RTVSPost2010PropOp54
 70
     1
102
RTVSPost2010Prop55
280
     0
102
RTVSPost2010PropOp55
 70
     1
102
RTVSPost2010Prop56
140
1.0
102
RTVSPost2010PropOp56
 70
     1
102
RTVSPost2010Prop57
140
1.0
102
RTVSPost2010PropOp57
 70
     1
102
RTVSPropertyOp28
 70
     1
102
RTVSPropertyOp29
 70
     1
102
RTVSPropertyOp30
 70
     1
102
RTVSPropertyOp31
 70
     1
102
RTVSPropertyOp32
 70
     1
102
RTVSPropertyOp33
 70
     1
102
RTVSPropertyOp34
 70
     1
102
RTVSPropertyOp35
 70
     1
102
RTVSPropertyOp36
 70
     1
102
RTVSPropertyOp37
 70
     1
102
RTVSPropertyOp38
 70
     1
102
RTVSPropertyOp39
 70
     1
102
RTVSPropertyOp40
 70
     1
102
RTVSPropertyOp41
 70
     1
102
RTVSPropertyOp42
 70
     1
102
RTVSPropertyOp43
 70
     1
102
RTVSPropertyOp44
 70
     1
102
RTVSPropertyOp45
 70
     1
102
RTVSPropertyOp46
 70
     1
102
RTVSPropertyOp47
 70
     1
102
RTVSPropertyOp48
 70
     1
102
RTVSPropertyOp49
 70
     1
102
RTVSPropertyOp50
 70
     1
102
RTVSPropertyOp51
 70
     0
102
RTVSPropertyOp52
 70
     0
102
RTVSPropertyOp53
 70
     1
102
RTVSPropertyOp54
 70
     1
102
RTVSPropertyOp55
 70
     1
102
RTVSPropertyOp56
 70
     1
102
RTVSPropertyOp57
 70
     1
102
RTVSPropertyOp58
 70
     1
102
RTVSPropertyOp59
 70
     1
102
RTVSPropertyOp60
 70
     1
102
RTVSPropertyOp61
 70
     1
102
RTVSPropertyOp62
 70
     1
102
RTVSPropertyOp0
 70
     1
102
RTVSPropertyOp1
 70
     1
102
RTVSPropertyOp2
 70
     1
102
RTVSPropertyOp3
 70
     1
102
RTVSPropertyOp4
 70
     1
102
RTVSPropertyOp5
 70
     1
102
RTVSPropertyOp6
 70
     1
102
RTVSPropertyOp7
 70
     1
102
RTVSPropertyOp8
 70
     1
102
RTVSPropertyOp9
 70
     1
102
RTVSPropertyOp10
 70
     1
102
RTVSPropertyOp11
 70
     1
102
RTVSPropertyOp12
 70
     1
102
RTVSPropertyOp13
 70
     1
102
RTVSPropertyOp14
 70
     1
102
RTVSPropertyOp15
 70
     1
102
RTVSPropertyOp16
 70
     1
102
RTVSPropertyOp17
 70
     1
102
RTVSPropertyOp18
 70
     1
102
RTVSPropertyOp19
 70
     1
102
RTVSPropertyOp20
 70
     1
102
RTVSPropertyOp21
 70
     1
102
RTVSPropertyOp22
 70
     1
102
RTVSPropertyOp23
 70
     1
102
RTVSPropertyOp24
 70
     1
102
RTVSPropertyOp25
 70
     1
102
RTVSPropertyOp26
 70
     1
102
RTVSPropertyOp27
 70
     1
  0
XRECORD
  5
2D23
102
{ACAD_REACTORS
330
2D22
102
}
330
2D22
100
AcDbXrecord
280
     1
102
RTVSPost2010Prop28
280
     0
102
RTVSPost2010PropOp28
 70
     1
102
RTVSPost2010Prop29
280
     1
102
RTVSPost2010PropOp29
 70
     1
102
RTVSPost2010Prop30
280
     1
102
RTVSPost2010PropOp30
 70
     1
102
RTVSPost2010Prop31
280
     0
102
RTVSPost2010PropOp31
 70
     1
102
RTVSPost2010Prop32
280
     0
102
RTVSPost2010PropOp32
 70
     1
102
RTVSPost2010Prop33
280
     0
102
RTVSPost2010PropOp33
 70
     1
102
RTVSPost2010Prop34
280
     0
102
RTVSPost2010PropOp34
 70
     1
102
RTVSPost2010Prop35
280
     0
102
RTVSPost2010PropOp35
 70
     1
102
RTVSPost2010Prop36
280
     0
102
RTVSPost2010PropOp36
 70
     1
102
RTVSPost2010Prop37
 90
       50
102
RTVSPost2010PropOp37
 70
     1
102
RTVSPost2010Prop38
140
0.0
102
RTVSPost2010PropOp38
 70
     1
102
RTVSPost2010Prop39
140
1.0
102
RTVSPost2010PropOp39
 70
     1
102
RTVSPost2010Prop40
 90
        0
102
RTVSPost2010PropOp40
 70
     1
102
RTVSPost2010Prop41ColorIndex
 90
       18
102
RTVSPost2010Prop41ColorRGB
 90
        0
102
RTVSPost2010PropOp41
 70
     1
102
RTVSPost2010Prop42
 90
       50
102
RTVSPost2010PropOp42
 70
     1
102
RTVSPost2010Prop43
 90
        3
102
RTVSPost2010PropOp43
 70
     1
102
RTVSPost2010Prop44ColorIndex
 90
        5
102
RTVSPost2010Prop44ColorRGB
 90
      255
102
RTVSPost2010PropOp44
 70
     1
102
RTVSPost2010Prop45
280
     0
102
RTVSPost2010PropOp45
 70
     1
102
RTVSPost2010Prop46
 90
       50
102
RTVSPost2010PropOp46
 70
     1
102
RTVSPost2010Prop47
 90
       50
102
RTVSPost2010PropOp47
 70
     1
102
RTVSPost2010Prop48
 90
       50
102
RTVSPost2010PropOp48
 70
     1
102
RTVSPost2010Prop49
280
     0
102
RTVSPost2010PropOp49
 70
     1
102
RTVSPost2010Prop50
 90
       50
102
RTVSPost2010PropOp50
 70
     1
102
RTVSPost2010Prop51ColorIndex
 90
      256
102
RTVSPost2010Prop51ColorRGB
 90
-16777216
102
RTVSPost2010PropOp51
 70
     0
102
RTVSPost2010Prop52
140
1.0
102
RTVSPost2010PropOp52
 70
     0
102
RTVSPost2010Prop53
 90
        2
102
RTVSPost2010PropOp53
 70
     1
102
RTVSPost2010Prop54
  1
strokes_ogs.tif
102
RTVSPost2010PropOp54
 70
     1
102
RTVSPost2010Prop55
280
     0
102
RTVSPost2010PropOp55
 70
     1
102
RTVSPost2010Prop56
140
1.0
102
RTVSPost2010PropOp56
 70
     1
102
RTVSPost2010Prop57
140
1.0
102
RTVSPost2010PropOp57
 70
     1
102
RTVSPropertyOp28
 70
     1
102
RTVSPropertyOp29
 70
     1
102
RTVSPropertyOp30
 70
     1
102
RTVSPropertyOp31
 70
     1
102
RTVSPropertyOp32
 70
     1
102
RTVSPropertyOp33
 70
     1
102
RTVSPropertyOp34
 70
     1
102
RTVSPropertyOp35
 70
     1
102
RTVSPropertyOp36
 70
     1
102
RTVSPropertyOp37
 70
     1
102
RTVSPropertyOp38
 70
     1
102
RTVSPropertyOp39
 70
     1
102
RTVSPropertyOp40
 70
     1
102
RTVSPropertyOp41
 70
     1
102
RTVSPropertyOp42
 70
     1
102
RTVSPropertyOp43
 70
     1
102
RTVSPropertyOp44
 70
     1
102
RTVSPropertyOp45
 70
     1
102
RTVSPropertyOp46
 70
     1
102
RTVSPropertyOp47
 70
     1
102
RTVSPropertyOp48
 70
     1
102
RTVSPropertyOp49
 70
     1
102
RTVSPropertyOp50
 70
     1
102
RTVSPropertyOp51
 70
     0
102
RTVSPropertyOp52
 70
     0
102
RTVSPropertyOp53
 70
     1
102
RTVSPropertyOp54
 70
     1
102
RTVSPropertyOp55
 70
     1
102
RTVSPropertyOp56
 70
     1
102
RTVSPropertyOp57
 70
     1
102
RTVSPropertyOp58
 70
     1
102
RTVSPropertyOp59
 70
     1
102
RTVSPropertyOp60
 70
     1
102
RTVSPropertyOp61
 70
     1
102
RTVSPropertyOp62
 70
     1
102
RTVSPropertyOp0
 70
     1
102
RTVSPropertyOp1
 70
     1
102
RTVSPropertyOp2
 70
     1
102
RTVSPropertyOp3
 70
     1
102
RTVSPropertyOp4
 70
     1
102
RTVSPropertyOp5
 70
     1
102
RTVSPropertyOp6
 70
     1
102
RTVSPropertyOp7
 70
     1
102
RTVSPropertyOp8
 70
     1
102
RTVSPropertyOp9
 70
     1
102
RTVSPropertyOp10
 70
     1
102
RTVSPropertyOp11
 70
     1
102
RTVSPropertyOp12
 70
     1
102
RTVSPropertyOp13
 70
     1
102
RTVSPropertyOp14
 70
     1
102
RTVSPropertyOp15
 70
     1
102
RTVSPropertyOp16
 70
     1
102
RTVSPropertyOp17
 70
     1
102
RTVSPropertyOp18
 70
     1
102
RTVSPropertyOp19
 70
     1
102
RTVSPropertyOp20
 70
     1
102
RTVSPropertyOp21
 70
     1
102
RTVSPropertyOp22
 70
     1
102
RTVSPropertyOp23
 70
     1
102
RTVSPropertyOp24
 70
     1
102
RTVSPropertyOp25
 70
     1
102
RTVSPropertyOp26
 70
     1
102
RTVSPropertyOp27
 70
     1
  0
XRECORD
  5
2D25
102
{ACAD_REACTORS
330
2D24
102
}
330
2D24
100
AcDbXrecord
280
     1
102
RTVSPost2010Prop28
280
     0
102
RTVSPost2010PropOp28
 70
     1
102
RTVSPost2010Prop29
280
     1
102
RTVSPost2010PropOp29
 70
     1
102
RTVSPost2010Prop30
280
     1
102
RTVSPost2010PropOp30
 70
     1
102
RTVSPost2010Prop31
280
     0
102
RTVSPost2010PropOp31
 70
     1
102
RTVSPost2010Prop32
280
     0
102
RTVSPost2010PropOp32
 70
     1
102
RTVSPost2010Prop33
280
     0
102
RTVSPost2010PropOp33
 70
     1
102
RTVSPost2010Prop34
280
     0
102
RTVSPost2010PropOp34
 70
     1
102
RTVSPost2010Prop35
280
     0
102
RTVSPost2010PropOp35
 70
     1
102
RTVSPost2010Prop36
280
     0
102
RTVSPost2010PropOp36
 70
     1
102
RTVSPost2010Prop37
 90
       50
102
RTVSPost2010PropOp37
 70
     1
102
RTVSPost2010Prop38
140
0.0
102
RTVSPost2010PropOp38
 70
     1
102
RTVSPost2010Prop39
140
1.0
102
RTVSPost2010PropOp39
 70
     1
102
RTVSPost2010Prop40
 90
        0
102
RTVSPost2010PropOp40
 70
     1
102
RTVSPost2010Prop41ColorIndex
 90
       18
102
RTVSPost2010Prop41ColorRGB
 90
        0
102
RTVSPost2010PropOp41
 70
     1
102
RTVSPost2010Prop42
 90
       50
102
RTVSPost2010PropOp42
 70
     1
102
RTVSPost2010Prop43
 90
        3
102
RTVSPost2010PropOp43
 70
     1
102
RTVSPost2010Prop44ColorIndex
 90
        5
102
RTVSPost2010Prop44ColorRGB
 90
      255
102
RTVSPost2010PropOp44
 70
     1
102
RTVSPost2010Prop45
280
     0
102
RTVSPost2010PropOp45
 70
     1
102
RTVSPost2010Prop46
 90
       50
102
RTVSPost2010PropOp46
 70
     1
102
RTVSPost2010Prop47
 90
       50
102
RTVSPost2010PropOp47
 70
     1
102
RTVSPost2010Prop48
 90
       50
102
RTVSPost2010PropOp48
 70
     1
102
RTVSPost2010Prop49
280
     0
102
RTVSPost2010PropOp49
 70
     1
102
RTVSPost2010Prop50
 90
       50
102
RTVSPost2010PropOp50
 70
     1
102
RTVSPost2010Prop51ColorIndex
 90
      256
102
RTVSPost2010Prop51ColorRGB
 90
-16777216
102
RTVSPost2010PropOp51
 70
     0
102
RTVSPost2010Prop52
140
1.0
102
RTVSPost2010PropOp52
 70
     0
102
RTVSPost2010Prop53
 90
        2
102
RTVSPost2010PropOp53
 70
     1
102
RTVSPost2010Prop54
  1
strokes_ogs.tif
102
RTVSPost2010PropOp54
 70
     1
102
RTVSPost2010Prop55
280
     0
102
RTVSPost2010PropOp55
 70
     1
102
RTVSPost2010Prop56
140
1.0
102
RTVSPost2010PropOp56
 70
     1
102
RTVSPost2010Prop57
140
1.0
102
RTVSPost2010PropOp57
 70
     1
102
RTVSPropertyOp28
 70
     1
102
RTVSPropertyOp29
 70
     1
102
RTVSPropertyOp30
 70
     1
102
RTVSPropertyOp31
 70
     1
102
RTVSPropertyOp32
 70
     1
102
RTVSPropertyOp33
 70
     1
102
RTVSPropertyOp34
 70
     1
102
RTVSPropertyOp35
 70
     1
102
RTVSPropertyOp36
 70
     1
102
RTVSPropertyOp37
 70
     1
102
RTVSPropertyOp38
 70
     1
102
RTVSPropertyOp39
 70
     1
102
RTVSPropertyOp40
 70
     1
102
RTVSPropertyOp41
 70
     1
102
RTVSPropertyOp42
 70
     1
102
RTVSPropertyOp43
 70
     1
102
RTVSPropertyOp44
 70
     1
102
RTVSPropertyOp45
 70
     1
102
RTVSPropertyOp46
 70
     1
102
RTVSPropertyOp47
 70
     1
102
RTVSPropertyOp48
 70
     1
102
RTVSPropertyOp49
 70
     1
102
RTVSPropertyOp50
 70
     1
102
RTVSPropertyOp51
 70
     0
102
RTVSPropertyOp52
 70
     0
102
RTVSPropertyOp53
 70
     1
102
RTVSPropertyOp54
 70
     1
102
RTVSPropertyOp55
 70
     1
102
RTVSPropertyOp56
 70
     1
102
RTVSPropertyOp57
 70
     1
102
RTVSPropertyOp58
 70
     1
102
RTVSPropertyOp59
 70
     1
102
RTVSPropertyOp60
 70
     1
102
RTVSPropertyOp61
 70
     1
102
RTVSPropertyOp62
 70
     1
102
RTVSPropertyOp0
 70
     1
102
RTVSPropertyOp1
 70
     1
102
RTVSPropertyOp2
 70
     1
102
RTVSPropertyOp3
 70
     1
102
RTVSPropertyOp4
 70
     1
102
RTVSPropertyOp5
 70
     1
102
RTVSPropertyOp6
 70
     1
102
RTVSPropertyOp7
 70
     1
102
RTVSPropertyOp8
 70
     1
102
RTVSPropertyOp9
 70
     1
102
RTVSPropertyOp10
 70
     1
102
RTVSPropertyOp11
 70
     1
102
RTVSPropertyOp12
 70
     1
102
RTVSPropertyOp13
 70
     1
102
RTVSPropertyOp14
 70
     1
102
RTVSPropertyOp15
 70
     1
102
RTVSPropertyOp16
 70
     1
102
RTVSPropertyOp17
 70
     1
102
RTVSPropertyOp18
 70
     1
102
RTVSPropertyOp19
 70
     1
102
RTVSPropertyOp20
 70
     1
102
RTVSPropertyOp21
 70
     1
102
RTVSPropertyOp22
 70
     1
102
RTVSPropertyOp23
 70
     1
102
RTVSPropertyOp24
 70
     1
102
RTVSPropertyOp25
 70
     1
102
RTVSPropertyOp26
 70
     1
102
RTVSPropertyOp27
 70
     1
  0
XRECORD
  5
2D27
102
{ACAD_REACTORS
330
2D26
102
}
330
2D26
100
AcDbXrecord
280
     1
102
RTVSPost2010Prop28
280
     0
102
RTVSPost2010PropOp28
 70
     1
102
RTVSPost2010Prop29
280
     1
102
RTVSPost2010PropOp29
 70
     1
102
RTVSPost2010Prop30
280
     1
102
RTVSPost2010PropOp30
 70
     1
102
RTVSPost2010Prop31
280
     0
102
RTVSPost2010PropOp31
 70
     1
102
RTVSPost2010Prop32
280
     0
102
RTVSPost2010PropOp32
 70
     1
102
RTVSPost2010Prop33
280
     0
102
RTVSPost2010PropOp33
 70
     1
102
RTVSPost2010Prop34
280
     0
102
RTVSPost2010PropOp34
 70
     1
102
RTVSPost2010Prop35
280
     0
102
RTVSPost2010PropOp35
 70
     1
102
RTVSPost2010Prop36
280
     0
102
RTVSPost2010PropOp36
 70
     1
102
RTVSPost2010Prop37
 90
       50
102
RTVSPost2010PropOp37
 70
     1
102
RTVSPost2010Prop38
140
0.0
102
RTVSPost2010PropOp38
 70
     1
102
RTVSPost2010Prop39
140
1.0
102
RTVSPost2010PropOp39
 70
     1
102
RTVSPost2010Prop40
 90
        0
102
RTVSPost2010PropOp40
 70
     1
102
RTVSPost2010Prop41ColorIndex
 90
       18
102
RTVSPost2010Prop41ColorRGB
 90
        0
102
RTVSPost2010PropOp41
 70
     1
102
RTVSPost2010Prop42
 90
       50
102
RTVSPost2010PropOp42
 70
     1
102
RTVSPost2010Prop43
 90
        3
102
RTVSPost2010PropOp43
 70
     1
102
RTVSPost2010Prop44ColorIndex
 90
        5
102
RTVSPost2010Prop44ColorRGB
 90
      255
102
RTVSPost2010PropOp44
 70
     1
102
RTVSPost2010Prop45
280
     0
102
RTVSPost2010PropOp45
 70
     1
102
RTVSPost2010Prop46
 90
       50
102
RTVSPost2010PropOp46
 70
     1
102
RTVSPost2010Prop47
 90
       50
102
RTVSPost2010PropOp47
 70
     1
102
RTVSPost2010Prop48
 90
       50
102
RTVSPost2010PropOp48
 70
     1
102
RTVSPost2010Prop49
280
     0
102
RTVSPost2010PropOp49
 70
     1
102
RTVSPost2010Prop50
 90
       50
102
RTVSPost2010PropOp50
 70
     1
102
RTVSPost2010Prop51ColorIndex
 90
      256
102
RTVSPost2010Prop51ColorRGB
 90
-16777216
102
RTVSPost2010PropOp51
 70
     0
102
RTVSPost2010Prop52
140
1.0
102
RTVSPost2010PropOp52
 70
     0
102
RTVSPost2010Prop53
 90
        2
102
RTVSPost2010PropOp53
 70
     1
102
RTVSPost2010Prop54
  1
strokes_ogs.tif
102
RTVSPost2010PropOp54
 70
     1
102
RTVSPost2010Prop55
280
     0
102
RTVSPost2010PropOp55
 70
     1
102
RTVSPost2010Prop56
140
1.0
102
RTVSPost2010PropOp56
 70
     1
102
RTVSPost2010Prop57
140
1.0
102
RTVSPost2010PropOp57
 70
     1
102
RTVSPropertyOp28
 70
     1
102
RTVSPropertyOp29
 70
     1
102
RTVSPropertyOp30
 70
     1
102
RTVSPropertyOp31
 70
     1
102
RTVSPropertyOp32
 70
     1
102
RTVSPropertyOp33
 70
     1
102
RTVSPropertyOp34
 70
     1
102
RTVSPropertyOp35
 70
     1
102
RTVSPropertyOp36
 70
     1
102
RTVSPropertyOp37
 70
     1
102
RTVSPropertyOp38
 70
     1
102
RTVSPropertyOp39
 70
     1
102
RTVSPropertyOp40
 70
     1
102
RTVSPropertyOp41
 70
     1
102
RTVSPropertyOp42
 70
     1
102
RTVSPropertyOp43
 70
     1
102
RTVSPropertyOp44
 70
     1
102
RTVSPropertyOp45
 70
     1
102
RTVSPropertyOp46
 70
     1
102
RTVSPropertyOp47
 70
     1
102
RTVSPropertyOp48
 70
     1
102
RTVSPropertyOp49
 70
     1
102
RTVSPropertyOp50
 70
     1
102
RTVSPropertyOp51
 70
     0
102
RTVSPropertyOp52
 70
     0
102
RTVSPropertyOp53
 70
     1
102
RTVSPropertyOp54
 70
     1
102
RTVSPropertyOp55
 70
     1
102
RTVSPropertyOp56
 70
     1
102
RTVSPropertyOp57
 70
     1
102
RTVSPropertyOp58
 70
     1
102
RTVSPropertyOp59
 70
     1
102
RTVSPropertyOp60
 70
     1
102
RTVSPropertyOp61
 70
     1
102
RTVSPropertyOp62
 70
     1
102
RTVSPropertyOp0
 70
     1
102
RTVSPropertyOp1
 70
     1
102
RTVSPropertyOp2
 70
     1
102
RTVSPropertyOp3
 70
     1
102
RTVSPropertyOp4
 70
     1
102
RTVSPropertyOp5
 70
     1
102
RTVSPropertyOp6
 70
     1
102
RTVSPropertyOp7
 70
     1
102
RTVSPropertyOp8
 70
     1
102
RTVSPropertyOp9
 70
     1
102
RTVSPropertyOp10
 70
     1
102
RTVSPropertyOp11
 70
     1
102
RTVSPropertyOp12
 70
     1
102
RTVSPropertyOp13
 70
     1
102
RTVSPropertyOp14
 70
     1
102
RTVSPropertyOp15
 70
     1
102
RTVSPropertyOp16
 70
     1
102
RTVSPropertyOp17
 70
     1
102
RTVSPropertyOp18
 70
     1
102
RTVSPropertyOp19
 70
     1
102
RTVSPropertyOp20
 70
     1
102
RTVSPropertyOp21
 70
     1
102
RTVSPropertyOp22
 70
     1
102
RTVSPropertyOp23
 70
     1
102
RTVSPropertyOp24
 70
     1
102
RTVSPropertyOp25
 70
     1
102
RTVSPropertyOp26
 70
     1
102
RTVSPropertyOp27
 70
     1
  0
XRECORD
  5
2D2F
102
{ACAD_REACTORS
330
2D2E
102
}
330
2D2E
100
AcDbXrecord
280
     1
102
RTVSPost2010Prop28
280
     0
102
RTVSPost2010PropOp28
 70
     1
102
RTVSPost2010Prop29
280
     1
102
RTVSPost2010PropOp29
 70
     1
102
RTVSPost2010Prop30
280
     1
102
RTVSPost2010PropOp30
 70
     1
102
RTVSPost2010Prop31
280
     0
102
RTVSPost2010PropOp31
 70
     1
102
RTVSPost2010Prop32
280
     0
102
RTVSPost2010PropOp32
 70
     1
102
RTVSPost2010Prop33
280
     0
102
RTVSPost2010PropOp33
 70
     1
102
RTVSPost2010Prop34
280
     0
102
RTVSPost2010PropOp34
 70
     1
102
RTVSPost2010Prop35
280
     0
102
RTVSPost2010PropOp35
 70
     1
102
RTVSPost2010Prop36
280
     0
102
RTVSPost2010PropOp36
 70
     1
102
RTVSPost2010Prop37
 90
       50
102
RTVSPost2010PropOp37
 70
     1
102
RTVSPost2010Prop38
140
0.0
102
RTVSPost2010PropOp38
 70
     1
102
RTVSPost2010Prop39
140
1.0
102
RTVSPost2010PropOp39
 70
     1
102
RTVSPost2010Prop40
 90
        0
102
RTVSPost2010PropOp40
 70
     1
102
RTVSPost2010Prop41ColorIndex
 90
       18
102
RTVSPost2010Prop41ColorRGB
 90
        0
102
RTVSPost2010PropOp41
 70
     1
102
RTVSPost2010Prop42
 90
       50
102
RTVSPost2010PropOp42
 70
     1
102
RTVSPost2010Prop43
 90
        3
102
RTVSPost2010PropOp43
 70
     1
102
RTVSPost2010Prop44ColorIndex
 90
        5
102
RTVSPost2010Prop44ColorRGB
 90
      255
102
RTVSPost2010PropOp44
 70
     1
102
RTVSPost2010Prop45
280
     0
102
RTVSPost2010PropOp45
 70
     1
102
RTVSPost2010Prop46
 90
       50
102
RTVSPost2010PropOp46
 70
     1
102
RTVSPost2010Prop47
 90
       50
102
RTVSPost2010PropOp47
 70
     1
102
RTVSPost2010Prop48
 90
       50
102
RTVSPost2010PropOp48
 70
     1
102
RTVSPost2010Prop49
280
     0
102
RTVSPost2010PropOp49
 70
     1
102
RTVSPost2010Prop50
 90
       50
102
RTVSPost2010PropOp50
 70
     1
102
RTVSPost2010Prop51ColorIndex
 90
      256
102
RTVSPost2010Prop51ColorRGB
 90
-16777216
102
RTVSPost2010PropOp51
 70
     0
102
RTVSPost2010Prop52
140
1.0
102
RTVSPost2010PropOp52
 70
     0
102
RTVSPost2010Prop53
 90
        2
102
RTVSPost2010PropOp53
 70
     1
102
RTVSPost2010Prop54
  1
strokes_ogs.tif
102
RTVSPost2010PropOp54
 70
     1
102
RTVSPost2010Prop55
280
     0
102
RTVSPost2010PropOp55
 70
     1
102
RTVSPost2010Prop56
140
1.0
102
RTVSPost2010PropOp56
 70
     1
102
RTVSPost2010Prop57
140
1.0
102
RTVSPost2010PropOp57
 70
     1
102
RTVSPropertyOp28
 70
     1
102
RTVSPropertyOp29
 70
     1
102
RTVSPropertyOp30
 70
     1
102
RTVSPropertyOp31
 70
     1
102
RTVSPropertyOp32
 70
     1
102
RTVSPropertyOp33
 70
     1
102
RTVSPropertyOp34
 70
     1
102
RTVSPropertyOp35
 70
     1
102
RTVSPropertyOp36
 70
     1
102
RTVSPropertyOp37
 70
     1
102
RTVSPropertyOp38
 70
     1
102
RTVSPropertyOp39
 70
     1
102
RTVSPropertyOp40
 70
     1
102
RTVSPropertyOp41
 70
     1
102
RTVSPropertyOp42
 70
     1
102
RTVSPropertyOp43
 70
     1
102
RTVSPropertyOp44
 70
     1
102
RTVSPropertyOp45
 70
     1
102
RTVSPropertyOp46
 70
     1
102
RTVSPropertyOp47
 70
     1
102
RTVSPropertyOp48
 70
     1
102
RTVSPropertyOp49
 70
     1
102
RTVSPropertyOp50
 70
     1
102
RTVSPropertyOp51
 70
     0
102
RTVSPropertyOp52
 70
     0
102
RTVSPropertyOp53
 70
     1
102
RTVSPropertyOp54
 70
     1
102
RTVSPropertyOp55
 70
     1
102
RTVSPropertyOp56
 70
     1
102
RTVSPropertyOp57
 70
     1
102
RTVSPropertyOp58
 70
     1
102
RTVSPropertyOp59
 70
     1
102
RTVSPropertyOp60
 70
     1
102
RTVSPropertyOp61
 70
     1
102
RTVSPropertyOp62
 70
     1
102
RTVSPropertyOp0
 70
     1
102
RTVSPropertyOp1
 70
     1
102
RTVSPropertyOp2
 70
     1
102
RTVSPropertyOp3
 70
     1
102
RTVSPropertyOp4
 70
     1
102
RTVSPropertyOp5
 70
     1
102
RTVSPropertyOp6
 70
     1
102
RTVSPropertyOp7
 70
     1
102
RTVSPropertyOp8
 70
     1
102
RTVSPropertyOp9
 70
     1
102
RTVSPropertyOp10
 70
     1
102
RTVSPropertyOp11
 70
     1
102
RTVSPropertyOp12
 70
     1
102
RTVSPropertyOp13
 70
     1
102
RTVSPropertyOp14
 70
     1
102
RTVSPropertyOp15
 70
     1
102
RTVSPropertyOp16
 70
     1
102
RTVSPropertyOp17
 70
     1
102
RTVSPropertyOp18
 70
     1
102
RTVSPropertyOp19
 70
     1
102
RTVSPropertyOp20
 70
     1
102
RTVSPropertyOp21
 70
     1
102
RTVSPropertyOp22
 70
     1
102
RTVSPropertyOp23
 70
     1
102
RTVSPropertyOp24
 70
     1
102
RTVSPropertyOp25
 70
     1
102
RTVSPropertyOp26
 70
     1
102
RTVSPropertyOp27
 70
     1
  0
XRECORD
  5
2D4B
102
{ACAD_REACTORS
330
2D4A
102
}
330
2D4A
100
AcDbXrecord
280
     1
102
RTVSPost2010Prop28
280
     0
102
RTVSPost2010PropOp28
 70
     1
102
RTVSPost2010Prop29
280
     1
102
RTVSPost2010PropOp29
 70
     1
102
RTVSPost2010Prop30
280
     1
102
RTVSPost2010PropOp30
 70
     1
102
RTVSPost2010Prop31
280
     0
102
RTVSPost2010PropOp31
 70
     1
102
RTVSPost2010Prop32
280
     0
102
RTVSPost2010PropOp32
 70
     1
102
RTVSPost2010Prop33
280
     0
102
RTVSPost2010PropOp33
 70
     1
102
RTVSPost2010Prop34
280
     0
102
RTVSPost2010PropOp34
 70
     1
102
RTVSPost2010Prop35
280
     0
102
RTVSPost2010PropOp35
 70
     1
102
RTVSPost2010Prop36
280
     0
102
RTVSPost2010PropOp36
 70
     1
102
RTVSPost2010Prop37
 90
       50
102
RTVSPost2010PropOp37
 70
     1
102
RTVSPost2010Prop38
140
0.0
102
RTVSPost2010PropOp38
 70
     1
102
RTVSPost2010Prop39
140
1.0
102
RTVSPost2010PropOp39
 70
     1
102
RTVSPost2010Prop40
 90
        0
102
RTVSPost2010PropOp40
 70
     1
102
RTVSPost2010Prop41ColorIndex
 90
       18
102
RTVSPost2010Prop41ColorRGB
 90
        0
102
RTVSPost2010PropOp41
 70
     1
102
RTVSPost2010Prop42
 90
       50
102
RTVSPost2010PropOp42
 70
     1
102
RTVSPost2010Prop43
 90
        3
102
RTVSPost2010PropOp43
 70
     1
102
RTVSPost2010Prop44ColorIndex
 90
        5
102
RTVSPost2010Prop44ColorRGB
 90
      255
102
RTVSPost2010PropOp44
 70
     1
102
RTVSPost2010Prop45
280
     0
102
RTVSPost2010PropOp45
 70
     1
102
RTVSPost2010Prop46
 90
       50
102
RTVSPost2010PropOp46
 70
     1
102
RTVSPost2010Prop47
 90
       50
102
RTVSPost2010PropOp47
 70
     1
102
RTVSPost2010Prop48
 90
       50
102
RTVSPost2010PropOp48
 70
     1
102
RTVSPost2010Prop49
280
     0
102
RTVSPost2010PropOp49
 70
     1
102
RTVSPost2010Prop50
 90
       50
102
RTVSPost2010PropOp50
 70
     1
102
RTVSPost2010Prop51ColorIndex
 90
      256
102
RTVSPost2010Prop51ColorRGB
 90
-16777216
102
RTVSPost2010PropOp51
 70
     0
102
RTVSPost2010Prop52
140
1.0
102
RTVSPost2010PropOp52
 70
     0
102
RTVSPost2010Prop53
 90
        2
102
RTVSPost2010PropOp53
 70
     1
102
RTVSPost2010Prop54
  1
strokes_ogs.tif
102
RTVSPost2010PropOp54
 70
     1
102
RTVSPost2010Prop55
280
     0
102
RTVSPost2010PropOp55
 70
     1
102
RTVSPost2010Prop56
140
1.0
102
RTVSPost2010PropOp56
 70
     1
102
RTVSPost2010Prop57
140
1.0
102
RTVSPost2010PropOp57
 70
     1
102
RTVSPropertyOp28
 70
     1
102
RTVSPropertyOp29
 70
     1
102
RTVSPropertyOp30
 70
     1
102
RTVSPropertyOp31
 70
     1
102
RTVSPropertyOp32
 70
     1
102
RTVSPropertyOp33
 70
     1
102
RTVSPropertyOp34
 70
     1
102
RTVSPropertyOp35
 70
     1
102
RTVSPropertyOp36
 70
     1
102
RTVSPropertyOp37
 70
     1
102
RTVSPropertyOp38
 70
     1
102
RTVSPropertyOp39
 70
     1
102
RTVSPropertyOp40
 70
     1
102
RTVSPropertyOp41
 70
     1
102
RTVSPropertyOp42
 70
     1
102
RTVSPropertyOp43
 70
     1
102
RTVSPropertyOp44
 70
     1
102
RTVSPropertyOp45
 70
     1
102
RTVSPropertyOp46
 70
     1
102
RTVSPropertyOp47
 70
     1
102
RTVSPropertyOp48
 70
     1
102
RTVSPropertyOp49
 70
     1
102
RTVSPropertyOp50
 70
     1
102
RTVSPropertyOp51
 70
     0
102
RTVSPropertyOp52
 70
     0
102
RTVSPropertyOp53
 70
     1
102
RTVSPropertyOp54
 70
     1
102
RTVSPropertyOp55
 70
     1
102
RTVSPropertyOp56
 70
     1
102
RTVSPropertyOp57
 70
     1
102
RTVSPropertyOp58
 70
     1
102
RTVSPropertyOp59
 70
     1
102
RTVSPropertyOp60
 70
     1
102
RTVSPropertyOp61
 70
     1
102
RTVSPropertyOp62
 70
     1
102
RTVSPropertyOp0
 70
     0
102
RTVSPropertyOp1
 70
     0
102
RTVSPropertyOp2
 70
     0
102
RTVSPropertyOp3
 70
     0
102
RTVSPropertyOp4
 70
     0
102
RTVSPropertyOp5
 70
     0
102
RTVSPropertyOp6
 70
     0
102
RTVSPropertyOp7
 70
     0
102
RTVSPropertyOp8
 70
     0
102
RTVSPropertyOp9
 70
     0
102
RTVSPropertyOp10
 70
     0
102
RTVSPropertyOp11
 70
     0
102
RTVSPropertyOp12
 70
     0
102
RTVSPropertyOp13
 70
     0
102
RTVSPropertyOp14
 70
     2
102
RTVSPropertyOp15
 70
     0
102
RTVSPropertyOp16
 70
     0
102
RTVSPropertyOp17
 70
     0
102
RTVSPropertyOp18
 70
     0
102
RTVSPropertyOp19
 70
     0
102
RTVSPropertyOp20
 70
     0
102
RTVSPropertyOp21
 70
     0
102
RTVSPropertyOp22
 70
     0
102
RTVSPropertyOp23
 70
     0
102
RTVSPropertyOp24
 70
     0
102
RTVSPropertyOp25
 70
     0
102
RTVSPropertyOp26
 70
     0
102
RTVSPropertyOp27
 70
     0
  0
XRECORD
  5
2D3B
102
{ACAD_REACTORS
330
2D3A
102
}
330
2D3A
100
AcDbXrecord
280
     1
102
RTVSPost2010Prop28
280
     0
102
RTVSPost2010PropOp28
 70
     1
102
RTVSPost2010Prop29
280
     1
102
RTVSPost2010PropOp29
 70
     1
102
RTVSPost2010Prop30
280
     1
102
RTVSPost2010PropOp30
 70
     1
102
RTVSPost2010Prop31
280
     0
102
RTVSPost2010PropOp31
 70
     1
102
RTVSPost2010Prop32
280
     0
102
RTVSPost2010PropOp32
 70
     1
102
RTVSPost2010Prop33
280
     0
102
RTVSPost2010PropOp33
 70
     1
102
RTVSPost2010Prop34
280
     0
102
RTVSPost2010PropOp34
 70
     1
102
RTVSPost2010Prop35
280
     0
102
RTVSPost2010PropOp35
 70
     1
102
RTVSPost2010Prop36
280
     0
102
RTVSPost2010PropOp36
 70
     1
102
RTVSPost2010Prop37
 90
       50
102
RTVSPost2010PropOp37
 70
     1
102
RTVSPost2010Prop38
140
0.0
102
RTVSPost2010PropOp38
 70
     1
102
RTVSPost2010Prop39
140
1.0
102
RTVSPost2010PropOp39
 70
     1
102
RTVSPost2010Prop40
 90
        0
102
RTVSPost2010PropOp40
 70
     1
102
RTVSPost2010Prop41ColorIndex
 90
       18
102
RTVSPost2010Prop41ColorRGB
 90
        0
102
RTVSPost2010PropOp41
 70
     1
102
RTVSPost2010Prop42
 90
       50
102
RTVSPost2010PropOp42
 70
     1
102
RTVSPost2010Prop43
 90
        3
102
RTVSPost2010PropOp43
 70
     1
102
RTVSPost2010Prop44ColorIndex
 90
        5
102
RTVSPost2010Prop44ColorRGB
 90
      255
102
RTVSPost2010PropOp44
 70
     1
102
RTVSPost2010Prop45
280
     0
102
RTVSPost2010PropOp45
 70
     1
102
RTVSPost2010Prop46
 90
       50
102
RTVSPost2010PropOp46
 70
     1
102
RTVSPost2010Prop47
 90
       50
102
RTVSPost2010PropOp47
 70
     1
102
RTVSPost2010Prop48
 90
       50
102
RTVSPost2010PropOp48
 70
     1
102
RTVSPost2010Prop49
280
     0
102
RTVSPost2010PropOp49
 70
     1
102
RTVSPost2010Prop50
 90
       50
102
RTVSPost2010PropOp50
 70
     1
102
RTVSPost2010Prop51ColorIndex
 90
      256
102
RTVSPost2010Prop51ColorRGB
 90
-16777216
102
RTVSPost2010PropOp51
 70
     0
102
RTVSPost2010Prop52
140
1.0
102
RTVSPost2010PropOp52
 70
     0
102
RTVSPost2010Prop53
 90
        2
102
RTVSPost2010PropOp53
 70
     1
102
RTVSPost2010Prop54
  1
strokes_ogs.tif
102
RTVSPost2010PropOp54
 70
     1
102
RTVSPost2010Prop55
280
     0
102
RTVSPost2010PropOp55
 70
     1
102
RTVSPost2010Prop56
140
1.0
102
RTVSPost2010PropOp56
 70
     1
102
RTVSPost2010Prop57
140
1.0
102
RTVSPost2010PropOp57
 70
     1
102
RTVSPropertyOp28
 70
     1
102
RTVSPropertyOp29
 70
     1
102
RTVSPropertyOp30
 70
     1
102
RTVSPropertyOp31
 70
     1
102
RTVSPropertyOp32
 70
     1
102
RTVSPropertyOp33
 70
     1
102
RTVSPropertyOp34
 70
     1
102
RTVSPropertyOp35
 70
     1
102
RTVSPropertyOp36
 70
     1
102
RTVSPropertyOp37
 70
     1
102
RTVSPropertyOp38
 70
     1
102
RTVSPropertyOp39
 70
     1
102
RTVSPropertyOp40
 70
     1
102
RTVSPropertyOp41
 70
     1
102
RTVSPropertyOp42
 70
     1
102
RTVSPropertyOp43
 70
     1
102
RTVSPropertyOp44
 70
     1
102
RTVSPropertyOp45
 70
     1
102
RTVSPropertyOp46
 70
     1
102
RTVSPropertyOp47
 70
     1
102
RTVSPropertyOp48
 70
     1
102
RTVSPropertyOp49
 70
     1
102
RTVSPropertyOp50
 70
     1
102
RTVSPropertyOp51
 70
     0
102
RTVSPropertyOp52
 70
     0
102
RTVSPropertyOp53
 70
     1
102
RTVSPropertyOp54
 70
     1
102
RTVSPropertyOp55
 70
     1
102
RTVSPropertyOp56
 70
     1
102
RTVSPropertyOp57
 70
     1
102
RTVSPropertyOp58
 70
     1
102
RTVSPropertyOp59
 70
     1
102
RTVSPropertyOp60
 70
     1
102
RTVSPropertyOp61
 70
     1
102
RTVSPropertyOp62
 70
     1
102
RTVSPropertyOp0
 70
     1
102
RTVSPropertyOp1
 70
     1
102
RTVSPropertyOp2
 70
     1
102
RTVSPropertyOp3
 70
     1
102
RTVSPropertyOp4
 70
     1
102
RTVSPropertyOp5
 70
     1
102
RTVSPropertyOp6
 70
     1
102
RTVSPropertyOp7
 70
     1
102
RTVSPropertyOp8
 70
     1
102
RTVSPropertyOp9
 70
     1
102
RTVSPropertyOp10
 70
     1
102
RTVSPropertyOp11
 70
     1
102
RTVSPropertyOp12
 70
     1
102
RTVSPropertyOp13
 70
     1
102
RTVSPropertyOp14
 70
     1
102
RTVSPropertyOp15
 70
     1
102
RTVSPropertyOp16
 70
     1
102
RTVSPropertyOp17
 70
     1
102
RTVSPropertyOp18
 70
     1
102
RTVSPropertyOp19
 70
     1
102
RTVSPropertyOp20
 70
     1
102
RTVSPropertyOp21
 70
     1
102
RTVSPropertyOp22
 70
     1
102
RTVSPropertyOp23
 70
     1
102
RTVSPropertyOp24
 70
     1
102
RTVSPropertyOp25
 70
     1
102
RTVSPropertyOp26
 70
     1
102
RTVSPropertyOp27
 70
     1
  0
XRECORD
  5
2D4D
102
{ACAD_REACTORS
330
2D4C
102
}
330
2D4C
100
AcDbXrecord
280
     1
102
RTVSPost2010Prop28
280
     0
102
RTVSPost2010PropOp28
 70
     1
102
RTVSPost2010Prop29
280
     1
102
RTVSPost2010PropOp29
 70
     1
102
RTVSPost2010Prop30
280
     1
102
RTVSPost2010PropOp30
 70
     1
102
RTVSPost2010Prop31
280
     0
102
RTVSPost2010PropOp31
 70
     1
102
RTVSPost2010Prop32
280
     0
102
RTVSPost2010PropOp32
 70
     1
102
RTVSPost2010Prop33
280
     0
102
RTVSPost2010PropOp33
 70
     1
102
RTVSPost2010Prop34
280
     0
102
RTVSPost2010PropOp34
 70
     1
102
RTVSPost2010Prop35
280
     0
102
RTVSPost2010PropOp35
 70
     1
102
RTVSPost2010Prop36
280
     0
102
RTVSPost2010PropOp36
 70
     1
102
RTVSPost2010Prop37
 90
       50
102
RTVSPost2010PropOp37
 70
     1
102
RTVSPost2010Prop38
140
0.0
102
RTVSPost2010PropOp38
 70
     1
102
RTVSPost2010Prop39
140
1.0
102
RTVSPost2010PropOp39
 70
     1
102
RTVSPost2010Prop40
 90
        0
102
RTVSPost2010PropOp40
 70
     1
102
RTVSPost2010Prop41ColorIndex
 90
       18
102
RTVSPost2010Prop41ColorRGB
 90
        0
102
RTVSPost2010PropOp41
 70
     1
102
RTVSPost2010Prop42
 90
       50
102
RTVSPost2010PropOp42
 70
     1
102
RTVSPost2010Prop43
 90
        3
102
RTVSPost2010PropOp43
 70
     1
102
RTVSPost2010Prop44ColorIndex
 90
        5
102
RTVSPost2010Prop44ColorRGB
 90
      255
102
RTVSPost2010PropOp44
 70
     1
102
RTVSPost2010Prop45
280
     0
102
RTVSPost2010PropOp45
 70
     1
102
RTVSPost2010Prop46
 90
       50
102
RTVSPost2010PropOp46
 70
     1
102
RTVSPost2010Prop47
 90
       50
102
RTVSPost2010PropOp47
 70
     1
102
RTVSPost2010Prop48
 90
       50
102
RTVSPost2010PropOp48
 70
     1
102
RTVSPost2010Prop49
280
     0
102
RTVSPost2010PropOp49
 70
     1
102
RTVSPost2010Prop50
 90
       50
102
RTVSPost2010PropOp50
 70
     1
102
RTVSPost2010Prop51ColorIndex
 90
      256
102
RTVSPost2010Prop51ColorRGB
 90
-16777216
102
RTVSPost2010PropOp51
 70
     0
102
RTVSPost2010Prop52
140
1.0
102
RTVSPost2010PropOp52
 70
     0
102
RTVSPost2010Prop53
 90
        2
102
RTVSPost2010PropOp53
 70
     1
102
RTVSPost2010Prop54
  1
strokes_ogs.tif
102
RTVSPost2010PropOp54
 70
     1
102
RTVSPost2010Prop55
280
     0
102
RTVSPost2010PropOp55
 70
     1
102
RTVSPost2010Prop56
140
1.0
102
RTVSPost2010PropOp56
 70
     1
102
RTVSPost2010Prop57
140
1.0
102
RTVSPost2010PropOp57
 70
     1
102
RTVSPropertyOp28
 70
     1
102
RTVSPropertyOp29
 70
     1
102
RTVSPropertyOp30
 70
     1
102
RTVSPropertyOp31
 70
     1
102
RTVSPropertyOp32
 70
     1
102
RTVSPropertyOp33
 70
     1
102
RTVSPropertyOp34
 70
     1
102
RTVSPropertyOp35
 70
     1
102
RTVSPropertyOp36
 70
     1
102
RTVSPropertyOp37
 70
     1
102
RTVSPropertyOp38
 70
     1
102
RTVSPropertyOp39
 70
     1
102
RTVSPropertyOp40
 70
     1
102
RTVSPropertyOp41
 70
     1
102
RTVSPropertyOp42
 70
     1
102
RTVSPropertyOp43
 70
     1
102
RTVSPropertyOp44
 70
     1
102
RTVSPropertyOp45
 70
     1
102
RTVSPropertyOp46
 70
     1
102
RTVSPropertyOp47
 70
     1
102
RTVSPropertyOp48
 70
     1
102
RTVSPropertyOp49
 70
     1
102
RTVSPropertyOp50
 70
     1
102
RTVSPropertyOp51
 70
     0
102
RTVSPropertyOp52
 70
     0
102
RTVSPropertyOp53
 70
     1
102
RTVSPropertyOp54
 70
     1
102
RTVSPropertyOp55
 70
     1
102
RTVSPropertyOp56
 70
     1
102
RTVSPropertyOp57
 70
     1
102
RTVSPropertyOp58
 70
     1
102
RTVSPropertyOp59
 70
     1
102
RTVSPropertyOp60
 70
     1
102
RTVSPropertyOp61
 70
     1
102
RTVSPropertyOp62
 70
     1
102
RTVSPropertyOp0
 70
     0
102
RTVSPropertyOp1
 70
     0
102
RTVSPropertyOp2
 70
     0
102
RTVSPropertyOp3
 70
     0
102
RTVSPropertyOp4
 70
     0
102
RTVSPropertyOp5
 70
     0
102
RTVSPropertyOp6
 70
     0
102
RTVSPropertyOp7
 70
     0
102
RTVSPropertyOp8
 70
     0
102
RTVSPropertyOp9
 70
     0
102
RTVSPropertyOp10
 70
     0
102
RTVSPropertyOp11
 70
     0
102
RTVSPropertyOp12
 70
     0
102
RTVSPropertyOp13
 70
     0
102
RTVSPropertyOp14
 70
     2
102
RTVSPropertyOp15
 70
     0
102
RTVSPropertyOp16
 70
     0
102
RTVSPropertyOp17
 70
     0
102
RTVSPropertyOp18
 70
     0
102
RTVSPropertyOp19
 70
     0
102
RTVSPropertyOp20
 70
     0
102
RTVSPropertyOp21
 70
     0
102
RTVSPropertyOp22
 70
     0
102
RTVSPropertyOp23
 70
     0
102
RTVSPropertyOp24
 70
     0
102
RTVSPropertyOp25
 70
     0
102
RTVSPropertyOp26
 70
     0
102
RTVSPropertyOp27
 70
     0
  0
XRECORD
  5
2D33
102
{ACAD_REACTORS
330
2D32
102
}
330
2D32
100
AcDbXrecord
280
     1
102
RTVSPost2010Prop28
280
     0
102
RTVSPost2010PropOp28
 70
     1
102
RTVSPost2010Prop29
280
     1
102
RTVSPost2010PropOp29
 70
     1
102
RTVSPost2010Prop30
280
     1
102
RTVSPost2010PropOp30
 70
     1
102
RTVSPost2010Prop31
280
     0
102
RTVSPost2010PropOp31
 70
     1
102
RTVSPost2010Prop32
280
     0
102
RTVSPost2010PropOp32
 70
     1
102
RTVSPost2010Prop33
280
     0
102
RTVSPost2010PropOp33
 70
     1
102
RTVSPost2010Prop34
280
     0
102
RTVSPost2010PropOp34
 70
     1
102
RTVSPost2010Prop35
280
     0
102
RTVSPost2010PropOp35
 70
     1
102
RTVSPost2010Prop36
280
     0
102
RTVSPost2010PropOp36
 70
     1
102
RTVSPost2010Prop37
 90
       50
102
RTVSPost2010PropOp37
 70
     1
102
RTVSPost2010Prop38
140
0.0
102
RTVSPost2010PropOp38
 70
     1
102
RTVSPost2010Prop39
140
1.0
102
RTVSPost2010PropOp39
 70
     1
102
RTVSPost2010Prop40
 90
        0
102
RTVSPost2010PropOp40
 70
     1
102
RTVSPost2010Prop41ColorIndex
 90
       18
102
RTVSPost2010Prop41ColorRGB
 90
        0
102
RTVSPost2010PropOp41
 70
     1
102
RTVSPost2010Prop42
 90
       50
102
RTVSPost2010PropOp42
 70
     1
102
RTVSPost2010Prop43
 90
        3
102
RTVSPost2010PropOp43
 70
     1
102
RTVSPost2010Prop44ColorIndex
 90
        5
102
RTVSPost2010Prop44ColorRGB
 90
      255
102
RTVSPost2010PropOp44
 70
     1
102
RTVSPost2010Prop45
280
     0
102
RTVSPost2010PropOp45
 70
     1
102
RTVSPost2010Prop46
 90
       50
102
RTVSPost2010PropOp46
 70
     1
102
RTVSPost2010Prop47
 90
       50
102
RTVSPost2010PropOp47
 70
     1
102
RTVSPost2010Prop48
 90
       50
102
RTVSPost2010PropOp48
 70
     1
102
RTVSPost2010Prop49
280
     0
102
RTVSPost2010PropOp49
 70
     1
102
RTVSPost2010Prop50
 90
       50
102
RTVSPost2010PropOp50
 70
     1
102
RTVSPost2010Prop51ColorIndex
 90
      256
102
RTVSPost2010Prop51ColorRGB
 90
-16777216
102
RTVSPost2010PropOp51
 70
     0
102
RTVSPost2010Prop52
140
1.0
102
RTVSPost2010PropOp52
 70
     0
102
RTVSPost2010Prop53
 90
        2
102
RTVSPost2010PropOp53
 70
     1
102
RTVSPost2010Prop54
  1
strokes_ogs.tif
102
RTVSPost2010PropOp54
 70
     1
102
RTVSPost2010Prop55
280
     0
102
RTVSPost2010PropOp55
 70
     1
102
RTVSPost2010Prop56
140
1.0
102
RTVSPost2010PropOp56
 70
     1
102
RTVSPost2010Prop57
140
1.0
102
RTVSPost2010PropOp57
 70
     1
102
RTVSPropertyOp28
 70
     1
102
RTVSPropertyOp29
 70
     1
102
RTVSPropertyOp30
 70
     1
102
RTVSPropertyOp31
 70
     1
102
RTVSPropertyOp32
 70
     1
102
RTVSPropertyOp33
 70
     1
102
RTVSPropertyOp34
 70
     1
102
RTVSPropertyOp35
 70
     1
102
RTVSPropertyOp36
 70
     1
102
RTVSPropertyOp37
 70
     1
102
RTVSPropertyOp38
 70
     1
102
RTVSPropertyOp39
 70
     1
102
RTVSPropertyOp40
 70
     1
102
RTVSPropertyOp41
 70
     1
102
RTVSPropertyOp42
 70
     1
102
RTVSPropertyOp43
 70
     1
102
RTVSPropertyOp44
 70
     1
102
RTVSPropertyOp45
 70
     1
102
RTVSPropertyOp46
 70
     1
102
RTVSPropertyOp47
 70
     1
102
RTVSPropertyOp48
 70
     1
102
RTVSPropertyOp49
 70
     1
102
RTVSPropertyOp50
 70
     1
102
RTVSPropertyOp51
 70
     0
102
RTVSPropertyOp52
 70
     0
102
RTVSPropertyOp53
 70
     1
102
RTVSPropertyOp54
 70
     1
102
RTVSPropertyOp55
 70
     1
102
RTVSPropertyOp56
 70
     1
102
RTVSPropertyOp57
 70
     1
102
RTVSPropertyOp58
 70
     1
102
RTVSPropertyOp59
 70
     1
102
RTVSPropertyOp60
 70
     1
102
RTVSPropertyOp61
 70
     1
102
RTVSPropertyOp62
 70
     1
102
RTVSPropertyOp0
 70
     1
102
RTVSPropertyOp1
 70
     1
102
RTVSPropertyOp2
 70
     1
102
RTVSPropertyOp3
 70
     1
102
RTVSPropertyOp4
 70
     1
102
RTVSPropertyOp5
 70
     1
102
RTVSPropertyOp6
 70
     1
102
RTVSPropertyOp7
 70
     1
102
RTVSPropertyOp8
 70
     1
102
RTVSPropertyOp9
 70
     1
102
RTVSPropertyOp10
 70
     1
102
RTVSPropertyOp11
 70
     1
102
RTVSPropertyOp12
 70
     1
102
RTVSPropertyOp13
 70
     1
102
RTVSPropertyOp14
 70
     1
102
RTVSPropertyOp15
 70
     1
102
RTVSPropertyOp16
 70
     1
102
RTVSPropertyOp17
 70
     1
102
RTVSPropertyOp18
 70
     1
102
RTVSPropertyOp19
 70
     1
102
RTVSPropertyOp20
 70
     1
102
RTVSPropertyOp21
 70
     1
102
RTVSPropertyOp22
 70
     1
102
RTVSPropertyOp23
 70
     1
102
RTVSPropertyOp24
 70
     1
102
RTVSPropertyOp25
 70
     1
102
RTVSPropertyOp26
 70
     1
102
RTVSPropertyOp27
 70
     1
  0
XRECORD
  5
2D49
102
{ACAD_REACTORS
330
2D48
102
}
330
2D48
100
AcDbXrecord
280
     1
102
RTVSPost2010Prop28
280
     0
102
RTVSPost2010PropOp28
 70
     1
102
RTVSPost2010Prop29
280
     1
102
RTVSPost2010PropOp29
 70
     1
102
RTVSPost2010Prop30
280
     1
102
RTVSPost2010PropOp30
 70
     1
102
RTVSPost2010Prop31
280
     0
102
RTVSPost2010PropOp31
 70
     1
102
RTVSPost2010Prop32
280
     0
102
RTVSPost2010PropOp32
 70
     1
102
RTVSPost2010Prop33
280
     0
102
RTVSPost2010PropOp33
 70
     1
102
RTVSPost2010Prop34
280
     0
102
RTVSPost2010PropOp34
 70
     1
102
RTVSPost2010Prop35
280
     0
102
RTVSPost2010PropOp35
 70
     1
102
RTVSPost2010Prop36
280
     0
102
RTVSPost2010PropOp36
 70
     1
102
RTVSPost2010Prop37
 90
       50
102
RTVSPost2010PropOp37
 70
     1
102
RTVSPost2010Prop38
140
0.0
102
RTVSPost2010PropOp38
 70
     1
102
RTVSPost2010Prop39
140
1.0
102
RTVSPost2010PropOp39
 70
     1
102
RTVSPost2010Prop40
 90
        0
102
RTVSPost2010PropOp40
 70
     1
102
RTVSPost2010Prop41ColorIndex
 90
       18
102
RTVSPost2010Prop41ColorRGB
 90
        0
102
RTVSPost2010PropOp41
 70
     1
102
RTVSPost2010Prop42
 90
       50
102
RTVSPost2010PropOp42
 70
     1
102
RTVSPost2010Prop43
 90
        3
102
RTVSPost2010PropOp43
 70
     1
102
RTVSPost2010Prop44ColorIndex
 90
        5
102
RTVSPost2010Prop44ColorRGB
 90
      255
102
RTVSPost2010PropOp44
 70
     1
102
RTVSPost2010Prop45
280
     0
102
RTVSPost2010PropOp45
 70
     1
102
RTVSPost2010Prop46
 90
       50
102
RTVSPost2010PropOp46
 70
     1
102
RTVSPost2010Prop47
 90
       50
102
RTVSPost2010PropOp47
 70
     1
102
RTVSPost2010Prop48
 90
       50
102
RTVSPost2010PropOp48
 70
     1
102
RTVSPost2010Prop49
280
     0
102
RTVSPost2010PropOp49
 70
     1
102
RTVSPost2010Prop50
 90
       50
102
RTVSPost2010PropOp50
 70
     1
102
RTVSPost2010Prop51ColorIndex
 90
      256
102
RTVSPost2010Prop51ColorRGB
 90
-16777216
102
RTVSPost2010PropOp51
 70
     0
102
RTVSPost2010Prop52
140
1.0
102
RTVSPost2010PropOp52
 70
     0
102
RTVSPost2010Prop53
 90
        2
102
RTVSPost2010PropOp53
 70
     1
102
RTVSPost2010Prop54
  1
strokes_ogs.tif
102
RTVSPost2010PropOp54
 70
     1
102
RTVSPost2010Prop55
280
     0
102
RTVSPost2010PropOp55
 70
     1
102
RTVSPost2010Prop56
140
1.0
102
RTVSPost2010PropOp56
 70
     1
102
RTVSPost2010Prop57
140
1.0
102
RTVSPost2010PropOp57
 70
     1
102
RTVSPropertyOp28
 70
     1
102
RTVSPropertyOp29
 70
     1
102
RTVSPropertyOp30
 70
     1
102
RTVSPropertyOp31
 70
     1
102
RTVSPropertyOp32
 70
     1
102
RTVSPropertyOp33
 70
     1
102
RTVSPropertyOp34
 70
     1
102
RTVSPropertyOp35
 70
     1
102
RTVSPropertyOp36
 70
     1
102
RTVSPropertyOp37
 70
     1
102
RTVSPropertyOp38
 70
     1
102
RTVSPropertyOp39
 70
     1
102
RTVSPropertyOp40
 70
     1
102
RTVSPropertyOp41
 70
     1
102
RTVSPropertyOp42
 70
     1
102
RTVSPropertyOp43
 70
     1
102
RTVSPropertyOp44
 70
     1
102
RTVSPropertyOp45
 70
     1
102
RTVSPropertyOp46
 70
     1
102
RTVSPropertyOp47
 70
     1
102
RTVSPropertyOp48
 70
     1
102
RTVSPropertyOp49
 70
     1
102
RTVSPropertyOp50
 70
     1
102
RTVSPropertyOp51
 70
     0
102
RTVSPropertyOp52
 70
     0
102
RTVSPropertyOp53
 70
     1
102
RTVSPropertyOp54
 70
     1
102
RTVSPropertyOp55
 70
     1
102
RTVSPropertyOp56
 70
     1
102
RTVSPropertyOp57
 70
     1
102
RTVSPropertyOp58
 70
     1
102
RTVSPropertyOp59
 70
     1
102
RTVSPropertyOp60
 70
     1
102
RTVSPropertyOp61
 70
     1
102
RTVSPropertyOp62
 70
     1
102
RTVSPropertyOp0
 70
     1
102
RTVSPropertyOp1
 70
     1
102
RTVSPropertyOp2
 70
     1
102
RTVSPropertyOp3
 70
     1
102
RTVSPropertyOp4
 70
     1
102
RTVSPropertyOp5
 70
     1
102
RTVSPropertyOp6
 70
     1
102
RTVSPropertyOp7
 70
     1
102
RTVSPropertyOp8
 70
     1
102
RTVSPropertyOp9
 70
     1
102
RTVSPropertyOp10
 70
     1
102
RTVSPropertyOp11
 70
     1
102
RTVSPropertyOp12
 70
     1
102
RTVSPropertyOp13
 70
     1
102
RTVSPropertyOp14
 70
     1
102
RTVSPropertyOp15
 70
     1
102
RTVSPropertyOp16
 70
     1
102
RTVSPropertyOp17
 70
     1
102
RTVSPropertyOp18
 70
     1
102
RTVSPropertyOp19
 70
     1
102
RTVSPropertyOp20
 70
     1
102
RTVSPropertyOp21
 70
     1
102
RTVSPropertyOp22
 70
     1
102
RTVSPropertyOp23
 70
     1
102
RTVSPropertyOp24
 70
     1
102
RTVSPropertyOp25
 70
     1
102
RTVSPropertyOp26
 70
     1
102
RTVSPropertyOp27
 70
     1
  0
XRECORD
  5
2D47
102
{ACAD_REACTORS
330
2D46
102
}
330
2D46
100
AcDbXrecord
280
     1
102
RTVSPost2010Prop28
280
     0
102
RTVSPost2010PropOp28
 70
     1
102
RTVSPost2010Prop29
280
     1
102
RTVSPost2010PropOp29
 70
     1
102
RTVSPost2010Prop30
280
     1
102
RTVSPost2010PropOp30
 70
     1
102
RTVSPost2010Prop31
280
     0
102
RTVSPost2010PropOp31
 70
     1
102
RTVSPost2010Prop32
280
     0
102
RTVSPost2010PropOp32
 70
     1
102
RTVSPost2010Prop33
280
     0
102
RTVSPost2010PropOp33
 70
     1
102
RTVSPost2010Prop34
280
     0
102
RTVSPost2010PropOp34
 70
     1
102
RTVSPost2010Prop35
280
     0
102
RTVSPost2010PropOp35
 70
     1
102
RTVSPost2010Prop36
280
     0
102
RTVSPost2010PropOp36
 70
     1
102
RTVSPost2010Prop37
 90
       50
102
RTVSPost2010PropOp37
 70
     1
102
RTVSPost2010Prop38
140
0.0
102
RTVSPost2010PropOp38
 70
     1
102
RTVSPost2010Prop39
140
1.0
102
RTVSPost2010PropOp39
 70
     1
102
RTVSPost2010Prop40
 90
        0
102
RTVSPost2010PropOp40
 70
     1
102
RTVSPost2010Prop41ColorIndex
 90
       18
102
RTVSPost2010Prop41ColorRGB
 90
        0
102
RTVSPost2010PropOp41
 70
     1
102
RTVSPost2010Prop42
 90
       50
102
RTVSPost2010PropOp42
 70
     1
102
RTVSPost2010Prop43
 90
        3
102
RTVSPost2010PropOp43
 70
     1
102
RTVSPost2010Prop44ColorIndex
 90
        5
102
RTVSPost2010Prop44ColorRGB
 90
      255
102
RTVSPost2010PropOp44
 70
     1
102
RTVSPost2010Prop45
280
     0
102
RTVSPost2010PropOp45
 70
     1
102
RTVSPost2010Prop46
 90
       50
102
RTVSPost2010PropOp46
 70
     1
102
RTVSPost2010Prop47
 90
       50
102
RTVSPost2010PropOp47
 70
     1
102
RTVSPost2010Prop48
 90
       50
102
RTVSPost2010PropOp48
 70
     1
102
RTVSPost2010Prop49
280
     0
102
RTVSPost2010PropOp49
 70
     1
102
RTVSPost2010Prop50
 90
       50
102
RTVSPost2010PropOp50
 70
     1
102
RTVSPost2010Prop51ColorIndex
 90
      256
102
RTVSPost2010Prop51ColorRGB
 90
-16777216
102
RTVSPost2010PropOp51
 70
     0
102
RTVSPost2010Prop52
140
1.0
102
RTVSPost2010PropOp52
 70
     0
102
RTVSPost2010Prop53
 90
        2
102
RTVSPost2010PropOp53
 70
     1
102
RTVSPost2010Prop54
  1
strokes_ogs.tif
102
RTVSPost2010PropOp54
 70
     1
102
RTVSPost2010Prop55
280
     0
102
RTVSPost2010PropOp55
 70
     1
102
RTVSPost2010Prop56
140
1.0
102
RTVSPost2010PropOp56
 70
     1
102
RTVSPost2010Prop57
140
1.0
102
RTVSPost2010PropOp57
 70
     1
102
RTVSPropertyOp28
 70
     1
102
RTVSPropertyOp29
 70
     1
102
RTVSPropertyOp30
 70
     1
102
RTVSPropertyOp31
 70
     1
102
RTVSPropertyOp32
 70
     1
102
RTVSPropertyOp33
 70
     1
102
RTVSPropertyOp34
 70
     1
102
RTVSPropertyOp35
 70
     1
102
RTVSPropertyOp36
 70
     1
102
RTVSPropertyOp37
 70
     1
102
RTVSPropertyOp38
 70
     1
102
RTVSPropertyOp39
 70
     1
102
RTVSPropertyOp40
 70
     1
102
RTVSPropertyOp41
 70
     1
102
RTVSPropertyOp42
 70
     1
102
RTVSPropertyOp43
 70
     1
102
RTVSPropertyOp44
 70
     1
102
RTVSPropertyOp45
 70
     1
102
RTVSPropertyOp46
 70
     1
102
RTVSPropertyOp47
 70
     1
102
RTVSPropertyOp48
 70
     1
102
RTVSPropertyOp49
 70
     1
102
RTVSPropertyOp50
 70
     1
102
RTVSPropertyOp51
 70
     0
102
RTVSPropertyOp52
 70
     0
102
RTVSPropertyOp53
 70
     1
102
RTVSPropertyOp54
 70
     1
102
RTVSPropertyOp55
 70
     1
102
RTVSPropertyOp56
 70
     1
102
RTVSPropertyOp57
 70
     1
102
RTVSPropertyOp58
 70
     1
102
RTVSPropertyOp59
 70
     1
102
RTVSPropertyOp60
 70
     1
102
RTVSPropertyOp61
 70
     1
102
RTVSPropertyOp62
 70
     1
102
RTVSPropertyOp0
 70
     1
102
RTVSPropertyOp1
 70
     1
102
RTVSPropertyOp2
 70
     1
102
RTVSPropertyOp3
 70
     1
102
RTVSPropertyOp4
 70
     1
102
RTVSPropertyOp5
 70
     1
102
RTVSPropertyOp6
 70
     1
102
RTVSPropertyOp7
 70
     1
102
RTVSPropertyOp8
 70
     1
102
RTVSPropertyOp9
 70
     1
102
RTVSPropertyOp10
 70
     1
102
RTVSPropertyOp11
 70
     1
102
RTVSPropertyOp12
 70
     1
102
RTVSPropertyOp13
 70
     1
102
RTVSPropertyOp14
 70
     1
102
RTVSPropertyOp15
 70
     1
102
RTVSPropertyOp16
 70
     1
102
RTVSPropertyOp17
 70
     1
102
RTVSPropertyOp18
 70
     1
102
RTVSPropertyOp19
 70
     1
102
RTVSPropertyOp20
 70
     1
102
RTVSPropertyOp21
 70
     1
102
RTVSPropertyOp22
 70
     1
102
RTVSPropertyOp23
 70
     1
102
RTVSPropertyOp24
 70
     1
102
RTVSPropertyOp25
 70
     1
102
RTVSPropertyOp26
 70
     1
102
RTVSPropertyOp27
 70
     1
  0
XRECORD
  5
2D41
102
{ACAD_REACTORS
330
2D40
102
}
330
2D40
100
AcDbXrecord
280
     1
102
RTVSPost2010Prop28
280
     0
102
RTVSPost2010PropOp28
 70
     1
102
RTVSPost2010Prop29
280
     1
102
RTVSPost2010PropOp29
 70
     1
102
RTVSPost2010Prop30
280
     1
102
RTVSPost2010PropOp30
 70
     1
102
RTVSPost2010Prop31
280
     0
102
RTVSPost2010PropOp31
 70
     1
102
RTVSPost2010Prop32
280
     0
102
RTVSPost2010PropOp32
 70
     1
102
RTVSPost2010Prop33
280
     0
102
RTVSPost2010PropOp33
 70
     1
102
RTVSPost2010Prop34
280
     0
102
RTVSPost2010PropOp34
 70
     1
102
RTVSPost2010Prop35
280
     0
102
RTVSPost2010PropOp35
 70
     1
102
RTVSPost2010Prop36
280
     0
102
RTVSPost2010PropOp36
 70
     1
102
RTVSPost2010Prop37
 90
       50
102
RTVSPost2010PropOp37
 70
     1
102
RTVSPost2010Prop38
140
0.0
102
RTVSPost2010PropOp38
 70
     1
102
RTVSPost2010Prop39
140
1.0
102
RTVSPost2010PropOp39
 70
     1
102
RTVSPost2010Prop40
 90
        0
102
RTVSPost2010PropOp40
 70
     1
102
RTVSPost2010Prop41ColorIndex
 90
       18
102
RTVSPost2010Prop41ColorRGB
 90
        0
102
RTVSPost2010PropOp41
 70
     1
102
RTVSPost2010Prop42
 90
       50
102
RTVSPost2010PropOp42
 70
     1
102
RTVSPost2010Prop43
 90
        3
102
RTVSPost2010PropOp43
 70
     1
102
RTVSPost2010Prop44ColorIndex
 90
        5
102
RTVSPost2010Prop44ColorRGB
 90
      255
102
RTVSPost2010PropOp44
 70
     1
102
RTVSPost2010Prop45
280
     0
102
RTVSPost2010PropOp45
 70
     1
102
RTVSPost2010Prop46
 90
       50
102
RTVSPost2010PropOp46
 70
     1
102
RTVSPost2010Prop47
 90
       50
102
RTVSPost2010PropOp47
 70
     1
102
RTVSPost2010Prop48
 90
       50
102
RTVSPost2010PropOp48
 70
     1
102
RTVSPost2010Prop49
280
     0
102
RTVSPost2010PropOp49
 70
     1
102
RTVSPost2010Prop50
 90
       50
102
RTVSPost2010PropOp50
 70
     1
102
RTVSPost2010Prop51ColorIndex
 90
      256
102
RTVSPost2010Prop51ColorRGB
 90
-16777216
102
RTVSPost2010PropOp51
 70
     0
102
RTVSPost2010Prop52
140
1.0
102
RTVSPost2010PropOp52
 70
     0
102
RTVSPost2010Prop53
 90
        2
102
RTVSPost2010PropOp53
 70
     1
102
RTVSPost2010Prop54
  1
strokes_ogs.tif
102
RTVSPost2010PropOp54
 70
     1
102
RTVSPost2010Prop55
280
     0
102
RTVSPost2010PropOp55
 70
     1
102
RTVSPost2010Prop56
140
1.0
102
RTVSPost2010PropOp56
 70
     1
102
RTVSPost2010Prop57
140
1.0
102
RTVSPost2010PropOp57
 70
     1
102
RTVSPropertyOp28
 70
     1
102
RTVSPropertyOp29
 70
     1
102
RTVSPropertyOp30
 70
     1
102
RTVSPropertyOp31
 70
     1
102
RTVSPropertyOp32
 70
     1
102
RTVSPropertyOp33
 70
     1
102
RTVSPropertyOp34
 70
     1
102
RTVSPropertyOp35
 70
     1
102
RTVSPropertyOp36
 70
     1
102
RTVSPropertyOp37
 70
     1
102
RTVSPropertyOp38
 70
     1
102
RTVSPropertyOp39
 70
     1
102
RTVSPropertyOp40
 70
     1
102
RTVSPropertyOp41
 70
     1
102
RTVSPropertyOp42
 70
     1
102
RTVSPropertyOp43
 70
     1
102
RTVSPropertyOp44
 70
     1
102
RTVSPropertyOp45
 70
     1
102
RTVSPropertyOp46
 70
     1
102
RTVSPropertyOp47
 70
     1
102
RTVSPropertyOp48
 70
     1
102
RTVSPropertyOp49
 70
     1
102
RTVSPropertyOp50
 70
     1
102
RTVSPropertyOp51
 70
     0
102
RTVSPropertyOp52
 70
     0
102
RTVSPropertyOp53
 70
     1
102
RTVSPropertyOp54
 70
     1
102
RTVSPropertyOp55
 70
     1
102
RTVSPropertyOp56
 70
     1
102
RTVSPropertyOp57
 70
     1
102
RTVSPropertyOp58
 70
     1
102
RTVSPropertyOp59
 70
     1
102
RTVSPropertyOp60
 70
     1
102
RTVSPropertyOp61
 70
     1
102
RTVSPropertyOp62
 70
     1
102
RTVSPropertyOp0
 70
     1
102
RTVSPropertyOp1
 70
     1
102
RTVSPropertyOp2
 70
     1
102
RTVSPropertyOp3
 70
     1
102
RTVSPropertyOp4
 70
     1
102
RTVSPropertyOp5
 70
     1
102
RTVSPropertyOp6
 70
     1
102
RTVSPropertyOp7
 70
     1
102
RTVSPropertyOp8
 70
     1
102
RTVSPropertyOp9
 70
     1
102
RTVSPropertyOp10
 70
     1
102
RTVSPropertyOp11
 70
     1
102
RTVSPropertyOp12
 70
     1
102
RTVSPropertyOp13
 70
     1
102
RTVSPropertyOp14
 70
     1
102
RTVSPropertyOp15
 70
     1
102
RTVSPropertyOp16
 70
     1
102
RTVSPropertyOp17
 70
     1
102
RTVSPropertyOp18
 70
     1
102
RTVSPropertyOp19
 70
     1
102
RTVSPropertyOp20
 70
     1
102
RTVSPropertyOp21
 70
     1
102
RTVSPropertyOp22
 70
     1
102
RTVSPropertyOp23
 70
     1
102
RTVSPropertyOp24
 70
     1
102
RTVSPropertyOp25
 70
     1
102
RTVSPropertyOp26
 70
     1
102
RTVSPropertyOp27
 70
     1
  0
XRECORD
  5
2D43
102
{ACAD_REACTORS
330
2D42
102
}
330
2D42
100
AcDbXrecord
280
     1
102
RTVSPost2010Prop28
280
     0
102
RTVSPost2010PropOp28
 70
     1
102
RTVSPost2010Prop29
280
     1
102
RTVSPost2010PropOp29
 70
     1
102
RTVSPost2010Prop30
280
     1
102
RTVSPost2010PropOp30
 70
     1
102
RTVSPost2010Prop31
280
     0
102
RTVSPost2010PropOp31
 70
     1
102
RTVSPost2010Prop32
280
     0
102
RTVSPost2010PropOp32
 70
     1
102
RTVSPost2010Prop33
280
     0
102
RTVSPost2010PropOp33
 70
     1
102
RTVSPost2010Prop34
280
     0
102
RTVSPost2010PropOp34
 70
     1
102
RTVSPost2010Prop35
280
     0
102
RTVSPost2010PropOp35
 70
     1
102
RTVSPost2010Prop36
280
     0
102
RTVSPost2010PropOp36
 70
     1
102
RTVSPost2010Prop37
 90
       50
102
RTVSPost2010PropOp37
 70
     1
102
RTVSPost2010Prop38
140
0.0
102
RTVSPost2010PropOp38
 70
     1
102
RTVSPost2010Prop39
140
1.0
102
RTVSPost2010PropOp39
 70
     1
102
RTVSPost2010Prop40
 90
        0
102
RTVSPost2010PropOp40
 70
     1
102
RTVSPost2010Prop41ColorIndex
 90
       18
102
RTVSPost2010Prop41ColorRGB
 90
        0
102
RTVSPost2010PropOp41
 70
     1
102
RTVSPost2010Prop42
 90
       50
102
RTVSPost2010PropOp42
 70
     1
102
RTVSPost2010Prop43
 90
        3
102
RTVSPost2010PropOp43
 70
     1
102
RTVSPost2010Prop44ColorIndex
 90
        5
102
RTVSPost2010Prop44ColorRGB
 90
      255
102
RTVSPost2010PropOp44
 70
     1
102
RTVSPost2010Prop45
280
     0
102
RTVSPost2010PropOp45
 70
     1
102
RTVSPost2010Prop46
 90
       50
102
RTVSPost2010PropOp46
 70
     1
102
RTVSPost2010Prop47
 90
       50
102
RTVSPost2010PropOp47
 70
     1
102
RTVSPost2010Prop48
 90
       50
102
RTVSPost2010PropOp48
 70
     1
102
RTVSPost2010Prop49
280
     0
102
RTVSPost2010PropOp49
 70
     1
102
RTVSPost2010Prop50
 90
       50
102
RTVSPost2010PropOp50
 70
     1
102
RTVSPost2010Prop51ColorIndex
 90
      256
102
RTVSPost2010Prop51ColorRGB
 90
-16777216
102
RTVSPost2010PropOp51
 70
     0
102
RTVSPost2010Prop52
140
1.0
102
RTVSPost2010PropOp52
 70
     0
102
RTVSPost2010Prop53
 90
        2
102
RTVSPost2010PropOp53
 70
     1
102
RTVSPost2010Prop54
  1
strokes_ogs.tif
102
RTVSPost2010PropOp54
 70
     1
102
RTVSPost2010Prop55
280
     0
102
RTVSPost2010PropOp55
 70
     1
102
RTVSPost2010Prop56
140
1.0
102
RTVSPost2010PropOp56
 70
     1
102
RTVSPost2010Prop57
140
1.0
102
RTVSPost2010PropOp57
 70
     1
102
RTVSPropertyOp28
 70
     1
102
RTVSPropertyOp29
 70
     1
102
RTVSPropertyOp30
 70
     1
102
RTVSPropertyOp31
 70
     1
102
RTVSPropertyOp32
 70
     1
102
RTVSPropertyOp33
 70
     1
102
RTVSPropertyOp34
 70
     1
102
RTVSPropertyOp35
 70
     1
102
RTVSPropertyOp36
 70
     1
102
RTVSPropertyOp37
 70
     1
102
RTVSPropertyOp38
 70
     1
102
RTVSPropertyOp39
 70
     1
102
RTVSPropertyOp40
 70
     1
102
RTVSPropertyOp41
 70
     1
102
RTVSPropertyOp42
 70
     1
102
RTVSPropertyOp43
 70
     1
102
RTVSPropertyOp44
 70
     1
102
RTVSPropertyOp45
 70
     1
102
RTVSPropertyOp46
 70
     1
102
RTVSPropertyOp47
 70
     1
102
RTVSPropertyOp48
 70
     1
102
RTVSPropertyOp49
 70
     1
102
RTVSPropertyOp50
 70
     1
102
RTVSPropertyOp51
 70
     0
102
RTVSPropertyOp52
 70
     0
102
RTVSPropertyOp53
 70
     1
102
RTVSPropertyOp54
 70
     1
102
RTVSPropertyOp55
 70
     1
102
RTVSPropertyOp56
 70
     1
102
RTVSPropertyOp57
 70
     1
102
RTVSPropertyOp58
 70
     1
102
RTVSPropertyOp59
 70
     1
102
RTVSPropertyOp60
 70
     1
102
RTVSPropertyOp61
 70
     1
102
RTVSPropertyOp62
 70
     1
102
RTVSPropertyOp0
 70
     1
102
RTVSPropertyOp1
 70
     1
102
RTVSPropertyOp2
 70
     1
102
RTVSPropertyOp3
 70
     1
102
RTVSPropertyOp4
 70
     1
102
RTVSPropertyOp5
 70
     1
102
RTVSPropertyOp6
 70
     1
102
RTVSPropertyOp7
 70
     1
102
RTVSPropertyOp8
 70
     1
102
RTVSPropertyOp9
 70
     1
102
RTVSPropertyOp10
 70
     1
102
RTVSPropertyOp11
 70
     1
102
RTVSPropertyOp12
 70
     1
102
RTVSPropertyOp13
 70
     1
102
RTVSPropertyOp14
 70
     1
102
RTVSPropertyOp15
 70
     1
102
RTVSPropertyOp16
 70
     1
102
RTVSPropertyOp17
 70
     1
102
RTVSPropertyOp18
 70
     1
102
RTVSPropertyOp19
 70
     1
102
RTVSPropertyOp20
 70
     1
102
RTVSPropertyOp21
 70
     1
102
RTVSPropertyOp22
 70
     1
102
RTVSPropertyOp23
 70
     1
102
RTVSPropertyOp24
 70
     1
102
RTVSPropertyOp25
 70
     1
102
RTVSPropertyOp26
 70
     1
102
RTVSPropertyOp27
 70
     1
  0
XRECORD
  5
2D39
102
{ACAD_REACTORS
330
2D38
102
}
330
2D38
100
AcDbXrecord
280
     1
102
RTVSPost2010Prop28
280
     0
102
RTVSPost2010PropOp28
 70
     1
102
RTVSPost2010Prop29
280
     1
102
RTVSPost2010PropOp29
 70
     1
102
RTVSPost2010Prop30
280
     1
102
RTVSPost2010PropOp30
 70
     1
102
RTVSPost2010Prop31
280
     0
102
RTVSPost2010PropOp31
 70
     1
102
RTVSPost2010Prop32
280
     0
102
RTVSPost2010PropOp32
 70
     1
102
RTVSPost2010Prop33
280
     0
102
RTVSPost2010PropOp33
 70
     1
102
RTVSPost2010Prop34
280
     0
102
RTVSPost2010PropOp34
 70
     1
102
RTVSPost2010Prop35
280
     0
102
RTVSPost2010PropOp35
 70
     1
102
RTVSPost2010Prop36
280
     0
102
RTVSPost2010PropOp36
 70
     1
102
RTVSPost2010Prop37
 90
       50
102
RTVSPost2010PropOp37
 70
     1
102
RTVSPost2010Prop38
140
0.0
102
RTVSPost2010PropOp38
 70
     1
102
RTVSPost2010Prop39
140
1.0
102
RTVSPost2010PropOp39
 70
     1
102
RTVSPost2010Prop40
 90
        0
102
RTVSPost2010PropOp40
 70
     1
102
RTVSPost2010Prop41ColorIndex
 90
       18
102
RTVSPost2010Prop41ColorRGB
 90
        0
102
RTVSPost2010PropOp41
 70
     1
102
RTVSPost2010Prop42
 90
       50
102
RTVSPost2010PropOp42
 70
     1
102
RTVSPost2010Prop43
 90
        3
102
RTVSPost2010PropOp43
 70
     1
102
RTVSPost2010Prop44ColorIndex
 90
        5
102
RTVSPost2010Prop44ColorRGB
 90
      255
102
RTVSPost2010PropOp44
 70
     1
102
RTVSPost2010Prop45
280
     0
102
RTVSPost2010PropOp45
 70
     1
102
RTVSPost2010Prop46
 90
       50
102
RTVSPost2010PropOp46
 70
     1
102
RTVSPost2010Prop47
 90
       50
102
RTVSPost2010PropOp47
 70
     1
102
RTVSPost2010Prop48
 90
       50
102
RTVSPost2010PropOp48
 70
     1
102
RTVSPost2010Prop49
280
     0
102
RTVSPost2010PropOp49
 70
     1
102
RTVSPost2010Prop50
 90
       50
102
RTVSPost2010PropOp50
 70
     1
102
RTVSPost2010Prop51ColorIndex
 90
      256
102
RTVSPost2010Prop51ColorRGB
 90
-16777216
102
RTVSPost2010PropOp51
 70
     0
102
RTVSPost2010Prop52
140
1.0
102
RTVSPost2010PropOp52
 70
     0
102
RTVSPost2010Prop53
 90
        2
102
RTVSPost2010PropOp53
 70
     1
102
RTVSPost2010Prop54
  1
strokes_ogs.tif
102
RTVSPost2010PropOp54
 70
     1
102
RTVSPost2010Prop55
280
     0
102
RTVSPost2010PropOp55
 70
     1
102
RTVSPost2010Prop56
140
1.0
102
RTVSPost2010PropOp56
 70
     1
102
RTVSPost2010Prop57
140
1.0
102
RTVSPost2010PropOp57
 70
     1
102
RTVSPropertyOp28
 70
     1
102
RTVSPropertyOp29
 70
     1
102
RTVSPropertyOp30
 70
     1
102
RTVSPropertyOp31
 70
     1
102
RTVSPropertyOp32
 70
     1
102
RTVSPropertyOp33
 70
     1
102
RTVSPropertyOp34
 70
     1
102
RTVSPropertyOp35
 70
     1
102
RTVSPropertyOp36
 70
     1
102
RTVSPropertyOp37
 70
     1
102
RTVSPropertyOp38
 70
     1
102
RTVSPropertyOp39
 70
     1
102
RTVSPropertyOp40
 70
     1
102
RTVSPropertyOp41
 70
     1
102
RTVSPropertyOp42
 70
     1
102
RTVSPropertyOp43
 70
     1
102
RTVSPropertyOp44
 70
     1
102
RTVSPropertyOp45
 70
     1
102
RTVSPropertyOp46
 70
     1
102
RTVSPropertyOp47
 70
     1
102
RTVSPropertyOp48
 70
     1
102
RTVSPropertyOp49
 70
     1
102
RTVSPropertyOp50
 70
     1
102
RTVSPropertyOp51
 70
     0
102
RTVSPropertyOp52
 70
     0
102
RTVSPropertyOp53
 70
     1
102
RTVSPropertyOp54
 70
     1
102
RTVSPropertyOp55
 70
     1
102
RTVSPropertyOp56
 70
     1
102
RTVSPropertyOp57
 70
     1
102
RTVSPropertyOp58
 70
     1
102
RTVSPropertyOp59
 70
     1
102
RTVSPropertyOp60
 70
     1
102
RTVSPropertyOp61
 70
     1
102
RTVSPropertyOp62
 70
     1
102
RTVSPropertyOp0
 70
     1
102
RTVSPropertyOp1
 70
     1
102
RTVSPropertyOp2
 70
     1
102
RTVSPropertyOp3
 70
     1
102
RTVSPropertyOp4
 70
     1
102
RTVSPropertyOp5
 70
     1
102
RTVSPropertyOp6
 70
     1
102
RTVSPropertyOp7
 70
     1
102
RTVSPropertyOp8
 70
     1
102
RTVSPropertyOp9
 70
     1
102
RTVSPropertyOp10
 70
     1
102
RTVSPropertyOp11
 70
     1
102
RTVSPropertyOp12
 70
     1
102
RTVSPropertyOp13
 70
     1
102
RTVSPropertyOp14
 70
     1
102
RTVSPropertyOp15
 70
     1
102
RTVSPropertyOp16
 70
     1
102
RTVSPropertyOp17
 70
     1
102
RTVSPropertyOp18
 70
     1
102
RTVSPropertyOp19
 70
     1
102
RTVSPropertyOp20
 70
     1
102
RTVSPropertyOp21
 70
     1
102
RTVSPropertyOp22
 70
     1
102
RTVSPropertyOp23
 70
     1
102
RTVSPropertyOp24
 70
     1
102
RTVSPropertyOp25
 70
     1
102
RTVSPropertyOp26
 70
     1
102
RTVSPropertyOp27
 70
     1
  0
XRECORD
  5
2D2D
102
{ACAD_REACTORS
330
2D2C
102
}
330
2D2C
100
AcDbXrecord
280
     1
102
RTVSPost2010Prop28
280
     0
102
RTVSPost2010PropOp28
 70
     1
102
RTVSPost2010Prop29
280
     1
102
RTVSPost2010PropOp29
 70
     1
102
RTVSPost2010Prop30
280
     1
102
RTVSPost2010PropOp30
 70
     1
102
RTVSPost2010Prop31
280
     0
102
RTVSPost2010PropOp31
 70
     1
102
RTVSPost2010Prop32
280
     0
102
RTVSPost2010PropOp32
 70
     1
102
RTVSPost2010Prop33
280
     0
102
RTVSPost2010PropOp33
 70
     1
102
RTVSPost2010Prop34
280
     0
102
RTVSPost2010PropOp34
 70
     1
102
RTVSPost2010Prop35
280
     0
102
RTVSPost2010PropOp35
 70
     1
102
RTVSPost2010Prop36
280
     0
102
RTVSPost2010PropOp36
 70
     1
102
RTVSPost2010Prop37
 90
       50
102
RTVSPost2010PropOp37
 70
     1
102
RTVSPost2010Prop38
140
0.0
102
RTVSPost2010PropOp38
 70
     1
102
RTVSPost2010Prop39
140
1.0
102
RTVSPost2010PropOp39
 70
     1
102
RTVSPost2010Prop40
 90
        0
102
RTVSPost2010PropOp40
 70
     1
102
RTVSPost2010Prop41ColorIndex
 90
       18
102
RTVSPost2010Prop41ColorRGB
 90
        0
102
RTVSPost2010PropOp41
 70
     1
102
RTVSPost2010Prop42
 90
       50
102
RTVSPost2010PropOp42
 70
     1
102
RTVSPost2010Prop43
 90
        3
102
RTVSPost2010PropOp43
 70
     1
102
RTVSPost2010Prop44ColorIndex
 90
        5
102
RTVSPost2010Prop44ColorRGB
 90
      255
102
RTVSPost2010PropOp44
 70
     1
102
RTVSPost2010Prop45
280
     0
102
RTVSPost2010PropOp45
 70
     1
102
RTVSPost2010Prop46
 90
       50
102
RTVSPost2010PropOp46
 70
     1
102
RTVSPost2010Prop47
 90
       50
102
RTVSPost2010PropOp47
 70
     1
102
RTVSPost2010Prop48
 90
       50
102
RTVSPost2010PropOp48
 70
     1
102
RTVSPost2010Prop49
280
     0
102
RTVSPost2010PropOp49
 70
     1
102
RTVSPost2010Prop50
 90
       50
102
RTVSPost2010PropOp50
 70
     1
102
RTVSPost2010Prop51ColorIndex
 90
      256
102
RTVSPost2010Prop51ColorRGB
 90
-16777216
102
RTVSPost2010PropOp51
 70
     0
102
RTVSPost2010Prop52
140
1.0
102
RTVSPost2010PropOp52
 70
     0
102
RTVSPost2010Prop53
 90
        2
102
RTVSPost2010PropOp53
 70
     1
102
RTVSPost2010Prop54
  1
strokes_ogs.tif
102
RTVSPost2010PropOp54
 70
     1
102
RTVSPost2010Prop55
280
     0
102
RTVSPost2010PropOp55
 70
     1
102
RTVSPost2010Prop56
140
1.0
102
RTVSPost2010PropOp56
 70
     1
102
RTVSPost2010Prop57
140
1.0
102
RTVSPost2010PropOp57
 70
     1
102
RTVSPropertyOp28
 70
     1
102
RTVSPropertyOp29
 70
     1
102
RTVSPropertyOp30
 70
     1
102
RTVSPropertyOp31
 70
     1
102
RTVSPropertyOp32
 70
     1
102
RTVSPropertyOp33
 70
     1
102
RTVSPropertyOp34
 70
     1
102
RTVSPropertyOp35
 70
     1
102
RTVSPropertyOp36
 70
     1
102
RTVSPropertyOp37
 70
     1
102
RTVSPropertyOp38
 70
     1
102
RTVSPropertyOp39
 70
     1
102
RTVSPropertyOp40
 70
     1
102
RTVSPropertyOp41
 70
     1
102
RTVSPropertyOp42
 70
     1
102
RTVSPropertyOp43
 70
     1
102
RTVSPropertyOp44
 70
     1
102
RTVSPropertyOp45
 70
     1
102
RTVSPropertyOp46
 70
     1
102
RTVSPropertyOp47
 70
     1
102
RTVSPropertyOp48
 70
     1
102
RTVSPropertyOp49
 70
     1
102
RTVSPropertyOp50
 70
     1
102
RTVSPropertyOp51
 70
     0
102
RTVSPropertyOp52
 70
     0
102
RTVSPropertyOp53
 70
     1
102
RTVSPropertyOp54
 70
     1
102
RTVSPropertyOp55
 70
     1
102
RTVSPropertyOp56
 70
     1
102
RTVSPropertyOp57
 70
     1
102
RTVSPropertyOp58
 70
     1
102
RTVSPropertyOp59
 70
     1
102
RTVSPropertyOp60
 70
     1
102
RTVSPropertyOp61
 70
     1
102
RTVSPropertyOp62
 70
     1
102
RTVSPropertyOp0
 70
     1
102
RTVSPropertyOp1
 70
     1
102
RTVSPropertyOp2
 70
     1
102
RTVSPropertyOp3
 70
     1
102
RTVSPropertyOp4
 70
     1
102
RTVSPropertyOp5
 70
     1
102
RTVSPropertyOp6
 70
     1
102
RTVSPropertyOp7
 70
     1
102
RTVSPropertyOp8
 70
     1
102
RTVSPropertyOp9
 70
     1
102
RTVSPropertyOp10
 70
     1
102
RTVSPropertyOp11
 70
     1
102
RTVSPropertyOp12
 70
     1
102
RTVSPropertyOp13
 70
     1
102
RTVSPropertyOp14
 70
     1
102
RTVSPropertyOp15
 70
     1
102
RTVSPropertyOp16
 70
     1
102
RTVSPropertyOp17
 70
     1
102
RTVSPropertyOp18
 70
     1
102
RTVSPropertyOp19
 70
     1
102
RTVSPropertyOp20
 70
     1
102
RTVSPropertyOp21
 70
     1
102
RTVSPropertyOp22
 70
     1
102
RTVSPropertyOp23
 70
     1
102
RTVSPropertyOp24
 70
     1
102
RTVSPropertyOp25
 70
     1
102
RTVSPropertyOp26
 70
     1
102
RTVSPropertyOp27
 70
     1
  0
XRECORD
  5
2D45
102
{ACAD_REACTORS
330
2D44
102
}
330
2D44
100
AcDbXrecord
280
     1
102
RTVSPost2010Prop28
280
     0
102
RTVSPost2010PropOp28
 70
     1
102
RTVSPost2010Prop29
280
     1
102
RTVSPost2010PropOp29
 70
     1
102
RTVSPost2010Prop30
280
     1
102
RTVSPost2010PropOp30
 70
     1
102
RTVSPost2010Prop31
280
     0
102
RTVSPost2010PropOp31
 70
     1
102
RTVSPost2010Prop32
280
     0
102
RTVSPost2010PropOp32
 70
     1
102
RTVSPost2010Prop33
280
     0
102
RTVSPost2010PropOp33
 70
     1
102
RTVSPost2010Prop34
280
     0
102
RTVSPost2010PropOp34
 70
     1
102
RTVSPost2010Prop35
280
     0
102
RTVSPost2010PropOp35
 70
     1
102
RTVSPost2010Prop36
280
     0
102
RTVSPost2010PropOp36
 70
     1
102
RTVSPost2010Prop37
 90
       50
102
RTVSPost2010PropOp37
 70
     1
102
RTVSPost2010Prop38
140
0.0
102
RTVSPost2010PropOp38
 70
     1
102
RTVSPost2010Prop39
140
1.0
102
RTVSPost2010PropOp39
 70
     1
102
RTVSPost2010Prop40
 90
        0
102
RTVSPost2010PropOp40
 70
     1
102
RTVSPost2010Prop41ColorIndex
 90
       18
102
RTVSPost2010Prop41ColorRGB
 90
        0
102
RTVSPost2010PropOp41
 70
     1
102
RTVSPost2010Prop42
 90
       50
102
RTVSPost2010PropOp42
 70
     1
102
RTVSPost2010Prop43
 90
        3
102
RTVSPost2010PropOp43
 70
     1
102
RTVSPost2010Prop44ColorIndex
 90
        5
102
RTVSPost2010Prop44ColorRGB
 90
      255
102
RTVSPost2010PropOp44
 70
     1
102
RTVSPost2010Prop45
280
     0
102
RTVSPost2010PropOp45
 70
     1
102
RTVSPost2010Prop46
 90
       50
102
RTVSPost2010PropOp46
 70
     1
102
RTVSPost2010Prop47
 90
       50
102
RTVSPost2010PropOp47
 70
     1
102
RTVSPost2010Prop48
 90
       50
102
RTVSPost2010PropOp48
 70
     1
102
RTVSPost2010Prop49
280
     0
102
RTVSPost2010PropOp49
 70
     1
102
RTVSPost2010Prop50
 90
       50
102
RTVSPost2010PropOp50
 70
     1
102
RTVSPost2010Prop51ColorIndex
 90
      256
102
RTVSPost2010Prop51ColorRGB
 90
-16777216
102
RTVSPost2010PropOp51
 70
     0
102
RTVSPost2010Prop52
140
1.0
102
RTVSPost2010PropOp52
 70
     0
102
RTVSPost2010Prop53
 90
        2
102
RTVSPost2010PropOp53
 70
     1
102
RTVSPost2010Prop54
  1
strokes_ogs.tif
102
RTVSPost2010PropOp54
 70
     1
102
RTVSPost2010Prop55
280
     0
102
RTVSPost2010PropOp55
 70
     1
102
RTVSPost2010Prop56
140
1.0
102
RTVSPost2010PropOp56
 70
     1
102
RTVSPost2010Prop57
140
1.0
102
RTVSPost2010PropOp57
 70
     1
102
RTVSPropertyOp28
 70
     1
102
RTVSPropertyOp29
 70
     1
102
RTVSPropertyOp30
 70
     1
102
RTVSPropertyOp31
 70
     1
102
RTVSPropertyOp32
 70
     1
102
RTVSPropertyOp33
 70
     1
102
RTVSPropertyOp34
 70
     1
102
RTVSPropertyOp35
 70
     1
102
RTVSPropertyOp36
 70
     1
102
RTVSPropertyOp37
 70
     1
102
RTVSPropertyOp38
 70
     1
102
RTVSPropertyOp39
 70
     1
102
RTVSPropertyOp40
 70
     1
102
RTVSPropertyOp41
 70
     1
102
RTVSPropertyOp42
 70
     1
102
RTVSPropertyOp43
 70
     1
102
RTVSPropertyOp44
 70
     1
102
RTVSPropertyOp45
 70
     1
102
RTVSPropertyOp46
 70
     1
102
RTVSPropertyOp47
 70
     1
102
RTVSPropertyOp48
 70
     1
102
RTVSPropertyOp49
 70
     1
102
RTVSPropertyOp50
 70
     1
102
RTVSPropertyOp51
 70
     0
102
RTVSPropertyOp52
 70
     0
102
RTVSPropertyOp53
 70
     1
102
RTVSPropertyOp54
 70
     1
102
RTVSPropertyOp55
 70
     1
102
RTVSPropertyOp56
 70
     1
102
RTVSPropertyOp57
 70
     1
102
RTVSPropertyOp58
 70
     1
102
RTVSPropertyOp59
 70
     1
102
RTVSPropertyOp60
 70
     1
102
RTVSPropertyOp61
 70
     1
102
RTVSPropertyOp62
 70
     1
102
RTVSPropertyOp0
 70
     1
102
RTVSPropertyOp1
 70
     1
102
RTVSPropertyOp2
 70
     1
102
RTVSPropertyOp3
 70
     1
102
RTVSPropertyOp4
 70
     1
102
RTVSPropertyOp5
 70
     1
102
RTVSPropertyOp6
 70
     1
102
RTVSPropertyOp7
 70
     1
102
RTVSPropertyOp8
 70
     1
102
RTVSPropertyOp9
 70
     1
102
RTVSPropertyOp10
 70
     1
102
RTVSPropertyOp11
 70
     1
102
RTVSPropertyOp12
 70
     1
102
RTVSPropertyOp13
 70
     1
102
RTVSPropertyOp14
 70
     1
102
RTVSPropertyOp15
 70
     1
102
RTVSPropertyOp16
 70
     1
102
RTVSPropertyOp17
 70
     1
102
RTVSPropertyOp18
 70
     1
102
RTVSPropertyOp19
 70
     1
102
RTVSPropertyOp20
 70
     1
102
RTVSPropertyOp21
 70
     1
102
RTVSPropertyOp22
 70
     1
102
RTVSPropertyOp23
 70
     1
102
RTVSPropertyOp24
 70
     1
102
RTVSPropertyOp25
 70
     1
102
RTVSPropertyOp26
 70
     1
102
RTVSPropertyOp27
 70
     1
  0
ENDSEC
  0
EOF
