  0
SECTION
  2
HEADER
  9
$ACADVER
  1
AC1018
  9
$ACADMAINTVER
 70
   104
  9
$DWGCODEPAGE
  3
ANSI_932
  9
$LASTSAVEDBY
  1
kanatani
  9
$INSBASE
 10
0.0
 20
0.0
 30
0.0
  9
$EXTMIN
 10
-333.3333333333333
 20
-89.4883786293858
 30
0.0
  9
$EXTMAX
 10
467.4999999999999
 20
709.1666666666668
 30
0.0
  9
$LIMMIN
 10
-2550.0
 20
0.0
  9
$LIMMAX
 10
0.0
 20
1800.0
  9
$ORTHOMODE
 70
     0
  9
$REGENMODE
 70
     1
  9
$FILLMODE
 70
     1
  9
$QTEXTMODE
 70
     0
  9
$MIRRTEXT
 70
     0
  9
$LTSCALE
 40
1.0
  9
$ATTMODE
 70
     1
  9
$TEXTSIZE
 40
0.2
  9
$TRACEWID
 40
0.05
  9
$TEXTSTYLE
  7
STANDARD
  9
$CLAYER
  8
0
  9
$CELTYPE
  6
CONTINUOUS
  9
$CECOLOR
 62
   256
  9
$CELTSCALE
 40
1.0
  9
$DISPSILH
 70
     0
  9
$DIMSCALE
 40
1.0
  9
$DIMASZ
 40
2.5
  9
$DIMEXO
 40
0.5
  9
$DIMDLI
 40
10.0
  9
$DIMRND
 40
0.0
  9
$DIMDLE
 40
0.0
  9
$DIMEXE
 40
1.0
  9
$DIMTP
 40
0.1
  9
$DIMTM
 40
0.1000000001
  9
$DIMTXT
 40
3.0
  9
$DIMCEN
 40
0.0
  9
$DIMTSZ
 40
0.0
  9
$DIMTOL
 70
     0
  9
$DIMLIM
 70
     0
  9
$DIMTIH
 70
     0
  9
$DIMTOH
 70
     0
  9
$DIMSE1
 70
     0
  9
$DIMSE2
 70
     0
  9
$DIMTAD
 70
     1
  9
$DIMZIN
 70
     8
  9
$DIMBLK
  1
Open
  9
$DIMASO
 70
     1
  9
$DIMSHO
 70
     0
  9
$DIMPOST
  1

  9
$DIMAPOST
  1
"
  9
$DIMALT
 70
     0
  9
$DIMALTD
 70
     2
  9
$DIMALTF
 40
0.0393701
  9
$DIMLFAC
 40
1.0
  9
$DIMTOFL
 70
     1
  9
$DIMTVP
 40
0.0
  9
$DIMTIX
 70
     0
  9
$DIMSOXD
 70
     0
  9
$DIMSAH
 70
     0
  9
$DIMBLK1
  1

  9
$DIMBLK2
  1

  9
$DIMSTYLE
  2
TOSTE
  9
$DIMCLRD
 70
   256
  9
$DIMCLRE
 70
   256
  9
$DIMCLRT
 70
     7
  9
$DIMTFAC
 40
0.6
  9
$DIMGAP
 40
1.199999999999999
  9
$DIMJUST
 70
     0
  9
$DIMSD1
 70
     0
  9
$DIMSD2
 70
     0
  9
$DIMTOLJ
 70
     2
  9
$DIMTZIN
 70
     8
  9
$DIMALTZ
 70
     0
  9
$DIMALTTZ
 70
     0
  9
$DIMUPT
 70
     0
  9
$DIMDEC
 70
     2
  9
$DIMTDEC
 70
     2
  9
$DIMALTU
 70
     2
  9
$DIMALTTD
 70
     2
  9
$DIMTXSTY
  7
TOSTE_TEXT
  9
$DIMAUNIT
 70
     0
  9
$DIMADEC
 70
     0
  9
$DIMALTRND
 40
0.0
  9
$DIMAZIN
 70
     2
  9
$DIMDSEP
 70
    46
  9
$DIMATFIT
 70
     3
  9
$DIMFRAC
 70
     0
  9
$DIMLDRBLK
  1
Open
  9
$DIMLUNIT
 70
     2
  9
$DIMLWD
 70
    -1
  9
$DIMLWE
 70
    -1
  9
$DIMTMOVE
 70
     0
  9
$LUNITS
 70
     2
  9
$LUPREC
 70
     8
  9
$SKETCHINC
 40
0.1
  9
$FILLETRAD
 40
0.0
  9
$AUNITS
 70
     0
  9
$AUPREC
 70
     0
  9
$MENU
  1
.
  9
$ELEVATION
 40
0.0
  9
$PELEVATION
 40
0.0
  9
$THICKNESS
 40
0.0
  9
$LIMCHECK
 70
     0
  9
$CHAMFERA
 40
0.0
  9
$CHAMFERB
 40
0.0
  9
$CHAMFERC
 40
0.0
  9
$CHAMFERD
 40
0.0
  9
$SKPOLY
 70
     0
  9
$TDCREATE
 40
2456143.785712246
  9
$TDUCREATE
 40
2456143.410712245
  9
$TDUPDATE
 40
2456169.621428414
  9
$TDUUPDATE
 40
2456169.246428415
  9
$TDINDWG
 40
0.0311445833
  9
$TDUSRTIMER
 40
0.0311445833
  9
$USRTIMER
 70
     1
  9
$ANGBASE
 50
0.0
  9
$ANGDIR
 70
     0
  9
$PDMODE
 70
     0
  9
$PDSIZE
 40
0.0
  9
$PLINEWID
 40
0.0
  9
$SPLFRAME
 70
     0
  9
$SPLINETYPE
 70
     6
  9
$SPLINESEGS
 70
     8
  9
$HANDSEED
  5
31B9
  9
$SURFTAB1
 70
     6
  9
$SURFTAB2
 70
     6
  9
$SURFTYPE
 70
     6
  9
$SURFU
 70
     6
  9
$SURFV
 70
     6
  9
$UCSBASE
  2

  9
$UCSNAME
  2

  9
$UCSORG
 10
0.0
 20
0.0
 30
0.0
  9
$UCSXDIR
 10
1.0
 20
0.0
 30
0.0
  9
$UCSYDIR
 10
0.0
 20
1.0
 30
0.0
  9
$UCSORTHOREF
  2

  9
$UCSORTHOVIEW
 70
     0
  9
$UCSORGTOP
 10
0.0
 20
0.0
 30
0.0
  9
$UCSORGBOTTOM
 10
0.0
 20
0.0
 30
0.0
  9
$UCSORGLEFT
 10
0.0
 20
0.0
 30
0.0
  9
$UCSORGRIGHT
 10
0.0
 20
0.0
 30
0.0
  9
$UCSORGFRONT
 10
0.0
 20
0.0
 30
0.0
  9
$UCSORGBACK
 10
0.0
 20
0.0
 30
0.0
  9
$PUCSBASE
  2

  9
$PUCSNAME
  2

  9
$PUCSORG
 10
0.0
 20
0.0
 30
0.0
  9
$PUCSXDIR
 10
1.0
 20
0.0
 30
0.0
  9
$PUCSYDIR
 10
0.0
 20
1.0
 30
0.0
  9
$PUCSORTHOREF
  2

  9
$PUCSORTHOVIEW
 70
     0
  9
$PUCSORGTOP
 10
0.0
 20
0.0
 30
0.0
  9
$PUCSORGBOTTOM
 10
0.0
 20
0.0
 30
0.0
  9
$PUCSORGLEFT
 10
0.0
 20
0.0
 30
0.0
  9
$PUCSORGRIGHT
 10
0.0
 20
0.0
 30
0.0
  9
$PUCSORGFRONT
 10
0.0
 20
0.0
 30
0.0
  9
$PUCSORGBACK
 10
0.0
 20
0.0
 30
0.0
  9
$USERI1
 70
     0
  9
$USERI2
 70
     0
  9
$USERI3
 70
     0
  9
$USERI4
 70
     0
  9
$USERI5
 70
     0
  9
$USERR1
 40
0.0
  9
$USERR2
 40
0.0
  9
$USERR3
 40
0.0
  9
$USERR4
 40
0.0
  9
$USERR5
 40
0.0
  9
$WORLDVIEW
 70
     1
  9
$SHADEDGE
 70
     3
  9
$SHADEDIF
 70
    70
  9
$TILEMODE
 70
     1
  9
$MAXACTVP
 70
    64
  9
$PINSBASE
 10
0.0
 20
0.0
 30
0.0
  9
$PLIMCHECK
 70
     0
  9
$PEXTMIN
 10
-2550.0
 20
0.0
 30
0.0
  9
$PEXTMAX
 10
0.0
 20
1800.0
 30
0.0
  9
$PLIMMIN
 10
-2550.0
 20
0.0
  9
$PLIMMAX
 10
0.0
 20
1800.0
  9
$UNITMODE
 70
     0
  9
$VISRETAIN
 70
     1
  9
$PLINEGEN
 70
     0
  9
$PSLTSCALE
 70
     1
  9
$TREEDEPTH
 70
  3020
  9
$CMLSTYLE
  2
STANDARD
  9
$CMLJUST
 70
     0
  9
$CMLSCALE
 40
1.0
  9
$PROXYGRAPHICS
 70
     1
  9
$MEASUREMENT
 70
     1
  9
$CELWEIGHT
370
    -1
  9
$ENDCAPS
280
     0
  9
$JOINSTYLE
280
     0
  9
$LWDISPLAY
290
     0
  9
$INSUNITS
 70
     0
  9
$HYPERLINKBASE
  1

  9
$STYLESHEET
  1

  9
$XEDIT
290
     1
  9
$CEPSNTYPE
380
     0
  9
$PSTYLEMODE
290
     1
  9
$FINGERPRINTGUID
  2
{4953702F-6C12-4A29-9AD0-1EBE85BC20CB}
  9
$VERSIONGUID
  2
{2E286DCB-C24A-4AAB-8912-6399C9B2D90C}
  9
$EXTNAMES
290
     1
  9
$PSVPSCALE
 40
0.0
  9
$OLESTARTUP
290
     0
  9
$SORTENTS
280
   127
  9
$INDEXCTL
280
     0
  9
$HIDETEXT
280
     0
  9
$XCLIPFRAME
290
     0
  9
$HALOGAP
280
     0
  9
$OBSCOLOR
 70
   257
  9
$OBSLTYPE
280
     0
  9
$INTERSECTIONDISPLAY
280
     0
  9
$INTERSECTIONCOLOR
 70
   257
  9
$DIMASSOC
280
     1
  9
$PROJECTNAME
  1

  0
ENDSEC
  0
SECTION
  2
CLASSES
  0
CLASS
  1
ACDBDICTIONARYWDFLT
  2
AcDbDictionaryWithDefault
  3
ObjectDBX Classes
 90
        0
 91
        1
280
     0
281
     0
  0
CLASS
  1
MATERIAL
  2
AcDbMaterial
  3
ObjectDBX Classes
 90
     1153
 91
        3
280
     0
281
     0
  0
CLASS
  1
VISUALSTYLE
  2
AcDbVisualStyle
  3
ObjectDBX Classes
 90
     4095
 91
       26
280
     0
281
     0
  0
CLASS
  1
TABLESTYLE
  2
AcDbTableStyle
  3
ObjectDBX Classes
 90
     4095
 91
        1
280
     0
281
     0
  0
CLASS
  1
SCALE
  2
AcDbScale
  3
ObjectDBX Classes
 90
     1153
 91
       17
280
     0
281
     0
  0
CLASS
  1
MLEADERSTYLE
  2
AcDbMLeaderStyle
  3
ACDB_MLEADERSTYLE_CLASS
 90
     4095
 91
        1
280
     0
281
     0
  0
CLASS
  1
ACMESCOPE
  2
AcMeScope
  3
AcMeServices
 90
     1024
 91
        0
280
     0
281
     0
  0
CLASS
  1
ACMECOMMANDHISTORY
  2
AcMeCommandHistory
  3
AcMeServices
 90
     1024
 91
        0
280
     0
281
     0
  0
CLASS
  1
ACIMSYSVARMAN
  2
AcImSysVarManager
  3
AcMeServices
 90
     1024
 91
        0
280
     0
281
     0
  0
CLASS
  1
ACIMINTSYSVAR
  2
AcImIntSysVar
  3
AcMeServices
 90
     1024
 91
        0
280
     0
281
     0
  0
CLASS
  1
ACMESTATEMGR
  2
AcMeStateMgr
  3
AcMeServices
 90
     1024
 91
        0
280
     0
281
     0
  0
CLASS
  1
AMGSETTINGSOBJ
  2
AmgSettingsObj
  3
"AcadM|Product Description: AutoCAD Mechanical|Company: Autodesk, Inc."
 90
     1024
 91
        0
280
     0
281
     0
  0
CLASS
  1
ACGREFMASTER
  2
AcGrefMaster
  3
AcAttribServices
 90
     1024
 91
        0
280
     0
281
     0
  0
CLASS
  1
AMGOBJPROPCFG
  2
AmgObjPropCfg
  3
"AmgLay|Product Description: AutoCAD Mechanical|Company: Autodesk, Inc."
 90
     1025
 91
        0
280
     0
281
     0
  0
CLASS
  1
ACME_DOCUMENT
  2
AcMeDbDoc
  3
AcMeServices
 90
     1024
 91
        0
280
     0
281
     0
  0
CLASS
  1
ACDBENTITYCACHE
  2
AcMeEntityCache
  3
AcMeServices
 90
     1024
 91
        0
280
     0
281
     0
  0
CLASS
  1
ACME_DATABASE
  2
AcMeDbDatabase
  3
AcMeServices
 90
     1024
 91
        0
280
     0
281
     0
  0
CLASS
  1
ACRFINSADJUSTERMGR
  2
AcRfInsAdjusterMgr
  3
AcMeServices
 90
     1024
 91
        0
280
     0
281
     0
  0
CLASS
  1
ACGREFACADMASTER
  2
AcGrefacadMaster
  3
AcGrefServices
 90
     1024
 91
        0
280
     0
281
     0
  0
CLASS
  1
AMDTMENUSTATEMGR
  2
AmdtMenuStateMgr
  3
McadcomServices
 90
     1024
 91
        0
280
     0
281
     0
  0
CLASS
  1
AMDTMCOMMENUSTATE
  2
AmdtMcomMenuState
  3
McadcomServices
 90
     1024
 91
        0
280
     0
281
     0
  0
CLASS
  1
AMIMASTER
  2
AmiMaster
  3
AmiServices
 90
     1024
 91
        0
280
     0
281
     0
  0
CLASS
  1
MAPIAMMOUDLE
  2
MApiAmModule
  3
MApiAmServices
 90
     1024
 91
        0
280
     0
281
     0
  0
CLASS
  1
ACMSTANDARDISO
  2
AcmStandardISO
  3
"Amdt_StdImp|Product Description: AutoCAD Mechanical|Company: Autodesk, Inc."
 90
     1024
 91
        0
280
     0
281
     0
  0
CLASS
  1
AMDTEDGESTANDARDISO
  2
AmdtEdgeStdISO
  3
"Amdt_StdImp|Product Description: AutoCAD Mechanical|Company: Autodesk, Inc."
 90
     1024
 91
        0
280
     0
281
     0
  0
CLASS
  1
ACMSURFSTANDARDISO
  2
AcmSurfTextStdISO
  3
"Amdt_StdImp|Product Description: AutoCAD Mechanical|Company: Autodesk, Inc."
 90
     1024
 91
        0
280
     0
281
     0
  0
CLASS
  1
ACMFCFSTANDARDISO
  2
AcmFCFStdISO
  3
"Amdt_StdImp|Product Description: AutoCAD Mechanical|Company: Autodesk, Inc."
 90
     1024
 91
        0
280
     0
281
     0
  0
CLASS
  1
ACMWELDSTANDARDISO
  2
AcmWeldingStdISO
  3
"Amdt_StdImp|Product Description: AutoCAD Mechanical|Company: Autodesk, Inc."
 90
     1024
 91
        0
280
     0
281
     0
  0
CLASS
  1
ACMIDSTANDARDISO
  2
AcmIdStdISO
  3
"Amdt_StdImp|Product Description: AutoCAD Mechanical|Company: Autodesk, Inc."
 90
     1024
 91
        0
280
     0
281
     0
  0
CLASS
  1
ACMDATUMSTANDARDISO
  2
AcmDatumStdISO
  3
"Amdt_StdImp|Product Description: AutoCAD Mechanical|Company: Autodesk, Inc."
 90
     1024
 91
        0
280
     0
281
     0
  0
CLASS
  1
ACMBOMSTANDARDISO
  2
AcmBOMStdISO
  3
"Amdt_StdImp|Product Description: AutoCAD Mechanical|Company: Autodesk, Inc."
 90
     1024
 91
        0
280
     0
281
     0
  0
CLASS
  1
ACMDETAILSTANDARDISO
  2
AmdtDetailSymStdISO
  3
"Amdt_StdImp|Product Description: AutoCAD Mechanical|Company: Autodesk, Inc."
 90
     1024
 91
        0
280
     0
281
     0
  0
CLASS
  1
ACMSECTIONSTANDARDISO
  2
AmdtSectionSymStdISO
  3
"Amdt_StdImp|Product Description: AutoCAD Mechanical|Company: Autodesk, Inc."
 90
     1024
 91
        0
280
     0
281
     0
  0
CLASS
  1
ACMCENTERLINESTANDARDISO
  2
AmdtCenterLineStdISO
  3
"Amdt_StdImp|Product Description: AutoCAD Mechanical|Company: Autodesk, Inc."
 90
     1024
 91
        0
280
     0
281
     0
  0
CLASS
  1
ACMNOTESTANDARDISO
  2
AmdtNoteStdISO
  3
"Amdt_StdImp|Product Description: AutoCAD Mechanical|Company: Autodesk, Inc."
 90
     1024
 91
        0
280
     0
281
     0
  0
CLASS
  1
AMDTNOTETEMPLATEDB
  2
AmdtNoteTemplateDB
  3
AcmSymBB|Product Description: AutoCAD Mechanical|Company: Autodesk, Inc.
 90
     1024
 91
        0
280
     0
281
     0
  0
CLASS
  1
ACAMGLAYSTD
  2
AcAmgLayStd
  3
"AmgLay|Product Description: AutoCAD Mechanical|Company: Autodesk, Inc."
 90
     1024
 91
        0
280
     0
281
     0
  0
CLASS
  1
ACAMGDIMSTD
  2
AcAmgDimStd
  3
"AmgDim|Product Description: AutoCAD Mechanical|Company: Autodesk, Inc."
 90
     1024
 91
        0
280
     0
281
     0
  0
CLASS
  1
ACAMGHOLECHARTSTDISO
  2
AcAmgHoleChartStdISO
  3
AmgDim|Product Description: AutoCAD Mechanical|Company: Autodesk, Inc.
 90
     1024
 91
        0
280
     0
281
     0
  0
CLASS
  1
ACAMGTITLESTD
  2
AcAmgTitleStd
  3
"AmgTitle|Product Description: AutoCAD Mechanical|Company: Autodesk, Inc."
 90
     4095
 91
        0
280
     0
281
     0
  0
CLASS
  1
ACMTHREADLINESTANDARDISO
  2
AmdtThreadLineStdISO
  3
"Amdt_StdImp|Product Description: AutoCAD Mechanical|Company: Autodesk, Inc."
 90
     1024
 91
        0
280
     0
281
     0
  0
CLASS
  1
ACMTAPERSTANDARDISO
  2
AcmTaperStdISO
  3
"Amdt_StdImp|Product Description: AutoCAD Mechanical|Company: Autodesk, Inc."
 90
     1024
 91
        0
280
     0
281
     0
  0
CLASS
  1
ACMANOOTATIONVIEWSTANDARDISO
  2
AmdtAnViewStdISO
  3
"Amdt_StdImp|Product Description: AutoCAD Mechanical|Company: Autodesk, Inc."
 90
     1024
 91
        0
280
     0
281
     0
  0
CLASS
  1
ACMSTANDARDJIS
  2
AcmStandardJIS
  3
"Amdt_StdImp|Product Description: AutoCAD Mechanical|Company: Autodesk, Inc."
 90
     1024
 91
        0
280
     0
281
     0
  0
CLASS
  1
ACMSURFSTANDARDJIS
  2
AcmSurfTextStdJIS
  3
"Amdt_StdImp|Product Description: AutoCAD Mechanical|Company: Autodesk, Inc."
 90
     1024
 91
        0
280
     0
281
     0
  0
CLASS
  1
ACMFCFSTANDARDJIS
  2
AcmFCFStdJIS
  3
"Amdt_StdImp|Product Description: AutoCAD Mechanical|Company: Autodesk, Inc."
 90
     1024
 91
        0
280
     0
281
     0
  0
CLASS
  1
ACMWELDSTANDARDJIS
  2
AcmWeldingStdJIS
  3
"Amdt_StdImp|Product Description: AutoCAD Mechanical|Company: Autodesk, Inc."
 90
     1024
 91
        0
280
     0
281
     0
  0
CLASS
  1
ACMIDSTANDARDJIS
  2
AcmIdStdJIS
  3
"Amdt_StdImp|Product Description: AutoCAD Mechanical|Company: Autodesk, Inc."
 90
     1024
 91
        0
280
     0
281
     0
  0
CLASS
  1
ACMDATUMSTANDARDJIS
  2
AcmDatumStdJIS
  3
"Amdt_StdImp|Product Description: AutoCAD Mechanical|Company: Autodesk, Inc."
 90
     1024
 91
        0
280
     0
281
     0
  0
CLASS
  1
ACMBOMSTANDARDJIS
  2
AcmBOMStdJIS
  3
"Amdt_StdImp|Product Description: AutoCAD Mechanical|Company: Autodesk, Inc."
 90
     1024
 91
        0
280
     0
281
     0
  0
CLASS
  1
ACMDETAILSTANDARDJIS
  2
AmdtDetailSymStdJIS
  3
"Amdt_StdImp|Product Description: AutoCAD Mechanical|Company: Autodesk, Inc."
 90
     1024
 91
        0
280
     0
281
     0
  0
CLASS
  1
ACMSECTIONSTANDARDJIS
  2
AmdtSectionSymStdJIS
  3
"Amdt_StdImp|Product Description: AutoCAD Mechanical|Company: Autodesk, Inc."
 90
     1024
 91
        0
280
     0
281
     0
  0
CLASS
  1
ACMCENTERLINESTANDARDJIS
  2
AmdtCenterLineStdJIS
  3
"Amdt_StdImp|Product Description: AutoCAD Mechanical|Company: Autodesk, Inc."
 90
     1024
 91
        0
280
     0
281
     0
  0
CLASS
  1
ACMTHREADLINESTANDARDJIS
  2
AmdtThreadLineStdJIS
  3
"Amdt_StdImp|Product Description: AutoCAD Mechanical|Company: Autodesk, Inc."
 90
     1024
 91
        0
280
     0
281
     0
  0
CLASS
  1
ACMNOTESTANDARDJIS
  2
AmdtNoteStdJIS
  3
"Amdt_StdImp|Product Description: AutoCAD Mechanical|Company: Autodesk, Inc."
 90
     1024
 91
        0
280
     0
281
     0
  0
CLASS
  1
ACAMGHOLECHARTSTDJIS
  2
AcAmgHoleChartStdJIS
  3
AmgDim|Product Description: AutoCAD Mechanical|Company: Autodesk, Inc.
 90
     1024
 91
        0
280
     0
281
     0
  0
CLASS
  1
ACMTAPERSTANDARDJIS
  2
AcmTaperStdJIS
  3
"Amdt_StdImp|Product Description: AutoCAD Mechanical|Company: Autodesk, Inc."
 90
     1024
 91
        0
280
     0
281
     0
  0
CLASS
  1
ACMANOOTATIONVIEWSTANDARDJIS
  2
AmdtAnViewStdJIS
  3
"Amdt_StdImp|Product Description: AutoCAD Mechanical|Company: Autodesk, Inc."
 90
     1024
 91
        0
280
     0
281
     0
  0
CLASS
  1
AMDTEDGESTANDARDJIS
  2
AmdtEdgeStdJIS
  3
"Amdt_StdImp|Product Description: AutoCAD Mechanical|Company: Autodesk, Inc."
 90
     1024
 91
        0
280
     0
281
     0
  0
CLASS
  1
ACMFCFSTANDARDJIS98
  2
AcmFCFStdJIS98
  3
"Amdt_StdImp|Product Description: AutoCAD Mechanical|Company: Autodesk, Inc."
 90
     1024
 91
        0
280
     0
281
     0
  0
CLASS
  1
ACIMSTRSYSVAR
  2
AcImStrSysVar
  3
AcMeServices
 90
     1024
 91
        0
280
     0
281
     0
  0
CLASS
  1
AMDTAMMENUSTATE
  2
AmdtAmMenuState
  3
DesignerAssemblies
 90
     1024
 91
        0
280
     0
281
     0
  0
CLASS
  1
ACAMPROJECT
  2
AcAmProject
  3
DesignerAssemblies
 90
     1024
 91
        0
280
     0
281
     0
  0
CLASS
  1
ACAMGRCOMPDEF
  2
AcAmGrCompDef
  3
DesignerAssemblies
 90
     1024
 91
        0
280
     0
281
     0
  0
CLASS
  1
ACAMCOMPDEF
  2
AcAmCompDef
  3
DesignerAssemblies
 90
     1024
 91
        0
280
     0
281
     0
  0
CLASS
  1
ACAMCOMPDEFMGR
  2
AcAmCompDefMgr
  3
DesignerAssemblies
 90
     1024
 91
        0
280
     0
281
     0
  0
CLASS
  1
AMCONTEXTMGR
  2
AcAmContextMgr
  3
DesignerAssemblies
 90
     1024
 91
        0
280
     0
281
     0
  0
CLASS
  1
ACAMCONTEXTMODELER
  2
AcAmContextModeler
  3
DesignerAssemblies
 90
     1024
 91
        0
280
     0
281
     0
  0
CLASS
  1
ACMDATADICTIONARY
  2
AcmDataDictionary
  3
"AcmSymBB|Product Description: AutoCAD Mechanical|Company: Autodesk, Inc."
 90
     1024
 91
        0
280
     0
281
     0
  0
CLASS
  1
ACAMGRCOMPDEFSET
  2
AcAmGrCompDefSet
  3
DesignerAssemblies
 90
     1024
 91
        0
280
     0
281
     0
  0
CLASS
  1
AMDTBROWSERDBTAB
  2
AmdtBrowserDbTab
  3
McadcomServices
 90
     1024
 91
        0
280
     0
281
     0
  0
CLASS
  1
CBROWSERAPPOBJECT
  2
CBrowserAppObject
  3
McadcomServices
 90
     1024
 91
        0
280
     0
281
     0
  0
CLASS
  1
DM_PLACEHOLDER
  2
AcDmSelsetPlaceholder
  3
McadcomServices
 90
     1024
 91
        0
280
     0
281
     0
  0
CLASS
  1
EXACXREFPANELOBJECT
  2
ExAcXREFPanelObject
  3
EXAC_ESW
 90
     1025
 91
        0
280
     0
281
     0
  0
CLASS
  1
NPOCOLLECTION
  2
AcDbImpNonPersistentObjectsCollection
  3
ObjectDBX Classes
 90
     1153
 91
        0
280
     0
281
     0
  0
CLASS
  1
ACAMGFILTERDAT
  2
AcAmgFilterDat
  3
"AcadM|Product Description: AutoCAD Mechanical|Company: Autodesk, Inc."
 90
     1024
 91
        0
280
     0
281
     0
  0
CLASS
  1
CAMSSTRUCTBTNSTATE
  2
StructBtnState
  3
DesignerAssemblies
 90
     1024
 91
        0
280
     0
281
     0
  0
CLASS
  1
DICTIONARYVAR
  2
AcDbDictionaryVar
  3
ObjectDBX Classes
 90
        0
 91
       14
280
     0
281
     0
  0
CLASS
  1
CELLSTYLEMAP
  2
AcDbCellStyleMap
  3
ObjectDBX Classes
 90
     1152
 91
        2
280
     0
281
     0
  0
CLASS
  1
ACDBPLACEHOLDER
  2
AcDbPlaceHolder
  3
ObjectDBX Classes
 90
        0
 91
        1
280
     0
281
     0
  0
CLASS
  1
LAYOUT
  2
AcDbLayout
  3
ObjectDBX Classes
 90
        0
 91
        2
280
     0
281
     0
  0
CLASS
  1
SORTENTSTABLE
  2
AcDbSortentsTable
  3
ObjectDBX Classes
 90
        0
 91
        1
280
     0
281
     0
  0
CLASS
  1
DIMASSOC
  2
AcDbDimAssoc
  3
"AcDbDimAssoc|Product Desc:     AcDim ARX App For Dimension|Company:          Autodesk, Inc.|WEB Address:      www.autodesk.com"
 90
        0
 91
        0
280
     0
281
     0
  0
CLASS
  1
ACDBSECTIONVIEWSTYLE
  2
AcDbSectionViewStyle
  3
ObjectDBX Classes
 90
     1025
 91
        1
280
     0
281
     0
  0
CLASS
  1
ACDBDETAILVIEWSTYLE
  2
AcDbDetailViewStyle
  3
ObjectDBX Classes
 90
     1025
 91
        1
280
     0
281
     0
  0
ENDSEC
  0
SECTION
  2
TABLES
  0
TABLE
  2
VPORT
  5
E2
102
{ACAD_XDICTIONARY
360
199E
102
}
330
0
100
AcDbSymbolTable
 70
     1
  0
VPORT
  5
1855
330
E2
100
AcDbSymbolTableRecord
100
AcDbViewportTableRecord
  2
*Active
 70
     0
 10
0.0
 20
0.0
 11
1.0
 21
1.0
 12
67.05449582000892
 22
403.2414911022694
 13
0.0
 23
0.0
 14
1.0
 24
1.0
 15
0.0
 25
0.0
 16
0.0
 26
0.0
 36
1.0
 17
0.0
 27
0.0
 37
0.0
 40
990.7805932007352
 41
1.234567901234567
 42
50.0
 43
0.0
 44
0.0
 50
0.0
 51
0.0
 71
     0
 72
  1000
 73
     1
 74
     3
 75
     0
 76
     0
 77
     0
 78
     0
281
     0
 65
     1
110
0.0
120
0.0
130
0.0
111
1.0
121
0.0
131
0.0
112
0.0
122
1.0
132
0.0
 79
     0
146
0.0
1001
ACAD_NAV_VCDISPLAY
1070
     1
  0
ENDTAB
  0
TABLE
  2
LTYPE
  5
25
330
0
100
AcDbSymbolTable
 70
     2
  0
LTYPE
  5
26
330
25
100
AcDbSymbolTableRecord
100
AcDbLinetypeTableRecord
  2
BYBLOCK
 70
     0
  3

 72
    65
 73
     0
 40
0.0
  0
LTYPE
  5
27
330
25
100
AcDbSymbolTableRecord
100
AcDbLinetypeTableRecord
  2
BYLAYER
 70
     0
  3

 72
    65
 73
     0
 40
0.0
  0
LTYPE
  5
28
330
25
100
AcDbSymbolTableRecord
100
AcDbLinetypeTableRecord
  2
CONTINUOUS
 70
     0
  3
Solid line
 72
    65
 73
     0
 40
0.0
  0
LTYPE
  5
2A
330
25
100
AcDbSymbolTableRecord
100
AcDbLinetypeTableRecord
  2
CENTER
 70
     0
  3
__ . __
 72
    65
 73
     4
 40
7.0
 49
4.0
 74
     0
 49
-1.0
 74
     0
 49
1.0
 74
     0
 49
-1.0
 74
     0
  0
ENDTAB
  0
TABLE
  2
LAYER
  5
C8
102
{ACAD_XDICTIONARY
360
2035
102
}
330
0
100
AcDbSymbolTable
 70
     1
  0
LAYER
  5
C9
102
{ACAD_XDICTIONARY
360
1963
102
}
330
C8
100
AcDbSymbolTableRecord
100
AcDbLayerTableRecord
  2
0
 70
     0
 62
     7
  6
CONTINUOUS
370
    -3
390
1801
  0
ENDTAB
  0
TABLE
  2
STYLE
  5
CA
330
0
100
AcDbSymbolTable
 70
     2
  0
STYLE
  5
23
330
CA
100
AcDbSymbolTableRecord
100
AcDbTextStyleTableRecord
  2
STANDARD
 70
     0
 40
0.0
 41
1.0
 50
0.0
 71
     0
 42
0.2
  3
txt.shx
  4

  0
STYLE
  5
1920
330
CA
100
AcDbSymbolTableRecord
100
AcDbTextStyleTableRecord
  2
TOSTE_TEXT
 70
     0
 40
0.0
 41
1.0
 50
0.0
 71
     0
 42
3.5
  3

  4

1001
ACAD
1000
MS Gothic
1071
    32817
  0
ENDTAB
  0
TABLE
  2
VIEW
  5
CE
330
0
100
AcDbSymbolTable
 70
     0
  0
ENDTAB
  0
TABLE
  2
UCS
  5
CF
330
0
100
AcDbSymbolTable
 70
     0
  0
ENDTAB
  0
TABLE
  2
APPID
  5
CC
330
0
100
AcDbSymbolTable
 70
    85
  0
APPID
  5
CD
330
CC
100
AcDbSymbolTableRecord
100
AcDbRegAppTableRecord
  2
ACAD
 70
     0
  0
APPID
  5
1854
330
CC
100
AcDbSymbolTableRecord
100
AcDbRegAppTableRecord
  2
ACAD_NAV_VCDISPLAY
 70
     0
  0
APPID
  5
185B
330
CC
100
AcDbSymbolTableRecord
100
AcDbRegAppTableRecord
  2
MCAD_NO_VIS
 70
     0
  0
APPID
  5
185C
330
CC
100
AcDbSymbolTableRecord
100
AcDbRegAppTableRecord
  2
ACAD_TEMP_GRAPHIC
 70
     0
  0
APPID
  5
1862
330
CC
100
AcDbSymbolTableRecord
100
AcDbRegAppTableRecord
  2
ACATTRIBSERVICES
 70
     0
  0
APPID
  5
1863
330
CC
100
AcDbSymbolTableRecord
100
AcDbRegAppTableRecord
  2
AD_DRAW
 70
     0
  0
APPID
  5
1864
330
CC
100
AcDbSymbolTableRecord
100
AcDbRegAppTableRecord
  2
DESIGNERASSEMBLIES
 70
     0
  0
APPID
  5
1865
330
CC
100
AcDbSymbolTableRecord
100
AcDbRegAppTableRecord
  2
ASURF_PCURVE_APPNAME
 70
     0
  0
APPID
  5
1866
330
CC
100
AcDbSymbolTableRecord
100
AcDbRegAppTableRecord
  2
ACADM_DIM_EDIT
 70
     0
  0
APPID
  5
1867
330
CC
100
AcDbSymbolTableRecord
100
AcDbRegAppTableRecord
  2
GENIUS_GENDIM_13
 70
     0
  0
APPID
  5
1868
330
CC
100
AcDbSymbolTableRecord
100
AcDbRegAppTableRecord
  2
GENIUS_GENDTOL_13
 70
     0
  0
APPID
  5
1869
330
CC
100
AcDbSymbolTableRecord
100
AcDbRegAppTableRecord
  2
GENIUS_GE3DTOL_13
 70
     0
  0
APPID
  5
186A
330
CC
100
AcDbSymbolTableRecord
100
AcDbRegAppTableRecord
  2
AMG_3D2D_5.0
 70
     0
  0
APPID
  5
186B
330
CC
100
AcDbSymbolTableRecord
100
AcDbRegAppTableRecord
  2
AMDT_DM_ADJ
 70
     0
  0
APPID
  5
186C
330
CC
100
AcDbSymbolTableRecord
100
AcDbRegAppTableRecord
  2
CK_MATE-SERIES
 70
     0
  0
APPID
  5
186D
330
CC
100
AcDbSymbolTableRecord
100
AcDbRegAppTableRecord
  2
GEVID1042077799
 70
     0
  0
APPID
  5
186E
330
CC
100
AcDbSymbolTableRecord
100
AcDbRegAppTableRecord
  2
GEVMK
 70
     0
  0
APPID
  5
186F
330
CC
100
AcDbSymbolTableRecord
100
AcDbRegAppTableRecord
  2
GEVDC
 70
     0
  0
APPID
  5
1870
330
CC
100
AcDbSymbolTableRecord
100
AcDbRegAppTableRecord
  2
GENIUS_GENBH_13
 70
     0
  0
APPID
  5
1871
330
CC
100
AcDbSymbolTableRecord
100
AcDbRegAppTableRecord
  2
GENIUS_GENOLIS_13
 70
     0
  0
APPID
  5
1872
330
CC
100
AcDbSymbolTableRecord
100
AcDbRegAppTableRecord
  2
GENIUS_GENOENT_13
 70
     0
  0
APPID
  5
1873
330
CC
100
AcDbSymbolTableRecord
100
AcDbRegAppTableRecord
  2
GENIUS_GENODEF_13
 70
     0
  0
APPID
  5
1874
330
CC
100
AcDbSymbolTableRecord
100
AcDbRegAppTableRecord
  2
GENIUS_GENOBJ-NBEHI-BHF_13
 70
     0
  0
APPID
  5
1875
330
CC
100
AcDbSymbolTableRecord
100
AcDbRegAppTableRecord
  2
GENIUS_GENOREF_13
 70
     0
  0
APPID
  5
1876
330
CC
100
AcDbSymbolTableRecord
100
AcDbRegAppTableRecord
  2
GENIUS_GENOBJ-NBEHI-BHB_13
 70
     0
  0
APPID
  5
1877
330
CC
100
AcDbSymbolTableRecord
100
AcDbRegAppTableRecord
  2
GEVID1042183772
 70
     0
  0
APPID
  5
1878
330
CC
100
AcDbSymbolTableRecord
100
AcDbRegAppTableRecord
  2
GEVID1042183773
 70
     0
  0
APPID
  5
1879
330
CC
100
AcDbSymbolTableRecord
100
AcDbRegAppTableRecord
  2
GEVID1042183774
 70
     0
  0
APPID
  5
187A
330
CC
100
AcDbSymbolTableRecord
100
AcDbRegAppTableRecord
  2
DCO15
 70
     0
  0
APPID
  5
187B
330
CC
100
AcDbSymbolTableRecord
100
AcDbRegAppTableRecord
  2
ACAD_DSTYLE_DIMARC_LENGTH_SYMBOL
 70
     0
  0
APPID
  5
187C
330
CC
100
AcDbSymbolTableRecord
100
AcDbRegAppTableRecord
  2
ACAD_DSTYLE_DIMJOGGED_JOGANGLE_SYMBOL
 70
     0
  0
APPID
  5
187D
330
CC
100
AcDbSymbolTableRecord
100
AcDbRegAppTableRecord
  2
ACAD_MLEADERVER
 70
     0
  0
APPID
  5
187E
330
CC
100
AcDbSymbolTableRecord
100
AcDbRegAppTableRecord
  2
GENIUS_GENOBJ-N-FIL_13
 70
     0
  0
APPID
  5
187F
330
CC
100
AcDbSymbolTableRecord
100
AcDbRegAppTableRecord
  2
AcadAnnoPO
 70
     0
  0
APPID
  5
1880
330
CC
100
AcDbSymbolTableRecord
100
AcDbRegAppTableRecord
  2
GENIUS_GENOBJ-N-TIT_13
 70
     0
  0
APPID
  5
1881
330
CC
100
AcDbSymbolTableRecord
100
AcDbRegAppTableRecord
  2
GENIUS_GENTITLE_13
 70
     0
  0
APPID
  5
1882
330
CC
100
AcDbSymbolTableRecord
100
AcDbRegAppTableRecord
  2
GENIUS_GENSCREG_15
 70
     0
  0
APPID
  5
1883
330
CC
100
AcDbSymbolTableRecord
100
AcDbRegAppTableRecord
  2
GENIUS_GENOBJ-N-SDF_13
 70
     0
  0
APPID
  5
1884
330
CC
100
AcDbSymbolTableRecord
100
AcDbRegAppTableRecord
  2
ACAD_PSEXT
 70
     0
  0
APPID
  5
1885
330
CC
100
AcDbSymbolTableRecord
100
AcDbRegAppTableRecord
  2
AcAecLayerStandard
 70
     0
  0
APPID
  5
1886
330
CC
100
AcDbSymbolTableRecord
100
AcDbRegAppTableRecord
  2
ACAD_EXEMPT_FROM_CAD_STANDARDS
 70
     0
  0
APPID
  5
1887
330
CC
100
AcDbSymbolTableRecord
100
AcDbRegAppTableRecord
  2
ACAD_DSTYLE_DIMINSPECT
 70
     0
  0
APPID
  5
1888
330
CC
100
AcDbSymbolTableRecord
100
AcDbRegAppTableRecord
  2
GENIUS_GENDIMSH_14
 70
     0
  0
APPID
  5
1889
330
CC
100
AcDbSymbolTableRecord
100
AcDbRegAppTableRecord
  2
GENIUS_GENOBJ-N-CEN_13
 70
     0
  0
APPID
  5
188A
330
CC
100
AcDbSymbolTableRecord
100
AcDbRegAppTableRecord
  2
GENIUS_GENCEN_19
 70
     0
  0
APPID
  5
188B
330
CC
100
AcDbSymbolTableRecord
100
AcDbRegAppTableRecord
  2
ACAD_DSTYLE_DIMJAG
 70
     0
  0
APPID
  5
188C
330
CC
100
AcDbSymbolTableRecord
100
AcDbRegAppTableRecord
  2
ACAD_DSTYLE_DIMTALN
 70
     0
  0
APPID
  5
188D
330
CC
100
AcDbSymbolTableRecord
100
AcDbRegAppTableRecord
  2
GENIUS_GENREC_14
 70
     0
  0
APPID
  5
188E
330
CC
100
AcDbSymbolTableRecord
100
AcDbRegAppTableRecord
  2
GENIUS_GENOBJ-N-REC_13
 70
     0
  0
APPID
  5
188F
330
CC
100
AcDbSymbolTableRecord
100
AcDbRegAppTableRecord
  2
ACAD_DIMASSOC_CALC_DIMLFAC
 70
     0
  0
APPID
  5
1890
330
CC
100
AcDbSymbolTableRecord
100
AcDbRegAppTableRecord
  2
ACAD_DIMASSOC_DIMLFAC
 70
     0
  0
APPID
  5
1891
330
CC
100
AcDbSymbolTableRecord
100
AcDbRegAppTableRecord
  2
ACAD_DIMASSOC_OVERRIDDEN_DIMLFAC
 70
     0
  0
APPID
  5
1892
330
CC
100
AcDbSymbolTableRecord
100
AcDbRegAppTableRecord
  2
AcadAnnotative
 70
     0
  0
APPID
  5
1893
330
CC
100
AcDbSymbolTableRecord
100
AcDbRegAppTableRecord
  2
ACAD_DSTYLE_DIMEXT_LENGTH
 70
     0
  0
APPID
  5
1894
330
CC
100
AcDbSymbolTableRecord
100
AcDbRegAppTableRecord
  2
ACAD_DSTYLE_DIMEXT_ENABLED
 70
     0
  0
APPID
  5
1895
330
CC
100
AcDbSymbolTableRecord
100
AcDbRegAppTableRecord
  2
ACAD_DSTYLE_DIMBREAK
 70
     0
  0
APPID
  5
1896
330
CC
100
AcDbSymbolTableRecord
100
AcDbRegAppTableRecord
  2
ACAD_DSTYLE_DIMANGULAR_EXTENSION
 70
     0
  0
APPID
  5
1897
330
CC
100
AcDbSymbolTableRecord
100
AcDbRegAppTableRecord
  2
ACCMTRANSPARENCY
 70
     0
  0
APPID
  5
1898
330
CC
100
AcDbSymbolTableRecord
100
AcDbRegAppTableRecord
  2
GENIUS_GENBLLY_14
 70
     0
  0
APPID
  5
1899
330
CC
100
AcDbSymbolTableRecord
100
AcDbRegAppTableRecord
  2
GENIUS_GENTRA_14
 70
     0
  0
APPID
  5
189A
330
CC
100
AcDbSymbolTableRecord
100
AcDbRegAppTableRecord
  2
GENIUS_GENOBJ-N-REV_13
 70
     0
  0
APPID
  5
189B
330
CC
100
AcDbSymbolTableRecord
100
AcDbRegAppTableRecord
  2
GENIUS_GENOBJ-N-RSSYM_13
 70
     0
  0
APPID
  5
189C
330
CC
100
AcDbSymbolTableRecord
100
AcDbRegAppTableRecord
  2
GENIUS_GENSYMENT_13
 70
     0
  0
APPID
  5
189D
330
CC
100
AcDbSymbolTableRecord
100
AcDbRegAppTableRecord
  2
GENIUS_GENSCSYM_13
 70
     0
  0
APPID
  5
189E
330
CC
100
AcDbSymbolTableRecord
100
AcDbRegAppTableRecord
  2
AcDbBlockRepBTag
 70
     0
  0
APPID
  5
189F
330
CC
100
AcDbSymbolTableRecord
100
AcDbRegAppTableRecord
  2
ACAUTHENVIRON
 70
     0
  0
APPID
  5
18A0
330
CC
100
AcDbSymbolTableRecord
100
AcDbRegAppTableRecord
  2
AcDbDynamicBlockTrueName
 70
     0
  0
APPID
  5
18A1
330
CC
100
AcDbSymbolTableRecord
100
AcDbRegAppTableRecord
  2
AcDbDynamicBlockGUID
 70
     0
  0
APPID
  5
18A2
330
CC
100
AcDbSymbolTableRecord
100
AcDbRegAppTableRecord
  2
AcDbBlockRepETag
 70
     0
  0
APPID
  5
18A3
330
CC
100
AcDbSymbolTableRecord
100
AcDbRegAppTableRecord
  2
GENIUS_GENOBJ-N-HTC_13
 70
     0
  0
APPID
  5
18A4
330
CC
100
AcDbSymbolTableRecord
100
AcDbRegAppTableRecord
  2
GENIUS_GENHATCH_13
 70
     0
  0
APPID
  5
18A5
330
CC
100
AcDbSymbolTableRecord
100
AcDbRegAppTableRecord
  2
GRADIENTCOLOR1ACI
 70
     0
  0
APPID
  5
18A6
330
CC
100
AcDbSymbolTableRecord
100
AcDbRegAppTableRecord
  2
GRADIENTCOLOR2ACI
 70
     0
  0
APPID
  5
18A7
330
CC
100
AcDbSymbolTableRecord
100
AcDbRegAppTableRecord
  2
GENIUS_GENFIL_13
 70
     0
  0
APPID
  5
18A8
330
CC
100
AcDbSymbolTableRecord
100
AcDbRegAppTableRecord
  2
GENIUS_GENOBJ-N-CHA_13
 70
     0
  0
APPID
  5
18A9
330
CC
100
AcDbSymbolTableRecord
100
AcDbRegAppTableRecord
  2
ACAD_DSTYLE_DIM_LINETYPE
 70
     0
  0
APPID
  5
18AA
330
CC
100
AcDbSymbolTableRecord
100
AcDbRegAppTableRecord
  2
ACAD_DSTYLE_DIM_EXT1_LINETYPE
 70
     0
  0
APPID
  5
18AB
330
CC
100
AcDbSymbolTableRecord
100
AcDbRegAppTableRecord
  2
ACAD_DSTYLE_DIM_EXT2_LINETYPE
 70
     0
  0
APPID
  5
18AC
330
CC
100
AcDbSymbolTableRecord
100
AcDbRegAppTableRecord
  2
AcDbAttr
 70
     0
  0
APPID
  5
18AD
330
CC
100
AcDbSymbolTableRecord
100
AcDbRegAppTableRecord
  2
ACAD_DSTYLE_DIMRADIAL_EXTENSION
 70
     0
  0
APPID
  5
18AE
330
CC
100
AcDbSymbolTableRecord
100
AcDbRegAppTableRecord
  2
ACADANNOAV
 70
     0
  0
APPID
  5
18AF
330
CC
100
AcDbSymbolTableRecord
100
AcDbRegAppTableRecord
  2
ACAD_DSTYLE_DIMTEXT_FILL
 70
     0
  0
APPID
  5
18B0
330
CC
100
AcDbSymbolTableRecord
100
AcDbRegAppTableRecord
  2
ACAD_DSTYLE_DIMFLIPARROW_WHICH_SYMBOL
 70
     0
  0
APPID
  5
18B1
330
CC
100
AcDbSymbolTableRecord
100
AcDbRegAppTableRecord
  2
ACADBPTGRAPHNODEID
 70
     0
  0
APPID
  5
18B2
330
CC
100
AcDbSymbolTableRecord
100
AcDbRegAppTableRecord
  2
PE_URL
 70
     0
  0
ENDTAB
  0
TABLE
  2
DIMSTYLE
  5
CB
330
0
100
AcDbSymbolTable
 70
     1
100
AcDbDimStyleTable
 71
     1
340
1932
  0
DIMSTYLE
105
1932
330
CB
100
AcDbSymbolTableRecord
100
AcDbDimStyleTableRecord
  2
TOSTE
 70
     0
  4
"
 41
2.5
 42
0.5
 43
10.0
 44
1.0
 47
0.1
 48
0.1000000001
 73
     0
 74
     0
 77
     1
 78
     8
 79
     2
140
3.0
141
0.0
143
0.0393701
146
0.6
147
1.199999999999999
172
     1
176
   256
177
   256
178
     7
271
     2
272
     2
283
     2
284
     8
340
1920
341
1933
342
1933
371
    -1
372
    -1
1001
ACAD_DSTYLE_DIMBREAK
1070
   391
1040
0.0
1001
ACAD_DSTYLE_DIMJAG
1070
   388
1040
1.5
1001
ACAD_DSTYLE_DIMTALN
1070
   392
1070
     1
1001
ACAD_DSTYLE_DIMARC_LENGTH_SYMBOL
1070
   379
1070
     1
1001
ACAD_DSTYLE_DIMTEXT_FILL
1070
   376
1070
     1
1070
   377
1004
1800000001000000000000C1000000000000000000000000
1001
ACAD_DSTYLE_DIM_LINETYPE
1070
   380
1005
28
1001
ACAD_DSTYLE_DIM_EXT1_LINETYPE
1070
   381
1005
28
1001
ACAD_DSTYLE_DIM_EXT2_LINETYPE
1070
   382
1005
28
  0
ENDTAB
  0
TABLE
  2
BLOCK_RECORD
  5
D0
330
0
100
AcDbSymbolTable
 70
     1
  0
BLOCK_RECORD
  5
D1
102
{ACAD_XDICTIONARY
360
1C1E
102
}
330
D0
100
AcDbSymbolTableRecord
100
AcDbBlockTableRecord
  2
*MODEL_SPACE
340
184E
  0
BLOCK_RECORD
  5
D2
330
D0
100
AcDbSymbolTableRecord
100
AcDbBlockTableRecord
  2
*PAPER_SPACE
340
184F
  0
BLOCK_RECORD
  5
1933
330
D0
100
AcDbSymbolTableRecord
100
AcDbBlockTableRecord
  2
_Open
340
0
310
2800000020000000200000000100080000000000000400000000000000000000000000000000000000000000000080000080000000808000800000008000800080800000C0C0C000C0DCC000F0CAA6000020400000206000002080000020A0000020C0000020E00000400000004020000040400000406000004080000040A0
310
000040C0000040E00000600000006020000060400000606000006080000060A0000060C0000060E00000800000008020000080400000806000008080000080A0000080C0000080E00000A0000000A0200000A0400000A0600000A0800000A0A00000A0C00000A0E00000C0000000C0200000C0400000C0600000C0800000C0
310
A00000C0C00000C0E00000E0000000E0200000E0400000E0600000E0800000E0A00000E0C00000E0E00040000000400020004000400040006000400080004000A0004000C0004000E00040200000402020004020400040206000402080004020A0004020C0004020E000404000004040200040404000404060004040800040
310
40A0004040C0004040E00040600000406020004060400040606000406080004060A0004060C0004060E00040800000408020004080400040806000408080004080A0004080C0004080E00040A0000040A0200040A0400040A0600040A0800040A0A00040A0C00040A0E00040C0000040C0200040C0400040C0600040C08000
310
40C0A00040C0C00040C0E00040E0000040E0200040E0400040E0600040E0800040E0A00040E0C00040E0E00080000000800020008000400080006000800080008000A0008000C0008000E00080200000802020008020400080206000802080008020A0008020C0008020E00080400000804020008040400080406000804080
310
008040A0008040C0008040E00080600000806020008060400080606000806080008060A0008060C0008060E00080800000808020008080400080806000808080008080A0008080C0008080E00080A0000080A0200080A0400080A0600080A0800080A0A00080A0C00080A0E00080C0000080C0200080C0400080C0600080C0
310
800080C0A00080C0C00080C0E00080E0000080E0200080E0400080E0600080E0800080E0A00080E0C00080E0E000C0000000C0002000C0004000C0006000C0008000C000A000C000C000C000E000C0200000C0202000C0204000C0206000C0208000C020A000C020C000C020E000C0400000C0402000C0404000C0406000C0
310
408000C040A000C040C000C040E000C0600000C0602000C0604000C0606000C0608000C060A000C060C000C060E000C0800000C0802000C0804000C0806000C0808000C080A000C080C000C080E000C0A00000C0A02000C0A04000C0A06000C0A08000C0A0A000C0A0C000C0A0E000C0C00000C0C02000C0C04000C0C06000
310
C0C08000C0C0A000F0FBFF00A4A0A000808080000000FF0000FF000000FFFF00FF000000FF00FF00FFFF0000FFFFFF0000000000000000000000000000000000000000000000000000000000000000000000000000000000000000000000000000000000000000000000000000000000000000000000000000000000000000
310
00000000000000000000000000000000000000000000000000000000000000000000000000000000000000000000000000000000000000000000000000000000000000000000000000000000000000000000000000000000000000000000000000000000000000000000000000000000000000000000000000000000000000
310
00000000000000000000000000000000000000000000000000000000000000000000000000000000000000000000000000000000000000000000000000000000000000000000000000000000000000000000000000000000000000000000000000000000000000000000000000000000000000000000000000000000000000
310
0000000000000000000000000000000000000000FFFFFF0000000000000000000000000000000000000000000000000000000000000000FFFFFFFFFFFF0000000000000000000000000000000000000000000000000000000000000000FFFFFFFFFFFF00000000000000000000000000000000000000000000000000000000
310
00000000FFFFFFFFFFFF0000000000000000000000000000000000000000000000000000000000000000FFFFFFFFFFFF0000000000FFFFFFFFFFFFFFFFFFFFFFFFFFFFFFFFFFFFFFFFFFFFFFFFFFFFFFFFFFFF000000000000000000000000000000000000000000FFFFFFFFFFFFFF00000000000000000000000000000000
310
00FFFFFFFFFFFFFFFF0000000000000000000000000000000000FFFFFFFFFFFFFF000000000000000000000000000000000000000000FFFFFFFF000000000000000000000000000000000000000000000000000000000000000000000000000000000000000000000000000000000000000000000000000000000000000000
310
00000000000000000000000000000000000000000000000000000000000000000000000000000000000000000000000000000000000000000000000000000000000000000000000000000000000000000000000000000000000000000000000000000000000000000000000000000000000000000000000000000000000000
310
00000000000000000000000000000000000000000000000000000000000000000000000000000000000000000000000000000000000000000000000000000000000000000000000000000000000000000000000000000000000000000000000000000000000000000000000000000000000000000000000000000000000000
310
0000000000000000000000000000000000000000000000000000000000000000000000000000000000000000000000000000000000000000
  0
ENDTAB
  0
ENDSEC
  0
SECTION
  2
BLOCKS
  0
BLOCK
  5
E3
330
D1
100
AcDbEntity
  8
0
100
AcDbBlockBegin
  2
*MODEL_SPACE
 70
     0
 10
0.0
 20
0.0
 30
0.0
  3
*MODEL_SPACE
  1

  0
ENDBLK
  5
E4
330
D1
100
AcDbEntity
  8
0
100
AcDbBlockEnd
  0
BLOCK
  5
E5
330
D2
100
AcDbEntity
 67
     1
  8
0
100
AcDbBlockBegin
  2
*PAPER_SPACE
 70
     0
 10
0.0
 20
0.0
 30
0.0
  3
*PAPER_SPACE
  1

  0
ENDBLK
  5
E6
330
D2
100
AcDbEntity
 67
     1
  8
0
100
AcDbBlockEnd
  0
BLOCK
  5
30A0
330
1933
100
AcDbEntity
  8
0
100
AcDbBlockBegin
  2
_Open
 70
     0
 10
0.0
 20
0.0
 30
0.0
  3
_Open
  1

  0
LINE
  5
30A1
330
1933
100
AcDbEntity
  8
0
  6
ByBlock
 62
     0
370
    -2
100
AcDbLine
 10
-1.0
 20
0.1666666666666666
 30
0.0
 11
0.0
 21
0.0
 31
0.0
  0
LINE
  5
30A2
330
1933
100
AcDbEntity
  8
0
  6
ByBlock
 62
     0
370
    -2
100
AcDbLine
 10
-1.0
 20
-0.1666666666666666
 30
0.0
 11
0.0
 21
0.0
 31
0.0
  0
LINE
  5
30A3
330
1933
100
AcDbEntity
  8
0
  6
ByBlock
 62
     0
370
    -2
100
AcDbLine
 10
0.0
 20
0.0
 30
0.0
 11
-1.0
 21
0.0
 31
0.0
  0
ENDBLK
  5
30A4
330
1933
100
AcDbEntity
  8
0
100
AcDbBlockEnd
  0
ENDSEC
  0
SECTION
  2
ENTITIES
  0
POINT
  5
1A8E
330
D1
100
AcDbEntity
  8
0
  6
Continuous
100
AcDbPoint
 10
400.0
 20
0.0
 30
0.0
  0
LINE
  5
1A8F
330
D1
100
AcDbEntity
  8
0
  6
Continuous
100
AcDbLine
 10
399.99989013765
 20
42.500019
 30
0.0
 11
403.4998900999998
 21
42.500023
 31
0.0
  0
LINE
  5
1A90
330
D1
100
AcDbEntity
  8
0
  6
Continuous
100
AcDbLine
 10
403.4998869999999
 20
45.86666100000002
 30
0.0
 11
403.4998900999998
 21
42.500023
 31
0.0
  0
LINE
  5
1A91
330
D1
100
AcDbEntity
  8
0
  6
Continuous
100
AcDbLine
 10
437.971645
 20
-25.96437800000001
 30
0.0
 11
435.056049
 21
-24.28106099999999
 31
0.0
  0
LINE
  5
1A92
330
D1
100
AcDbEntity
  8
0
  6
Continuous
100
AcDbLine
 10
438.5560459999999
 20
-18.21888200000001
 30
0.0
 11
435.056049
 21
-24.28106099999999
 31
0.0
  0
LINE
  5
1A93
330
D1
100
AcDbEntity
  8
0
  6
Continuous
100
AcDbLine
 10
441.4716419999999
 20
-19.902197
 30
0.0
 11
438.5560459999999
 21
-18.21888200000001
 31
0.0
  0
LINE
  5
1A94
330
D1
100
AcDbEntity
  8
0
  6
Continuous
100
AcDbLine
 10
417.930141
 20
-52.259556
 30
0.0
 11
450.139633
 21
-51.13474700000001
 31
0.0
  0
LINE
  5
1A95
330
D1
100
AcDbEntity
  8
0
  6
Continuous
100
AcDbLine
 10
415.9999769999999
 20
-54.25834299999999
 30
0.0
 11
415.999978
 21
-54.84528699999998
 31
0.0
  0
LINE
  5
1A96
330
D1
100
AcDbEntity
  8
0
  6
Continuous
100
AcDbLine
 10
411.999971
 20
-58.30945600000001
 30
0.0
 11
415.000031
 21
-56.57737
 31
0.0
  0
LINE
  5
1A97
330
D1
100
AcDbEntity
  8
0
  6
Continuous
100
AcDbLine
 10
411.499982
 20
-59.17541499999998
 30
0.0
 11
411.4999849999999
 21
-62.36525
 31
0.0
  0
LINE
  5
1A98
330
D1
100
AcDbEntity
  8
0
  6
Continuous
100
AcDbLine
 10
453.9998862614361
 20
43.49996900000003
 30
0.0
 11
453.999969
 21
-47.137203
 31
0.0
  0
LINE
  5
1A99
330
D1
100
AcDbEntity
  8
0
  6
Continuous
100
AcDbLine
 10
307.5
 20
-24.281082
 30
0.0
 11
325.5
 21
-24.281082
 31
0.0
  0
LINE
  5
1A9A
330
D1
100
AcDbEntity
  8
0
  6
Continuous
100
AcDbLine
 10
307.5
 20
-25.964417
 30
0.0
 11
325.5
 21
-25.964417
 31
0.0
  0
LINE
  5
1A9B
330
D1
100
AcDbEntity
  8
0
  6
Continuous
100
AcDbLine
 10
307.5
 20
-19.90222199999999
 30
0.0
 11
325.5
 21
-19.90222199999999
 31
0.0
  0
LINE
  5
1A9E
330
D1
100
AcDbEntity
  8
0
  6
Continuous
100
AcDbLine
 10
325.5
 20
37.5
 30
0.0
 11
346.0
 21
37.50000000000001
 31
0.0
  0
LINE
  5
1A9F
330
D1
100
AcDbEntity
  8
0
  6
Continuous
100
AcDbLine
 10
325.5
 20
-37.5
 30
0.0
 11
346.0
 21
-37.50000000000001
 31
0.0
  0
LINE
  5
1AA0
330
D1
100
AcDbEntity
  8
0
  6
Continuous
100
AcDbLine
 10
400.0
 20
42.5
 30
0.0
 11
396.5
 21
42.5
 31
0.0
  0
LINE
  5
1AA1
330
D1
100
AcDbEntity
  8
0
  6
Continuous
100
AcDbLine
 10
396.5
 20
45.86666899999999
 30
0.0
 11
396.5
 21
42.5
 31
0.0
  0
LINE
  5
1AA2
330
D1
100
AcDbEntity
  8
0
  6
Continuous
100
AcDbLine
 10
307.5
 20
46.0
 30
0.0
 11
325.5
 21
46.0
 31
0.0
  0
LINE
  5
1AA3
330
D1
100
AcDbEntity
  8
0
  6
Continuous
100
AcDbLine
 10
291.6525899999999
 20
25.39999399999999
 30
0.0
 11
307.5
 21
25.39999399999999
 31
0.0
  0
LINE
  5
1AA4
330
D1
100
AcDbEntity
  8
0
  6
Continuous
100
AcDbLine
 10
288.0415499999999
 20
31.47360400000002
 30
0.0
 11
289.7731899999999
 21
26.715948
 31
0.0
  0
LINE
  5
1AA5
330
D1
100
AcDbEntity
  8
0
  6
Continuous
100
AcDbLine
 10
285.0
 20
32.0
 30
0.0
 11
287.28979
 21
32.0
 31
0.0
  0
LINE
  5
1AA6
330
D1
100
AcDbEntity
  8
0
  6
Continuous
100
AcDbLine
 10
362.0283360000001
 20
-25.96439900000002
 30
0.0
 11
364.9439279999999
 21
-24.28108
 31
0.0
  0
LINE
  5
1AA7
330
D1
100
AcDbEntity
  8
0
  6
Continuous
100
AcDbLine
 10
361.4439279999999
 20
-18.21890300000001
 30
0.0
 11
364.9439279999999
 21
-24.28108
 31
0.0
  0
LINE
  5
1AA8
330
D1
100
AcDbEntity
  8
0
  6
Continuous
100
AcDbLine
 10
358.5283360000001
 20
-19.90222199999999
 30
0.0
 11
361.4439279999999
 21
-18.21890300000001
 31
0.0
  0
LINE
  5
1AA9
330
D1
100
AcDbEntity
  8
0
  6
Continuous
100
AcDbLine
 10
285.0
 20
-32.0
 30
0.0
 11
287.28979
 21
-32.0
 31
0.0
  0
LINE
  5
1AAA
330
D1
100
AcDbEntity
  8
0
  6
Continuous
100
AcDbLine
 10
288.04152
 20
-31.47357700000001
 30
0.0
 11
289.77316
 21
-26.715925
 31
0.0
  0
LINE
  5
1AAB
330
D1
100
AcDbEntity
  8
0
  6
Continuous
100
AcDbLine
 10
291.6525899999999
 20
-25.39999399999999
 30
0.0
 11
307.5
 21
-25.39999399999999
 31
0.0
  0
LINE
  5
1AAC
330
D1
100
AcDbEntity
  8
0
  6
Continuous
100
AcDbLine
 10
325.5
 20
-46.0
 30
0.0
 11
325.5
 21
46.0
 31
0.0
  0
LINE
  5
1AAD
330
D1
100
AcDbEntity
  8
0
  6
Continuous
100
AcDbLine
 10
307.5
 20
46.0
 30
0.0
 11
307.5
 21
-46.0
 31
0.0
  0
LINE
  5
1AAE
330
D1
100
AcDbEntity
  8
0
  6
Continuous
100
AcDbLine
 10
287.84998
 20
-31.47358700000001
 30
0.0
 11
287.84998
 21
30.544769
 31
0.0
  0
LINE
  5
1AAF
330
D1
100
AcDbEntity
  8
0
  6
Continuous
100
AcDbLine
 10
290.2521999999999
 20
25.39999399999999
 30
0.0
 11
290.2521999999999
 21
-25.39999399999999
 31
0.0
  0
LINE
  5
1AB0
330
D1
100
AcDbEntity
  8
0
  6
Continuous
100
AcDbLine
 10
285.0
 20
32.0
 30
0.0
 11
285.0
 21
-32.0
 31
0.0
  0
LINE
  5
1AB1
330
D1
100
AcDbEntity
  8
0
  6
Continuous
100
AcDbLine
 10
382.0698299999999
 20
-52.25956700000001
 30
0.0
 11
349.860336
 21
-51.13478499999999
 31
0.0
  0
LINE
  5
1AB2
330
D1
100
AcDbEntity
  8
0
  6
Continuous
100
AcDbLine
 10
384.0
 20
-54.258362
 30
0.0
 11
384.0
 21
-54.84530599999999
 31
0.0
  0
LINE
  5
1AB3
330
D1
100
AcDbEntity
  8
0
  6
Continuous
100
AcDbLine
 10
388.0000600000001
 20
-58.309429
 30
0.0
 11
384.999998
 21
-56.57734300000001
 31
0.0
  0
LINE
  5
1AB4
330
D1
100
AcDbEntity
  8
0
  6
Continuous
100
AcDbLine
 10
388.5
 20
-59.17543000000001
 30
0.0
 11
388.5
 21
-62.365265
 31
0.0
  0
LINE
  5
1AB5
330
D1
100
AcDbEntity
  8
0
  6
Continuous
100
AcDbLine
 10
307.5
 20
-46.0
 30
0.0
 11
325.5
 21
-46.0
 31
0.0
  0
LINE
  5
1AB8
330
D1
100
AcDbEntity
  8
0
  6
Continuous
100
AcDbLine
 10
416.0
 20
-52.32701099999999
 30
0.0
 11
384.0
 21
-52.32701099999999
 31
0.0
  0
LINE
  5
1ABA
330
D1
100
AcDbEntity
  8
0
  6
Continuous
100
AcDbLine
 10
390.5
 20
-80.0
 30
0.0
 11
409.4999999999999
 21
-80.0
 31
0.0
  0
LINE
  5
1ABB
330
D1
100
AcDbEntity
  8
0
  6
Continuous
100
AcDbLine
 10
385.5
 20
-63.0
 30
0.0
 11
414.5096439999999
 21
-63.0
 31
0.0
  0
LINE
  5
1ABC
330
D1
100
AcDbEntity
  8
0
  6
Continuous
100
AcDbLine
 10
346.0
 20
43.49996900000002
 30
0.0
 11
346.0
 21
-47.13725299999999
 31
0.0
  0
LINE
  5
1ABD
330
D1
100
AcDbEntity
  8
0
  6
Continuous
100
AcDbLine
 10
419.0
 20
64.99998499999998
 30
0.0
 11
419.0
 21
62.49996899999996
 31
0.0
  0
LINE
  5
1ABE
330
D1
100
AcDbEntity
  8
0
  6
Continuous
100
AcDbLine
 10
381.0
 20
65.0
 30
0.0
 11
419.0
 21
65.0
 31
0.0
  0
LINE
  5
1ABF
330
D1
100
AcDbEntity
  8
0
  6
Continuous
100
AcDbLine
 10
381.0
 20
64.99998499999998
 30
0.0
 11
381.0
 21
62.49996899999996
 31
0.0
  0
LINE
  5
1AC2
330
D1
100
AcDbEntity
  8
0
  6
Continuous
100
AcDbLine
 10
401.8609618999999
 20
-66.0
 30
0.0
 11
401.8609618999999
 21
-72.0
 31
0.0
  0
LINE
  5
1AC3
330
D1
100
AcDbEntity
  8
0
  6
Continuous
100
AcDbLine
 10
398.1390381000001
 20
-66.0
 30
0.0
 11
398.1390381000001
 21
-72.0
 31
0.0
  0
LINE
  5
1AC4
330
D1
100
AcDbEntity
  8
0
  6
Continuous
100
AcDbLine
 10
414.139038
 20
-66.0
 30
0.0
 11
414.139038
 21
-72.0
 31
0.0
  0
LINE
  5
1AC7
330
D1
100
AcDbEntity
  8
0
  6
Continuous
100
AcDbLine
 10
416.0
 20
-63.40192400000001
 30
0.0
 11
416.0
 21
-76.66368900000001
 31
0.0
  0
LINE
  5
1AC8
330
D1
100
AcDbEntity
  8
0
  6
Continuous
100
AcDbLine
 10
384.0
 20
-63.401928
 30
0.0
 11
384.0
 21
-76.66368099999999
 31
0.0
  0
LINE
  5
1AC9
330
D1
100
AcDbEntity
  8
0
  6
Continuous
100
AcDbLine
 10
385.860962
 20
-66.0
 30
0.0
 11
385.860962
 21
-72.0
 31
0.0
  0
LINE
  5
1ACE
330
D1
100
AcDbEntity
  8
0
  6
Continuous
100
AcDbLine
 10
467.4999999999999
 20
62.49996899999996
 30
0.0
 11
467.4999999999999
 21
43.49996900000002
 31
0.0
  0
LINE
  5
1AD0
330
D1
100
AcDbEntity
  8
0
  6
Continuous
100
AcDbLine
 10
467.4999999999999
 20
62.49996899999996
 30
0.0
 11
332.5
 21
62.49996899999996
 31
0.0
  0
LINE
  5
1AD1
330
D1
100
AcDbEntity
  8
0
  6
Continuous
100
AcDbLine
 10
467.4999999999999
 20
43.49996900000002
 30
0.0
 11
414.9583640000001
 21
43.49996900000002
 31
0.0
  0
LINE
  5
1AF4
330
D1
100
AcDbEntity
  8
0
  6
Continuous
100
AcDbLine
 10
385.0416359999999
 20
43.49996900000002
 30
0.0
 11
332.5
 21
43.49996900000002
 31
0.0
  0
LINE
  5
1AF5
330
D1
100
AcDbEntity
  8
0
  6
Continuous
100
AcDbLine
 10
403.4998890999999
 20
43.49996900000002
 30
0.0
 11
396.5
 21
43.49996900000002
 31
0.0
  0
LINE
  5
1AFC
330
D1
100
AcDbEntity
  8
0
  6
Continuous
100
AcDbLine
 10
384.5
 20
79.0
 30
0.0
 11
384.5
 21
77.0
 31
0.0
  0
LINE
  5
1AFD
330
D1
100
AcDbEntity
  8
0
  6
Continuous
100
AcDbLine
 10
415.5
 20
79.0
 30
0.0
 11
415.5
 21
77.0
 31
0.0
  0
LINE
  5
1B00
330
D1
100
AcDbEntity
  8
0
  6
Continuous
100
AcDbLine
 10
385.25
 20
109.0
 30
0.0
 11
385.25
 21
81.0
 31
0.0
  0
LINE
  5
1B01
330
D1
100
AcDbEntity
  8
0
  6
Continuous
100
AcDbLine
 10
414.7499999999999
 20
109.0
 30
0.0
 11
414.7499999999999
 21
81.0
 31
0.0
  0
LINE
  5
1B02
330
D1
100
AcDbEntity
  8
0
  6
Continuous
100
AcDbLine
 10
367.5
 20
111.0
 30
0.0
 11
432.5
 21
111.0
 31
0.0
  0
LINE
  5
1B05
330
D1
100
AcDbEntity
  8
0
  6
Continuous
100
AcDbLine
 10
416.0883289999999
 20
109.0
 30
0.0
 11
416.0883289999999
 21
111.0
 31
0.0
  0
LINE
  5
1B06
330
D1
100
AcDbEntity
  8
0
  6
Continuous
100
AcDbLine
 10
431.4883309999999
 20
109.0
 30
0.0
 11
431.4883309999999
 21
111.0
 31
0.0
  0
LINE
  5
1B09
330
D1
100
AcDbEntity
  8
0
  6
Continuous
100
AcDbLine
 10
368.5117909999999
 20
109.0
 30
0.0
 11
368.5117909999999
 21
111.0
 31
0.0
  0
LINE
  5
1B0A
330
D1
100
AcDbEntity
  8
0
  6
Continuous
100
AcDbLine
 10
416.0883289999999
 20
109.0
 30
0.0
 11
431.4883309999999
 21
109.0
 31
0.0
  0
LINE
  5
1B0B
330
D1
100
AcDbEntity
  8
0
  6
Continuous
100
AcDbLine
 10
418.1543559999999
 20
101.0
 30
0.0
 11
429.4223039999999
 21
101.0
 31
0.0
  0
LINE
  5
1B0C
330
D1
100
AcDbEntity
  8
0
  6
Continuous
100
AcDbLine
 10
417.28833
 20
101.5
 30
0.0
 11
417.28833
 21
109.0
 31
0.0
  0
LINE
  5
1B0D
330
D1
100
AcDbEntity
  8
0
  6
Continuous
100
AcDbLine
 10
430.2883300000001
 20
101.5
 30
0.0
 11
430.2883300000001
 21
109.0
 31
0.0
  0
LINE
  5
1B0E
330
D1
100
AcDbEntity
  8
0
  6
Continuous
100
AcDbLine
 10
417.28833
 20
107.75
 30
0.0
 11
430.2883300000001
 21
107.75
 31
0.0
  0
LINE
  5
1B0F
330
D1
100
AcDbEntity
  8
0
  6
Continuous
100
AcDbLine
 10
417.28833
 20
101.5
 30
0.0
 11
430.2883300000001
 21
101.5
 31
0.0
  0
LINE
  5
1B10
330
D1
100
AcDbEntity
  8
0
  6
Continuous
100
AcDbLine
 10
418.1543539999999
 20
101.0
 30
0.0
 11
417.28833
 21
101.5
 31
0.0
  0
LINE
  5
1B11
330
D1
100
AcDbEntity
  8
0
  6
Continuous
100
AcDbLine
 10
429.4223119999998
 20
101.0
 30
0.0
 11
430.288336
 21
101.5
 31
0.0
  0
LINE
  5
1B1D
330
D1
100
AcDbEntity
  8
0
  6
Continuous
100
AcDbLine
 10
381.8457639999999
 20
101.0
 30
0.0
 11
382.7117900000001
 21
101.5
 31
0.0
  0
LINE
  5
1B1E
330
D1
100
AcDbEntity
  8
0
  6
Continuous
100
AcDbLine
 10
370.577812
 20
101.0
 30
0.0
 11
369.7117860000001
 21
101.5
 31
0.0
  0
LINE
  5
1B1F
330
D1
100
AcDbEntity
  8
0
  6
Continuous
100
AcDbLine
 10
369.7117920000001
 20
101.5
 30
0.0
 11
382.711792
 21
101.5
 31
0.0
  0
LINE
  5
1B20
330
D1
100
AcDbEntity
  8
0
  6
Continuous
100
AcDbLine
 10
369.7117920000001
 20
107.75
 30
0.0
 11
382.711792
 21
107.75
 31
0.0
  0
LINE
  5
1B26
330
D1
100
AcDbEntity
  8
0
  6
Continuous
100
AcDbLine
 10
384.3875049999999
 20
76.0
 30
0.0
 11
384.3875049999999
 21
70.43830100000002
 31
0.0
  0
LINE
  5
1B2D
330
D1
100
AcDbEntity
  8
0
  6
Continuous
100
AcDbLine
 10
382.711792
 20
101.5
 30
0.0
 11
382.711792
 21
109.0
 31
0.0
  0
LINE
  5
1B2E
330
D1
100
AcDbEntity
  8
0
  6
Continuous
100
AcDbLine
 10
369.7117920000001
 20
101.5
 30
0.0
 11
369.7117920000001
 21
109.0
 31
0.0
  0
LINE
  5
1B2F
330
D1
100
AcDbEntity
  8
0
  6
Continuous
100
AcDbLine
 10
370.577818
 20
101.0
 30
0.0
 11
381.8457659999999
 21
101.0
 31
0.0
  0
LINE
  5
1B30
330
D1
100
AcDbEntity
  8
0
  6
Continuous
100
AcDbLine
 10
418.708286
 20
101.0
 30
0.0
 11
418.708286
 21
77.40000199999997
 31
0.0
  0
LINE
  5
1B32
330
D1
100
AcDbEntity
  8
0
  6
Continuous
100
AcDbLine
 10
385.69091
 20
77.0
 30
0.0
 11
384.3875049999999
 21
76.0
 31
0.0
  0
LINE
  5
1B35
330
D1
100
AcDbEntity
  8
0
  6
Continuous
100
AcDbLine
 10
372.5
 20
101.0
 30
0.0
 11
372.5
 21
81.93666100000001
 31
0.0
  0
LINE
  5
1B37
330
D1
100
AcDbEntity
  8
0
  6
Continuous
100
AcDbLine
 10
415.612495
 20
76.0
 30
0.0
 11
415.612495
 21
70.43830100000002
 31
0.0
  0
LINE
  5
1B39
330
D1
100
AcDbEntity
  8
0
  6
Continuous
100
AcDbLine
 10
414.3090899999999
 20
77.0
 30
0.0
 11
415.612495
 21
76.0
 31
0.0
  0
LINE
  5
1B3A
330
D1
100
AcDbEntity
  8
0
  6
Continuous
100
AcDbLine
 10
373.1021399999999
 20
78.70000500000003
 30
0.0
 11
374.835644
 21
78.70000500000003
 31
0.0
  0
LINE
  5
1B3D
330
D1
100
AcDbEntity
  8
0
  6
Continuous
100
AcDbLine
 10
378.328608
 20
74.56428499999998
 30
0.0
 11
379.999998
 21
73.49468200000001
 31
0.0
  0
LINE
  5
1B3F
330
D1
100
AcDbEntity
  8
0
  6
Continuous
100
AcDbLine
 10
385.0
 20
81.0
 30
0.0
 11
415.0
 21
81.0
 31
0.0
  0
LINE
  5
1B40
330
D1
100
AcDbEntity
  8
0
  6
Continuous
100
AcDbLine
 10
374.0
 20
77.95000500000003
 30
0.0
 11
375.197927
 21
77.95000500000003
 31
0.0
  0
LINE
  5
1B41
330
D1
100
AcDbEntity
  8
0
  6
Continuous
100
AcDbLine
 10
378.7000009999999
 20
74.32662199999999
 30
0.0
 11
378.7000009999999
 21
69.09999800000003
 31
0.0
  0
LINE
  5
1B42
330
D1
100
AcDbEntity
  8
0
  6
Continuous
100
AcDbLine
 10
373.7000009999999
 20
77.43038899999999
 30
0.0
 11
373.7000009999999
 21
69.96961999999996
 31
0.0
  0
LINE
  5
1B43
330
D1
100
AcDbEntity
  8
0
  6
Continuous
100
AcDbLine
 10
374.0
 20
69.45000500000003
 30
0.0
 11
378.7000009999999
 21
69.45000500000003
 31
0.0
  0
LINE
  5
1B44
330
D1
100
AcDbEntity
  8
0
  6
Continuous
100
AcDbLine
 10
378.7000009999999
 20
69.09999800000003
 30
0.0
 11
380.0
 21
69.09999800000003
 31
0.0
  0
LINE
  5
1B45
330
D1
100
AcDbEntity
  8
0
  6
Continuous
100
AcDbLine
 10
378.0
 20
74.78418699999997
 30
0.0
 11
378.0
 21
69.45000500000003
 31
0.0
  0
LINE
  5
1B46
330
D1
100
AcDbEntity
  8
0
  6
Continuous
100
AcDbLine
 10
374.0
 20
77.95000500000003
 30
0.0
 11
374.0
 21
69.45000500000003
 31
0.0
  0
LINE
  5
1B47
330
D1
100
AcDbEntity
  8
0
  6
Continuous
100
AcDbLine
 10
374.0
 20
69.449997
 30
0.0
 11
373.7000009999999
 21
69.96961199999998
 31
0.0
  0
LINE
  5
1B49
330
D1
100
AcDbEntity
  8
0
  6
Continuous
100
AcDbLine
 10
373.7000009999999
 20
77.43038899999999
 30
0.0
 11
374.0
 21
77.94999699999999
 31
0.0
  0
LINE
  5
1B52
330
D1
100
AcDbEntity
  8
0
  6
Continuous
100
AcDbLine
 10
367.5
 20
115.0
 30
0.0
 11
432.5
 21
115.0
 31
0.0
  0
LINE
  5
1B53
330
D1
100
AcDbEntity
  8
0
  6
Continuous
100
AcDbLine
 10
380.0
 20
73.49468200000001
 30
0.0
 11
380.0
 21
66.0
 31
0.0
  0
LINE
  5
1B54
330
D1
100
AcDbEntity
  8
0
  6
Continuous
100
AcDbLine
 10
381.7747420000001
 20
77.0
 30
0.0
 11
418.2252579999999
 21
77.0
 31
0.0
  0
LINE
  5
1B55
330
D1
100
AcDbEntity
  8
0
  6
Continuous
100
AcDbLine
 10
420.0
 20
70.43830100000002
 30
0.0
 11
420.0
 21
66.0
 31
0.0
  0
LINE
  5
1B56
330
D1
100
AcDbEntity
  8
0
  6
Continuous
100
AcDbLine
 10
432.5
 20
115.0
 30
0.0
 11
432.5
 21
111.0
 31
0.0
  0
LINE
  5
1B57
330
D1
100
AcDbEntity
  8
0
  6
Continuous
100
AcDbLine
 10
367.5
 20
115.0
 30
0.0
 11
367.5
 21
111.0
 31
0.0
  0
LINE
  5
1B5A
330
D1
100
AcDbEntity
  8
0
  6
Continuous
100
AcDbLine
 10
368.5117909999999
 20
109.0
 30
0.0
 11
383.911793
 21
109.0
 31
0.0
  0
LINE
  5
1B5B
330
D1
100
AcDbEntity
  8
0
  6
Continuous
100
AcDbLine
 10
383.911793
 20
109.0
 30
0.0
 11
383.911793
 21
111.0
 31
0.0
  0
LINE
  5
1B5D
330
D1
100
AcDbEntity
  8
0
  6
Continuous
100
AcDbLine
 10
384.5
 20
79.0
 30
0.0
 11
415.5
 21
79.0
 31
0.0
  0
LINE
  5
1B5F
330
D1
100
AcDbEntity
  8
0
  6
Continuous
100
AcDbLine
 10
381.291714
 20
101.0
 30
0.0
 11
381.291714
 21
77.40000199999997
 31
0.0
  0
LINE
  5
1B60
330
D1
100
AcDbEntity
  8
0
  6
Continuous
100
AcDbLine
 10
427.5
 20
101.0
 30
0.0
 11
427.5
 21
81.93666100000001
 31
0.0
  0
LINE
  5
1B62
330
D1
100
AcDbEntity
  8
0
  6
Continuous
100
AcDbLine
 10
384.3875049999999
 20
76.0
 30
0.0
 11
415.612495
 21
76.0
 31
0.0
  0
LINE
  5
1B64
330
D1
100
AcDbEntity
  8
0
  6
Continuous
100
AcDbLine
 10
421.279272
 20
72.89575200000001
 30
0.0
 11
423.662188
 21
74.56428499999998
 31
0.0
  0
LINE
  5
1B67
330
D1
100
AcDbEntity
  8
0
  6
Continuous
100
AcDbLine
 10
415.0
 20
81.0
 30
0.0
 11
415.0
 21
79.0
 31
0.0
  0
LINE
  5
1B68
330
D1
100
AcDbEntity
  8
0
  6
Continuous
100
AcDbLine
 10
385.0
 20
81.0
 30
0.0
 11
385.0
 21
79.0
 31
0.0
  0
LINE
  5
1B69
330
D1
100
AcDbEntity
  8
0
  6
Continuous
100
AcDbLine
 10
419.000002
 20
65.0
 30
0.0
 11
420.0
 21
66.0
 31
0.0
  0
LINE
  5
1B6B
330
D1
100
AcDbEntity
  8
0
  6
Continuous
100
AcDbLine
 10
380.0
 20
66.0
 30
0.0
 11
380.999998
 21
65.0
 31
0.0
  0
ARC
  5
1BA6
330
D1
100
AcDbEntity
  8
0
  6
Continuous
100
AcDbCircle
 10
414.5
 20
-66.0
 30
0.0
 40
3.0
100
AcDbArc
 50
59.99999700000479
 51
90.0
  0
ARC
  5
1BA7
330
D1
100
AcDbEntity
  8
0
  6
Continuous
100
AcDbCircle
 10
390.5
 20
-72.0
 30
0.0
 40
8.0
100
AcDbArc
 50
215.6590100000018
 51
270.000010000001
  0
ARC
  5
1BA8
330
D1
100
AcDbEntity
  8
0
  6
Continuous
100
AcDbCircle
 10
400.0
 20
0.0
 30
0.0
 40
46.0
100
AcDbArc
 50
334.3637400000001
 51
85.63637899999365
  0
ARC
  5
1BA9
330
D1
100
AcDbEntity
  8
0
  6
Continuous
100
AcDbCircle
 10
450.0
 20
-47.13720699999998
 30
0.0
 40
4.0
100
AcDbArc
 50
272.000070000002
 51
0.0000546415133601
  0
ARC
  5
1BAA
330
D1
100
AcDbEntity
  8
0
  6
Continuous
100
AcDbCircle
 10
414.0
 20
-54.845291
 30
0.0
 40
2.0
100
AcDbArc
 50
300.0000900000034
 51
0.0
  0
ARC
  5
1BAB
330
D1
100
AcDbEntity
  8
0
  6
Continuous
100
AcDbCircle
 10
412.5
 20
-59.17541499999998
 30
0.0
 40
1.0
100
AcDbArc
 50
120.0000900000034
 51
180.0
  0
ARC
  5
1BAC
330
D1
100
AcDbEntity
  8
0
  6
Continuous
100
AcDbCircle
 10
418.0
 20
-54.25834700000002
 30
0.0
 40
2.0
100
AcDbArc
 50
92.00006500000396
 51
180.0001099999996
  0
ARC
  5
1BAD
330
D1
100
AcDbEntity
  8
0
  6
Continuous
100
AcDbCircle
 10
412.5
 20
-62.36525
 30
0.0
 40
1.0
100
AcDbArc
 50
180.0
 51
219.4003699999969
  0
ARC
  5
1BB4
330
D1
100
AcDbEntity
  8
0
  6
Continuous
100
AcDbCircle
 10
287.28979
 20
31.20001200000002
 30
0.0
 40
0.8000000099999999
100
AcDbArc
 50
20.00002899999736
 51
90.0
  0
ARC
  5
1BB5
330
D1
100
AcDbEntity
  8
0
  6
Continuous
100
AcDbCircle
 10
291.6525899999999
 20
27.39999399999999
 30
0.0
 40
2.0
100
AcDbArc
 50
199.9999800000027
 51
270.0
  0
ARC
  5
1BB8
330
D1
100
AcDbEntity
  8
0
  6
Continuous
100
AcDbCircle
 10
291.6525899999999
 20
-27.39999399999999
 30
0.0
 40
2.0
100
AcDbArc
 50
90.0
 51
160.0000199999973
  0
ARC
  5
1BB9
330
D1
100
AcDbEntity
  8
0
  6
Continuous
100
AcDbCircle
 10
287.28979
 20
-31.199997
 30
0.0
 40
0.8000000099999999
100
AcDbArc
 50
270.0
 51
339.9999699999999
  0
ARC
  5
1BBC
330
D1
100
AcDbEntity
  8
0
  6
Continuous
100
AcDbCircle
 10
400.0
 20
0.0
 30
0.0
 40
46.0
100
AcDbArc
 50
94.36367399999706
 51
205.6363099999971
  0
CIRCLE
  5
1BBD
330
D1
100
AcDbEntity
  8
0
  6
Continuous
100
AcDbCircle
 10
400.0
 20
0.0
 30
0.0
 40
23.899994
  0
CIRCLE
  5
1BBE
330
D1
100
AcDbEntity
  8
0
  6
Continuous
100
AcDbCircle
 10
400.0
 20
0.0
 30
0.0
 40
32.0
  0
ARC
  5
1BBF
330
D1
100
AcDbEntity
  8
0
  6
Continuous
100
AcDbCircle
 10
350.0
 20
-47.13725299999999
 30
0.0
 40
4.0
100
AcDbArc
 50
180.0
 51
267.9999900000005
  0
ARC
  5
1BC0
330
D1
100
AcDbEntity
  8
0
  6
Continuous
100
AcDbCircle
 10
386.0
 20
-54.84530599999999
 30
0.0
 40
2.0
100
AcDbArc
 50
180.0
 51
240.000010000007
  0
ARC
  5
1BC1
330
D1
100
AcDbEntity
  8
0
  6
Continuous
100
AcDbCircle
 10
387.5
 20
-59.17543000000001
 30
0.0
 40
1.0
100
AcDbArc
 50
0.0
 51
59.99996000000635
  0
ARC
  5
1BC2
330
D1
100
AcDbEntity
  8
0
  6
Continuous
100
AcDbCircle
 10
382.0
 20
-54.258362
 30
0.0
 40
2.0
100
AcDbArc
 50
0.0
 51
87.9999889999957
  0
ARC
  5
1BC3
330
D1
100
AcDbEntity
  8
0
  6
Continuous
100
AcDbCircle
 10
387.5
 20
-62.365265
 30
0.0
 40
1.0
100
AcDbArc
 50
320.5996600000047
 51
0.0
  0
ARC
  5
1BC6
330
D1
100
AcDbEntity
  8
0
  6
Continuous
100
AcDbCircle
 10
409.4999999999999
 20
-72.0
 30
0.0
 40
8.0
100
AcDbArc
 50
270.0
 51
324.3409199999957
  0
CIRCLE
  5
1BC7
330
D1
100
AcDbEntity
  8
0
  6
Continuous
100
AcDbCircle
 10
400.0
 20
0.0
 30
0.0
 40
36.0
  0
ARC
  5
1BC8
330
D1
100
AcDbEntity
  8
0
  6
Continuous
100
AcDbCircle
 10
400.0
 20
0.0
 30
0.0
 40
46.0
100
AcDbArc
 50
214.3636700000016
 51
325.6363399999973
  0
ARC
  5
1BCA
330
D1
100
AcDbEntity
  8
0
  6
Continuous
100
AcDbCircle
 10
385.5
 20
-66.0
 30
0.0
 40
3.0
100
AcDbArc
 50
90.0
 51
120.0001700000032
  0
ARC
  5
1BEE
330
D1
100
AcDbEntity
  8
0
  6
Continuous
100
AcDbCircle
 10
412.75
 20
109.0
 30
0.0
 40
2.0
100
AcDbArc
 50
0.0
 51
90.0
  0
ARC
  5
1BF0
330
D1
100
AcDbEntity
  8
0
  6
Continuous
100
AcDbCircle
 10
387.25
 20
109.0
 30
0.0
 40
2.0
100
AcDbArc
 50
90.0
 51
180.0
  0
ARC
  5
1BF2
330
D1
100
AcDbEntity
  8
0
  6
Continuous
100
AcDbCircle
 10
381.5
 20
81.93666100000001
 30
0.0
 40
9.0
100
AcDbArc
 50
180.0
 51
201.0774299999971
  0
ARC
  5
1BF7
330
D1
100
AcDbEntity
  8
0
  6
Continuous
100
AcDbCircle
 10
423.0
 20
70.43830100000002
 30
0.0
 40
3.0
100
AcDbArc
 50
124.9999799999948
 51
180.0
  0
ARC
  5
1BF8
330
D1
100
AcDbEntity
  8
0
  6
Continuous
100
AcDbCircle
 10
418.5
 20
81.93666100000001
 30
0.0
 40
9.0
100
AcDbArc
 50
304.9999999999974
 51
0.0
  0
ELLIPSE
  5
1C0D
330
D1
100
AcDbEntity
  8
0
  6
Continuous
100
AcDbEllipse
 10
392.0
 20
-72.0
 30
0.0
 11
-6.139007
 21
-0.0089439388
 31
0.0
210
0.0
220
0.0
230
1.0
 40
0.75967888
 41
6.2812675
 42
9.422860207179585
  0
ELLIPSE
  5
1C0E
330
D1
100
AcDbEntity
  8
0
  6
Continuous
100
AcDbEllipse
 10
408.0
 20
-72.0
 30
0.0
 11
6.139007
 21
-0.0089439388
 31
0.0
210
0.0
220
0.0
230
1.0
 40
0.75967888
 41
3.143510399999999
 42
6.285103092979586
  0
ELLIPSE
  5
1C0F
330
D1
100
AcDbEntity
  8
0
  6
Continuous
100
AcDbEllipse
 10
408.0
 20
-66.0
 30
0.0
 11
6.139013499999999
 21
0.0
 31
0.0
210
0.0
220
0.0
230
1.0
 40
0.4232067299999999
 41
6.283184599999999
 42
9.424778707179585
  0
ELLIPSE
  5
1C10
330
D1
100
AcDbEntity
  8
0
  6
Continuous
100
AcDbEllipse
 10
392.0
 20
-66.0
 30
0.0
 11
-6.139013499999999
 21
0.0000000000000142
 31
0.0
210
0.0
220
0.0
230
1.0
 40
0.4232067299999999
 41
3.141591899999999
 42
6.283186041316715
  0
ELLIPSE
  5
1C17
330
D1
100
AcDbEntity
  8
0
  6
Continuous
100
AcDbEllipse
 10
415.297058
 20
107.0
 30
0.0
 11
0.0
 21
3.999999899999999
 31
0.0
210
0.0
220
0.0
230
1.0
 40
0.8528071
 41
6.049092199999999
 42
6.283185307179586
  0
ELLIPSE
  5
1C18
330
D1
100
AcDbEntity
  8
0
  6
Continuous
100
AcDbEllipse
 10
418.2252579999999
 20
77.40000199999997
 30
0.0
 11
-0.48302394
 21
-0.0023656286
 31
0.0
210
0.0
220
0.0
230
0.9999999999999998
 40
0.82810641
 41
1.566740699999999
 42
3.135678599999999
  0
SPLINE
  5
1C1B
330
D1
100
AcDbEntity
  8
0
  6
Continuous
100
AcDbSpline
210
0.0
220
0.0
230
1.0
 70
     8
 71
     3
 72
    13
 73
     9
 74
     7
 42
0.0000000001
 43
0.0000000001
 44
0.00001
 12
0.3961836001156706
 22
-0.918171310268071
 32
0.0
 13
0.8422435502752508
 23
-0.5390972101761805
 33
0.0
 40
0.0
 40
0.0
 40
0.0
 40
0.0
 40
0.9157023021771285
 40
1.831688223122832
 40
2.747949869911874
 40
3.664041467104613
 40
4.580439679686724
 40
5.493995753725206
 40
5.493995753725206
 40
5.493995753725206
 40
5.493995753725206
 10
374.835644
 20
78.70000500000003
 30
0.0
 10
374.9565727449036
 20
78.41974780579821
 30
0.0
 10
375.2248581509621
 20
77.87010909829018
 30
0.0
 10
375.7031667353033
 20
77.08737302744609
 30
0.0
 10
376.2555120306235
 20
76.35456229481434
 30
0.0
 10
376.8808735540151
 20
75.68251116762022
 30
0.0
 10
377.573423165873
 20
75.08157776533114
 30
0.0
 10
378.0721300962754
 20
74.72845817695123
 30
0.0
 10
378.3286089999999
 20
74.56429300000002
 30
0.0
 11
374.835644
 21
78.70000500000003
 31
0.0
 11
375.237439
 21
77.87716
 31
0.0
 11
375.7154350000001
 21
77.09578299999998
 31
0.0
 11
376.267695
 21
76.36465699999996
 31
0.0
 11
376.892104
 21
75.69433000000003
 31
0.0
 11
377.58346
 21
75.09282100000001
 31
0.0
 11
378.3286089999999
 21
74.56429300000002
 31
0.0
  0
ELLIPSE
  5
1C1C
330
D1
100
AcDbEntity
  8
0
  6
Continuous
100
AcDbEllipse
 10
381.7747420000001
 20
77.40000199999997
 30
0.0
 11
0.48302394
 21
-0.0023656286
 31
0.0
210
0.0
220
0.0
230
0.9999999999999998
 40
0.82810641
 41
3.1475067
 42
4.716444599999999
  0
ELLIPSE
  5
1C1D
330
D1
100
AcDbEntity
  8
0
  6
Continuous
100
AcDbEllipse
 10
384.7029419999999
 20
107.0
 30
0.0
 11
0.0
 21
3.999999899999999
 31
0.0
210
0.0
220
0.0
230
1.0
 40
0.8528071
 41
6.283185299999999
 42
6.517241637179585
  0
POINT
  5
1C20
330
D1
100
AcDbEntity
  8
0
  6
Continuous
100
AcDbPoint
 10
0.0
 20
0.0
 30
0.0
  0
LINE
  5
1C21
330
D1
100
AcDbEntity
  8
0
  6
Continuous
100
AcDbLine
 10
111.9584
 20
31.47359800000004
 30
0.0
 11
110.22676
 21
26.71594600000003
 31
0.0
  0
LINE
  5
1C22
330
D1
100
AcDbEntity
  8
0
  6
Continuous
100
AcDbLine
 10
17.930206
 20
-52.25957500000004
 30
0.0
 11
50.13957600000003
 21
-51.13480000000004
 31
0.0
  0
LINE
  5
1C23
330
D1
100
AcDbEntity
  8
0
  6
Continuous
100
AcDbLine
 10
16.0
 20
-54.25836200000003
 30
0.0
 11
16.0
 21
-54.84530600000005
 31
0.0
  0
LINE
  5
1C24
330
D1
100
AcDbEntity
  8
0
  6
Continuous
100
AcDbLine
 10
11.99989499999992
 20
-58.30945599999996
 30
0.0
 11
15.00000999999997
 21
-56.57733900000005
 31
0.0
  0
LINE
  5
1C25
330
D1
100
AcDbEntity
  8
0
  6
Continuous
100
AcDbLine
 10
11.5
 20
-59.17543000000001
 30
0.0
 11
11.5
 21
-62.36526500000002
 31
0.0
  0
LINE
  5
1C26
330
D1
100
AcDbEntity
  8
0
  6
Continuous
100
AcDbLine
 10
17.5
 20
-72.0
 30
0.0
 11
17.5
 21
-66.0
 31
0.0
  0
LINE
  5
1C27
330
D1
100
AcDbEntity
  8
0
  6
Continuous
100
AcDbLine
 10
92.5
 20
-46.0
 30
0.0
 11
74.5
 21
-46.0
 31
0.0
  0
LINE
  5
1C2A
330
D1
100
AcDbEntity
  8
0
  6
Continuous
100
AcDbLine
 10
115.0
 20
32.0
 30
0.0
 11
112.7102099999999
 21
32.0
 31
0.0
  0
LINE
  5
1C2B
330
D1
100
AcDbEntity
  8
0
  6
Continuous
100
AcDbLine
 10
37.97167600000012
 20
-25.96440700000005
 30
0.0
 11
35.05602599999998
 21
-24.28105700000003
 31
0.0
  0
LINE
  5
1C2C
330
D1
100
AcDbEntity
  8
0
  6
Continuous
100
AcDbLine
 10
38.55602599999997
 20
-18.21888000000001
 30
0.0
 11
35.05602599999998
 21
-24.28105700000003
 31
0.0
  0
LINE
  5
1C2D
330
D1
100
AcDbEntity
  8
0
  6
Continuous
100
AcDbLine
 10
41.47167600000011
 20
-19.90222900000003
 30
0.0
 11
38.55602599999997
 21
-18.21888000000001
 31
0.0
  0
LINE
  5
1C2E
330
D1
100
AcDbEntity
  8
0
  6
Continuous
100
AcDbLine
 10
-12.00000999999997
 20
-58.30940599999997
 30
0.0
 11
-15.00001900000006
 21
-56.57735100000002
 31
0.0
  0
LINE
  5
1C2F
330
D1
100
AcDbEntity
  8
0
  6
Continuous
100
AcDbLine
 10
74.5
 20
-46.0
 30
0.0
 11
74.5
 21
46.0
 31
0.0
  0
LINE
  5
1C30
330
D1
100
AcDbEntity
  8
0
  6
Continuous
100
AcDbLine
 10
115.0
 20
-32.0
 30
0.0
 11
112.7102099999999
 21
-32.0
 31
0.0
  0
LINE
  5
1C31
330
D1
100
AcDbEntity
  8
0
  6
Continuous
100
AcDbLine
 10
111.9584500000001
 20
-31.47360400000002
 30
0.0
 11
110.2268100000001
 21
-26.71594800000003
 31
0.0
  0
LINE
  5
1C32
330
D1
100
AcDbEntity
  8
0
  6
Continuous
100
AcDbLine
 10
108.34741
 20
-25.39999399999999
 30
0.0
 11
92.5
 21
-25.39999399999999
 31
0.0
  0
LINE
  5
1C33
330
D1
100
AcDbEntity
  8
0
  6
Continuous
100
AcDbLine
 10
92.5
 20
46.0
 30
0.0
 11
92.5
 21
-46.0
 31
0.0
  0
LINE
  5
1C34
330
D1
100
AcDbEntity
  8
0
  6
Continuous
100
AcDbLine
 10
109.7478000000001
 20
25.39999399999999
 30
0.0
 11
109.7478000000001
 21
-25.39999399999999
 31
0.0
  0
LINE
  5
1C35
330
D1
100
AcDbEntity
  8
0
  6
Continuous
100
AcDbLine
 10
115.0
 20
32.0
 30
0.0
 11
115.0
 21
-32.0
 31
0.0
  0
LINE
  5
1C37
330
D1
100
AcDbEntity
  8
0
  6
Continuous
100
AcDbLine
 10
112.15002
 20
-31.47361000000001
 30
0.0
 11
112.15002
 21
30.54476899999997
 31
0.0
  0
LINE
  5
1C38
330
D1
100
AcDbEntity
  8
0
  6
Continuous
100
AcDbLine
 10
-54.0
 20
-47.13725299999999
 30
0.0
 11
-54.0
 21
43.5
 31
0.0
  0
LINE
  5
1C39
330
D1
100
AcDbEntity
  8
0
  6
Continuous
100
AcDbLine
 10
-16.0
 20
-52.32701099999997
 30
0.0
 11
16.0
 21
-52.32701099999997
 31
0.0
  0
LINE
  5
1C3A
330
D1
100
AcDbEntity
  8
0
  6
Continuous
100
AcDbLine
 10
14.5
 20
-63.0
 30
0.0
 11
-14.5
 21
-63.0
 31
0.0
  0
LINE
  5
1C3B
330
D1
100
AcDbEntity
  8
0
  6
Continuous
100
AcDbLine
 10
9.5
 20
-80.0
 30
0.0
 11
-9.5
 21
-80.0
 31
0.0
  0
LINE
  5
1C3D
330
D1
100
AcDbEntity
  8
0
  6
Continuous
100
AcDbLine
 10
54.0
 20
43.5
 30
0.0
 11
54.0
 21
-47.13725299999999
 31
0.0
  0
LINE
  5
1C3F
330
D1
100
AcDbEntity
  8
0
  6
Continuous
100
AcDbLine
 10
-10.31201200000009
 20
-66.0
 30
0.0
 11
-10.31201200000009
 21
-72.0
 31
0.0
  0
LINE
  5
1C40
330
D1
100
AcDbEntity
  8
0
  6
Continuous
100
AcDbLine
 10
-17.40075700000011
 20
-66.0
 30
0.0
 11
-17.40075700000011
 21
-72.0
 31
0.0
  0
LINE
  5
1C42
330
D1
100
AcDbEntity
  8
0
  6
Continuous
100
AcDbLine
 10
50.13952599999993
 20
-50.99999200000002
 30
0.0
 11
-50.13964800000008
 21
-50.99999200000002
 31
0.0
  0
LINE
  5
1C43
330
D1
100
AcDbEntity
  8
0
  6
Continuous
100
AcDbLine
 10
-11.5
 20
-59.17543000000001
 30
0.0
 11
-11.5
 21
-62.36526500000002
 31
0.0
  0
LINE
  5
1C44
330
D1
100
AcDbEntity
  8
0
  6
Continuous
100
AcDbLine
 10
-16.0
 20
-54.25836200000003
 30
0.0
 11
-16.0
 21
-54.84530600000005
 31
0.0
  0
LINE
  5
1C45
330
D1
100
AcDbEntity
  8
0
  6
Continuous
100
AcDbLine
 10
-17.5
 20
-72.0
 30
0.0
 11
-17.5
 21
-66.0
 31
0.0
  0
LINE
  5
1C46
330
D1
100
AcDbEntity
  8
0
  6
Continuous
100
AcDbLine
 10
-7.088745100000096
 20
-66.0
 30
0.0
 11
-7.088745100000096
 21
-72.0
 31
0.0
  0
LINE
  5
1C47
330
D1
100
AcDbEntity
  8
0
  6
Continuous
100
AcDbLine
 10
-108.34741
 20
25.39999399999999
 30
0.0
 11
-95.0
 21
25.39999399999999
 31
0.0
  0
LINE
  5
1C48
330
D1
100
AcDbEntity
  8
0
  6
Continuous
100
AcDbLine
 10
-3.5
 20
45.86666899999999
 30
0.0
 11
-3.5
 21
42.5
 31
0.0
  0
LINE
  5
1C49
330
D1
100
AcDbEntity
  8
0
  6
Continuous
100
AcDbLine
 10
-19.0
 20
64.99996899999996
 30
0.0
 11
-19.0
 21
62.5
 31
0.0
  0
LINE
  5
1C4A
330
D1
100
AcDbEntity
  8
0
  6
Continuous
100
AcDbLine
 10
-17.93028600000002
 20
-52.25958300000002
 30
0.0
 11
-50.13966000000005
 21
-51.13480400000003
 31
0.0
  0
LINE
  5
1C4B
330
D1
100
AcDbEntity
  8
0
  6
Continuous
100
AcDbLine
 10
-74.5
 20
-37.5
 30
0.0
 11
-54.00000000000001
 21
-37.5
 31
0.0
  0
LINE
  5
1C4C
330
D1
100
AcDbEntity
  8
0
  6
Continuous
100
AcDbLine
 10
-74.5
 20
37.5
 30
0.0
 11
-54.00000000000001
 21
37.5
 31
0.0
  0
LINE
  5
1C4D
330
D1
100
AcDbEntity
  8
0
  6
Continuous
100
AcDbLine
 10
-94.99994700000002
 20
25.399992
 30
0.0
 11
-94.19694499999991
 21
25.52308300000004
 31
0.0
  0
LINE
  5
1C4E
330
D1
100
AcDbEntity
  8
0
  6
Continuous
100
AcDbLine
 10
-94.99994700000002
 20
-25.40001099999995
 30
0.0
 11
-94.19695300000013
 21
-25.52310199999999
 31
0.0
  0
LINE
  5
1C4F
330
D1
100
AcDbEntity
  8
0
  6
Continuous
100
AcDbLine
 10
92.5
 20
-24.28108199999997
 30
0.0
 11
74.5
 21
-24.28108199999997
 31
0.0
  0
LINE
  5
1C50
330
D1
100
AcDbEntity
  8
0
  6
Continuous
100
AcDbLine
 10
92.5
 20
-25.96441700000003
 30
0.0
 11
74.5
 21
-25.96441700000003
 31
0.0
  0
LINE
  5
1C51
330
D1
100
AcDbEntity
  8
0
  6
Continuous
100
AcDbLine
 10
92.5
 20
-19.90222200000005
 30
0.0
 11
74.5
 21
-19.90222200000005
 31
0.0
  0
LINE
  5
1C52
330
D1
100
AcDbEntity
  8
0
  6
Continuous
100
AcDbLine
 10
-92.5
 20
-19.90222200000005
 30
0.0
 11
-74.5
 21
-19.90222200000005
 31
0.0
  0
LINE
  5
1C55
330
D1
100
AcDbEntity
  8
0
  6
Continuous
100
AcDbLine
 10
74.5
 20
37.5
 30
0.0
 11
54.00000000000001
 21
37.5
 31
0.0
  0
LINE
  5
1C56
330
D1
100
AcDbEntity
  8
0
  6
Continuous
100
AcDbLine
 10
74.5
 20
-37.5
 30
0.0
 11
54.00000000000001
 21
-37.5
 31
0.0
  0
LINE
  5
1C57
330
D1
100
AcDbEntity
  8
0
  6
Continuous
100
AcDbLine
 10
-115.0
 20
32.0
 30
0.0
 11
-112.7102099999999
 21
32.0
 31
0.0
  0
LINE
  5
1C58
330
D1
100
AcDbEntity
  8
0
  6
Continuous
100
AcDbLine
 10
19.0
 20
64.99996899999996
 30
0.0
 11
19.0
 21
62.5
 31
0.0
  0
LINE
  5
1C59
330
D1
100
AcDbEntity
  8
0
  6
Continuous
100
AcDbLine
 10
19.0
 20
64.99996899999996
 30
0.0
 11
-19.0
 21
64.99996899999996
 31
0.0
  0
LINE
  5
1C5A
330
D1
100
AcDbEntity
  8
0
  6
Continuous
100
AcDbLine
 10
-92.5
 20
-25.96441700000003
 30
0.0
 11
-74.5
 21
-25.96441700000003
 31
0.0
  0
LINE
  5
1C5B
330
D1
100
AcDbEntity
  8
0
  6
Continuous
100
AcDbLine
 10
-92.5
 20
-24.28108199999997
 30
0.0
 11
-74.5
 21
-24.28108199999997
 31
0.0
  0
LINE
  5
1C5C
330
D1
100
AcDbEntity
  8
0
  6
Continuous
100
AcDbLine
 10
-112.15002
 20
-31.47361000000001
 30
0.0
 11
-112.15002
 21
30.54476899999997
 31
0.0
  0
LINE
  5
1C5D
330
D1
100
AcDbEntity
  8
0
  6
Continuous
100
AcDbLine
 10
-3.5
 20
42.5
 30
0.0
 11
3.5
 21
42.5
 31
0.0
  0
LINE
  5
1C5E
330
D1
100
AcDbEntity
  8
0
  6
Continuous
100
AcDbLine
 10
-115.0
 20
32.0
 30
0.0
 11
-115.0
 21
-32.0
 31
0.0
  0
LINE
  5
1C5F
330
D1
100
AcDbEntity
  8
0
  6
Continuous
100
AcDbLine
 10
-109.7478000000001
 20
25.39999399999999
 30
0.0
 11
-109.7478000000001
 21
-25.39999399999999
 31
0.0
  0
LINE
  5
1C60
330
D1
100
AcDbEntity
  8
0
  6
Continuous
100
AcDbLine
 10
-92.5
 20
46.0
 30
0.0
 11
-92.5
 21
-46.0
 31
0.0
  0
LINE
  5
1C61
330
D1
100
AcDbEntity
  8
0
  6
Continuous
100
AcDbLine
 10
-108.34741
 20
-25.39999399999999
 30
0.0
 11
-95.0
 21
-25.39999399999999
 31
0.0
  0
LINE
  5
1C62
330
D1
100
AcDbEntity
  8
0
  6
Continuous
100
AcDbLine
 10
-111.9584399999999
 20
-31.47361799999999
 30
0.0
 11
-110.2267999999999
 21
-26.71596299999999
 31
0.0
  0
LINE
  5
1C63
330
D1
100
AcDbEntity
  8
0
  6
Continuous
100
AcDbLine
 10
-115.0
 20
-32.0
 30
0.0
 11
-112.7102099999999
 21
-32.0
 31
0.0
  0
LINE
  5
1C64
330
D1
100
AcDbEntity
  8
0
  6
Continuous
100
AcDbLine
 10
-74.5
 20
-46.0
 30
0.0
 11
-74.5
 21
46.0
 31
0.0
  0
LINE
  5
1C65
330
D1
100
AcDbEntity
  8
0
  6
Continuous
100
AcDbLine
 10
-41.47168400000009
 20
-19.90221199999996
 30
0.0
 11
-38.55603799999995
 21
-18.21886300000005
 31
0.0
  0
LINE
  5
1C66
330
D1
100
AcDbEntity
  8
0
  6
Continuous
100
AcDbLine
 10
-38.55603799999995
 20
-18.21886300000005
 30
0.0
 11
-35.05603799999994
 21
-24.28103999999996
 31
0.0
  0
LINE
  5
1C67
330
D1
100
AcDbEntity
  8
0
  6
Continuous
100
AcDbLine
 10
-37.9716840000001
 20
-25.96438999999998
 30
0.0
 11
-35.05603799999994
 21
-24.28103999999996
 31
0.0
  0
LINE
  5
1C68
330
D1
100
AcDbEntity
  8
0
  6
Continuous
100
AcDbLine
 10
-111.95839
 20
31.47361200000001
 30
0.0
 11
-110.22675
 21
26.71596099999999
 31
0.0
  0
LINE
  5
1C69
330
D1
100
AcDbEntity
  8
0
  6
Continuous
100
AcDbLine
 10
-92.5
 20
-46.0
 30
0.0
 11
-74.5
 21
-46.0
 31
0.0
  0
LINE
  5
1C6A
330
D1
100
AcDbEntity
  8
0
  6
Continuous
100
AcDbLine
 10
3.5
 20
45.86666899999999
 30
0.0
 11
3.5
 21
42.5
 31
0.0
  0
LINE
  5
1C6B
330
D1
100
AcDbEntity
  8
0
  6
Continuous
100
AcDbLine
 10
92.5
 20
46.0
 30
0.0
 11
74.5
 21
46.0
 31
0.0
  0
LINE
  5
1C6C
330
D1
100
AcDbEntity
  8
0
  6
Continuous
100
AcDbLine
 10
108.34741
 20
25.39999399999999
 30
0.0
 11
92.5
 21
25.39999399999999
 31
0.0
  0
LINE
  5
1C6F
330
D1
100
AcDbEntity
  8
0
  6
Continuous
100
AcDbLine
 10
7.088745100000096
 20
-66.0
 30
0.0
 11
7.088745100000096
 21
-72.0
 31
0.0
  0
LINE
  5
1C70
330
D1
100
AcDbEntity
  8
0
  6
Continuous
100
AcDbLine
 10
10.31201200000009
 20
-66.0
 30
0.0
 11
10.31201200000009
 21
-72.0
 31
0.0
  0
LINE
  5
1C71
330
D1
100
AcDbEntity
  8
0
  6
Continuous
100
AcDbLine
 10
17.40075700000011
 20
-66.0
 30
0.0
 11
17.40075700000011
 21
-72.0
 31
0.0
  0
LINE
  5
1C76
330
D1
100
AcDbEntity
  8
0
  6
Continuous
100
AcDbLine
 10
67.5
 20
62.5
 30
0.0
 11
67.5
 21
43.5
 31
0.0
  0
LINE
  5
1C78
330
D1
100
AcDbEntity
  8
0
  6
Continuous
100
AcDbLine
 10
67.5
 20
62.5
 30
0.0
 11
-67.49999999999997
 21
62.5
 31
0.0
  0
LINE
  5
1C79
330
D1
100
AcDbEntity
  8
0
  6
Continuous
100
AcDbLine
 10
67.5
 20
43.5
 30
0.0
 11
14.95827499999996
 21
43.5
 31
0.0
  0
LINE
  5
1CAD
330
D1
100
AcDbEntity
  8
0
  6
Continuous
100
AcDbLine
 10
-14.95827499999996
 20
43.5
 30
0.0
 11
-67.50000000000001
 21
43.5
 31
0.0
  0
LINE
  5
1CAE
330
D1
100
AcDbEntity
  8
0
  6
Continuous
100
AcDbLine
 10
3.5
 20
43.5
 30
0.0
 11
-3.5
 21
43.5
 31
0.0
  0
LINE
  5
1CB1
330
D1
100
AcDbEntity
  8
0
  6
Continuous
100
AcDbLine
 10
-31.4882090000001
 20
108.9999699999999
 30
0.0
 11
-16.08820700000001
 21
108.9999699999999
 31
0.0
  0
LINE
  5
1CB2
330
D1
100
AcDbEntity
  8
0
  6
Continuous
100
AcDbLine
 10
-29.42218200000002
 20
100.9999699999999
 30
0.0
 11
-18.15423400000009
 21
100.9999699999999
 31
0.0
  0
LINE
  5
1CB3
330
D1
100
AcDbEntity
  8
0
  6
Continuous
100
AcDbLine
 10
-30.28820799999994
 20
101.4999699999999
 30
0.0
 11
-30.28820799999994
 21
108.9999699999999
 31
0.0
  0
LINE
  5
1CB4
330
D1
100
AcDbEntity
  8
0
  6
Continuous
100
AcDbLine
 10
-17.28820799999994
 20
101.4999699999999
 30
0.0
 11
-17.28820799999994
 21
108.9999699999999
 31
0.0
  0
LINE
  5
1CB8
330
D1
100
AcDbEntity
  8
0
  6
Continuous
100
AcDbLine
 10
41.0
 20
78.99996899999996
 30
0.0
 11
41.0
 21
76.99996899999996
 31
0.0
  0
LINE
  5
1CBA
330
D1
100
AcDbEntity
  8
0
  6
Continuous
100
AcDbLine
 10
-15.37867899999992
 20
78.99996899999996
 30
0.0
 11
-15.37867899999992
 21
76.99996899999996
 31
0.0
  0
LINE
  5
1CBB
330
D1
100
AcDbEntity
  8
0
  6
Continuous
100
AcDbLine
 10
-17.5
 20
78.99996899999996
 30
0.0
 11
-17.5
 21
76.99996899999996
 31
0.0
  0
LINE
  5
1CC6
330
D1
100
AcDbEntity
  8
0
  6
Continuous
100
AcDbLine
 10
-30.28820799999994
 20
107.7499699999999
 30
0.0
 11
-17.28820799999994
 21
107.7499699999999
 31
0.0
  0
LINE
  5
1CC7
330
D1
100
AcDbEntity
  8
0
  6
Continuous
100
AcDbLine
 10
-30.28820799999994
 20
101.4999699999999
 30
0.0
 11
-17.28820799999994
 21
101.4999699999999
 31
0.0
  0
LINE
  5
1CC8
330
D1
100
AcDbEntity
  8
0
  6
Continuous
100
AcDbLine
 10
-29.42218600000001
 20
100.9999699999999
 30
0.0
 11
-30.28821199999993
 21
101.4999699999999
 31
0.0
  0
LINE
  5
1CC9
330
D1
100
AcDbEntity
  8
0
  6
Continuous
100
AcDbLine
 10
-18.15423600000008
 20
100.99998
 30
0.0
 11
-17.28821199999993
 21
101.49998
 31
0.0
  0
LINE
  5
1CD5
330
D1
100
AcDbEntity
  8
0
  6
Continuous
100
AcDbLine
 10
29.42230999999992
 20
100.9999699999999
 30
0.0
 11
30.28833600000008
 21
101.4999699999999
 31
0.0
  0
LINE
  5
1CD6
330
D1
100
AcDbEntity
  8
0
  6
Continuous
100
AcDbLine
 10
18.154356
 20
100.99998
 30
0.0
 11
17.28833000000008
 21
101.49998
 31
0.0
  0
LINE
  5
1CD7
330
D1
100
AcDbEntity
  8
0
  6
Continuous
100
AcDbLine
 10
17.28833000000008
 20
101.4999699999999
 30
0.0
 11
30.28833000000009
 21
101.4999699999999
 31
0.0
  0
LINE
  5
1CD8
330
D1
100
AcDbEntity
  8
0
  6
Continuous
100
AcDbLine
 10
17.28833000000008
 20
107.7499699999999
 30
0.0
 11
30.28833000000009
 21
107.7499699999999
 31
0.0
  0
LINE
  5
1CD9
330
D1
100
AcDbEntity
  8
0
  6
Continuous
100
AcDbLine
 10
16.08832899999993
 20
108.9999699999999
 30
0.0
 11
31.48833100000002
 21
108.9999699999999
 31
0.0
  0
LINE
  5
1CDA
330
D1
100
AcDbEntity
  8
0
  6
Continuous
100
AcDbLine
 10
-31.4882090000001
 20
108.9999699999999
 30
0.0
 11
-31.4882090000001
 21
110.9999699999999
 31
0.0
  0
LINE
  5
1CDB
330
D1
100
AcDbEntity
  8
0
  6
Continuous
100
AcDbLine
 10
-12.5
 20
106.9999699999999
 30
0.0
 11
-12.5
 21
71.99996899999996
 31
0.0
  0
LINE
  5
1CDD
330
D1
100
AcDbEntity
  8
0
  6
Continuous
100
AcDbLine
 10
-20.0
 20
65.99996899999997
 30
0.0
 11
-19.00000199999999
 21
64.99996899999996
 31
0.0
  0
LINE
  5
1CDF
330
D1
100
AcDbEntity
  8
0
  6
Continuous
100
AcDbLine
 10
-15.0
 20
80.99996899999997
 30
0.0
 11
-15.0
 21
78.99996899999996
 31
0.0
  0
LINE
  5
1CE0
330
D1
100
AcDbEntity
  8
0
  6
Continuous
100
AcDbLine
 10
-17.5
 20
78.99996899999996
 30
0.0
 11
-12.5
 21
78.99996899999996
 31
0.0
  0
LINE
  5
1CE1
330
D1
100
AcDbEntity
  8
0
  6
Continuous
100
AcDbLine
 10
-15.0
 20
80.99996899999997
 30
0.0
 11
-12.5
 21
80.99996899999997
 31
0.0
  0
LINE
  5
1CE2
330
D1
100
AcDbEntity
  8
0
  6
Continuous
100
AcDbLine
 10
12.5
 20
78.99996899999996
 30
0.0
 11
41.0
 21
78.99996899999996
 31
0.0
  0
LINE
  5
1CE3
330
D1
100
AcDbEntity
  8
0
  6
Continuous
100
AcDbLine
 10
15.0
 20
80.99996899999997
 30
0.0
 11
15.0
 21
78.99996899999996
 31
0.0
  0
LINE
  5
1CE4
330
D1
100
AcDbEntity
  8
0
  6
Continuous
100
AcDbLine
 10
12.5
 20
80.99996899999997
 30
0.0
 11
15.0
 21
80.99996899999997
 31
0.0
  0
LINE
  5
1CE6
330
D1
100
AcDbEntity
  8
0
  6
Continuous
100
AcDbLine
 10
31.48833100000002
 20
108.9999699999999
 30
0.0
 11
31.48833100000002
 21
110.9999699999999
 31
0.0
  0
LINE
  5
1CE9
330
D1
100
AcDbEntity
  8
0
  6
Continuous
100
AcDbLine
 10
18.154356
 20
100.9999699999999
 30
0.0
 11
29.42230399999994
 21
100.9999699999999
 31
0.0
  0
LINE
  5
1CEA
330
D1
100
AcDbEntity
  8
0
  6
Continuous
100
AcDbLine
 10
30.28833000000009
 20
101.4999699999999
 30
0.0
 11
30.28833000000009
 21
108.9999699999999
 31
0.0
  0
LINE
  5
1CEB
330
D1
100
AcDbEntity
  8
0
  6
Continuous
100
AcDbLine
 10
19.00000199999999
 20
64.99996899999996
 30
0.0
 11
20.0
 21
65.99996899999997
 31
0.0
  0
LINE
  5
1CF2
330
D1
100
AcDbEntity
  8
0
  6
Continuous
100
AcDbLine
 10
5.654700300000058
 20
71.69997399999999
 30
0.0
 11
3.34529950000001
 21
71.69997399999999
 31
0.0
  0
LINE
  5
1CF3
330
D1
100
AcDbEntity
  8
0
  6
Continuous
100
AcDbLine
 10
6.809399600000006
 20
73.69996600000002
 30
0.0
 11
5.654702199999974
 21
71.69997399999999
 31
0.0
  0
LINE
  5
1CF4
330
D1
100
AcDbEntity
  8
0
  6
Continuous
100
AcDbLine
 10
2.190601300000025
 20
73.69996600000002
 30
0.0
 11
3.345300700000052
 21
71.69996600000001
 31
0.0
  0
LINE
  5
1CF5
330
D1
100
AcDbEntity
  8
0
  6
Continuous
100
AcDbLine
 10
-0.5
 20
73.69997399999999
 30
0.0
 11
-0.5
 21
71.99996899999996
 31
0.0
  0
LINE
  5
1CF6
330
D1
100
AcDbEntity
  8
0
  6
Continuous
100
AcDbLine
 10
9.5
 20
73.69997399999999
 30
0.0
 11
9.5
 21
71.99996899999996
 31
0.0
  0
LINE
  5
1CF7
330
D1
100
AcDbEntity
  8
0
  6
Continuous
100
AcDbLine
 10
3.345296100000041
 20
75.69996600000002
 30
0.0
 11
2.190598700000009
 21
73.69997399999999
 31
0.0
  0
LINE
  5
1CF8
330
D1
100
AcDbEntity
  8
0
  6
Continuous
100
AcDbLine
 10
5.654703100000006
 20
75.69996600000002
 30
0.0
 11
6.809402500000032
 21
73.69996600000002
 31
0.0
  0
LINE
  5
1CFA
330
D1
100
AcDbEntity
  8
0
  6
Continuous
100
AcDbLine
 10
3.34529950000001
 20
75.699974
 30
0.0
 11
5.654700300000058
 21
75.699974
 31
0.0
  0
LINE
  5
1CFB
330
D1
100
AcDbEntity
  8
0
  6
Continuous
100
AcDbLine
 10
-19.00000199999999
 20
76.99996899999996
 30
0.0
 11
-20.000002
 21
75.99996899999997
 31
0.0
  0
LINE
  5
1CFC
330
D1
100
AcDbEntity
  8
0
  6
Continuous
100
AcDbLine
 10
-12.5
 20
76.99996899999996
 30
0.0
 11
-19.0
 21
76.99996899999996
 31
0.0
  0
LINE
  5
1CFD
330
D1
100
AcDbEntity
  8
0
  6
Continuous
100
AcDbLine
 10
19.00000199999999
 20
76.99996899999996
 30
0.0
 11
20.000002
 21
75.99996899999997
 31
0.0
  0
LINE
  5
1CFF
330
D1
100
AcDbEntity
  8
0
  6
Continuous
100
AcDbLine
 10
-32.5
 20
110.9999699999999
 30
0.0
 11
32.5
 21
110.9999699999999
 31
0.0
  0
LINE
  5
1D00
330
D1
100
AcDbEntity
  8
0
  6
Continuous
100
AcDbLine
 10
41.0
 20
76.99996899999996
 30
0.0
 11
12.5
 21
76.99996899999996
 31
0.0
  0
LINE
  5
1D01
330
D1
100
AcDbEntity
  8
0
  6
Continuous
100
AcDbLine
 10
12.5
 20
106.9999699999999
 30
0.0
 11
12.5
 21
71.99996899999996
 31
0.0
  0
LINE
  5
1D03
330
D1
100
AcDbEntity
  8
0
  6
Continuous
100
AcDbLine
 10
-20.0
 20
75.99996899999997
 30
0.0
 11
-20.0
 21
65.99996899999997
 31
0.0
  0
LINE
  5
1D05
330
D1
100
AcDbEntity
  8
0
  6
Continuous
100
AcDbLine
 10
16.08832899999993
 20
108.9999699999999
 30
0.0
 11
16.08832899999993
 21
110.9999699999999
 31
0.0
  0
LINE
  5
1D06
330
D1
100
AcDbEntity
  8
0
  6
Continuous
100
AcDbLine
 10
20.0
 20
75.99996899999997
 30
0.0
 11
20.0
 21
65.99996899999997
 31
0.0
  0
LINE
  5
1D07
330
D1
100
AcDbEntity
  8
0
  6
Continuous
100
AcDbLine
 10
-32.5
 20
114.9999699999999
 30
0.0
 11
-32.5
 21
110.9999699999999
 31
0.0
  0
LINE
  5
1D09
330
D1
100
AcDbEntity
  8
0
  6
Continuous
100
AcDbLine
 10
32.5
 20
114.9999699999999
 30
0.0
 11
32.5
 21
110.9999699999999
 31
0.0
  0
LINE
  5
1D0B
330
D1
100
AcDbEntity
  8
0
  6
Continuous
100
AcDbLine
 10
17.28833000000008
 20
101.4999699999999
 30
0.0
 11
17.28833000000008
 21
108.9999699999999
 31
0.0
  0
LINE
  5
1D0C
330
D1
100
AcDbEntity
  8
0
  6
Continuous
100
AcDbLine
 10
-16.08820700000001
 20
108.9999699999999
 30
0.0
 11
-16.08820700000001
 21
110.9999699999999
 31
0.0
  0
LINE
  5
1D0D
330
D1
100
AcDbEntity
  8
0
  6
Continuous
100
AcDbLine
 10
-14.75
 20
108.9999699999999
 30
0.0
 11
-14.75
 21
80.99996899999997
 31
0.0
  0
LINE
  5
1D0E
330
D1
100
AcDbEntity
  8
0
  6
Continuous
100
AcDbLine
 10
14.75
 20
108.9999699999999
 30
0.0
 11
14.75
 21
80.99996899999997
 31
0.0
  0
ARC
  5
1D87
330
D1
100
AcDbEntity
  8
0
  6
Continuous
100
AcDbCircle
 10
112.7102099999999
 20
31.20001200000002
 30
0.0
 40
0.8000000099999999
100
AcDbArc
 50
90.0
 51
159.9999699999968
  0
ARC
  5
1D88
330
D1
100
AcDbEntity
  8
0
  6
Continuous
100
AcDbCircle
 10
108.34741
 20
27.39999399999999
 30
0.0
 40
2.0
100
AcDbArc
 50
270.0
 51
340.0000200000004
  0
ARC
  5
1D8B
330
D1
100
AcDbEntity
  8
0
  6
Continuous
100
AcDbCircle
 10
108.34741
 20
-27.39999399999999
 30
0.0
 40
2.0
100
AcDbArc
 50
19.99997800000035
 51
90.0
  0
ARC
  5
1D8C
330
D1
100
AcDbEntity
  8
0
  6
Continuous
100
AcDbCircle
 10
112.7102099999999
 20
-31.19999699999994
 30
0.0
 40
0.8000000099999999
100
AcDbArc
 50
200.0000300000031
 51
270.0
  0
ARC
  5
1D8F
330
D1
100
AcDbEntity
  8
0
  6
Continuous
100
AcDbCircle
 10
0.0
 20
0.0
 30
0.0
 40
46.0
100
AcDbArc
 50
334.3636899999986
 51
85.63632399999994
  0
CIRCLE
  5
1D90
330
D1
100
AcDbEntity
  8
0
  6
Continuous
100
AcDbCircle
 10
0.0
 20
0.0
 30
0.0
 40
23.899994
  0
CIRCLE
  5
1D91
330
D1
100
AcDbEntity
  8
0
  6
Continuous
100
AcDbCircle
 10
0.0
 20
0.0
 30
0.0
 40
32.0
  0
ARC
  5
1D92
330
D1
100
AcDbEntity
  8
0
  6
Continuous
100
AcDbCircle
 10
-50.0
 20
-47.13725299999999
 30
0.0
 40
4.0
100
AcDbArc
 50
180.0
 51
267.9999900000004
  0
ARC
  5
1D93
330
D1
100
AcDbEntity
  8
0
  6
Continuous
100
AcDbCircle
 10
-12.5
 20
-62.36526500000002
 30
0.0
 40
1.0
100
AcDbArc
 50
314.9999600000001
 51
0.0
  0
ARC
  5
1D94
330
D1
100
AcDbEntity
  8
0
  6
Continuous
100
AcDbCircle
 10
-12.5
 20
-59.17543000000001
 30
0.0
 40
1.0
100
AcDbArc
 50
0.0
 51
59.99996000000635
  0
ARC
  5
1D95
330
D1
100
AcDbEntity
  8
0
  6
Continuous
100
AcDbCircle
 10
-18.0
 20
-54.25836200000003
 30
0.0
 40
2.0
100
AcDbArc
 50
0.0
 51
87.99998899999559
  0
ARC
  5
1D96
330
D1
100
AcDbEntity
  8
0
  6
Continuous
100
AcDbCircle
 10
-14.0
 20
-54.84530600000005
 30
0.0
 40
2.0
100
AcDbArc
 50
180.0
 51
240.0000100000054
  0
ARC
  5
1D97
330
D1
100
AcDbEntity
  8
0
  6
Continuous
100
AcDbCircle
 10
-14.5
 20
-66.0
 30
0.0
 40
3.0
100
AcDbArc
 50
90.0
 51
180.0
  0
ARC
  5
1D98
330
D1
100
AcDbEntity
  8
0
  6
Continuous
100
AcDbCircle
 10
-9.5
 20
-72.0
 30
0.0
 40
8.0
100
AcDbArc
 50
180.0
 51
270.000010000001
  0
ARC
  5
1D99
330
D1
100
AcDbEntity
  8
0
  6
Continuous
100
AcDbCircle
 10
50.0
 20
-47.13725299999999
 30
0.0
 40
4.0
100
AcDbArc
 50
272.0000099999996
 51
0.0
  0
ARC
  5
1D9A
330
D1
100
AcDbEntity
  8
0
  6
Continuous
100
AcDbCircle
 10
14.0
 20
-54.84530600000005
 30
0.0
 40
2.0
100
AcDbArc
 50
299.9999899999945
 51
0.0
  0
ARC
  5
1D9B
330
D1
100
AcDbEntity
  8
0
  6
Continuous
100
AcDbCircle
 10
12.5
 20
-59.17543000000001
 30
0.0
 40
1.0
100
AcDbArc
 50
120.0000399999936
 51
180.0
  0
ARC
  5
1D9C
330
D1
100
AcDbEntity
  8
0
  6
Continuous
100
AcDbCircle
 10
18.0
 20
-54.25836200000003
 30
0.0
 40
2.0
100
AcDbArc
 50
92.0000110000044
 51
180.0
  0
ARC
  5
1D9D
330
D1
100
AcDbEntity
  8
0
  6
Continuous
100
AcDbCircle
 10
12.5
 20
-62.36526500000002
 30
0.0
 40
1.0
100
AcDbArc
 50
180.0
 51
219.400339999994
  0
ARC
  5
1D9E
330
D1
100
AcDbEntity
  8
0
  6
Continuous
100
AcDbCircle
 10
14.5
 20
-66.0
 30
0.0
 40
3.0
100
AcDbArc
 50
0.0
 51
90.0
  0
ARC
  5
1DA1
330
D1
100
AcDbEntity
  8
0
  6
Continuous
100
AcDbCircle
 10
9.5
 20
-72.0
 30
0.0
 40
8.0
100
AcDbArc
 50
270.0
 51
0.0
  0
CIRCLE
  5
1DA2
330
D1
100
AcDbEntity
  8
0
  6
Continuous
100
AcDbCircle
 10
0.0
 20
0.0
 30
0.0
 40
36.0
  0
ARC
  5
1DA3
330
D1
100
AcDbEntity
  8
0
  6
Continuous
100
AcDbCircle
 10
0.0
 20
0.0
 30
0.0
 40
46.0
100
AcDbArc
 50
214.363669999999
 51
325.636330000001
  0
ARC
  5
1DA6
330
D1
100
AcDbEntity
  8
0
  6
Continuous
100
AcDbCircle
 10
0.0
 20
0.0
 30
0.0
 40
46.0
100
AcDbArc
 50
94.36367399999731
 51
205.6363100000015
  0
ARC
  5
1DA8
330
D1
100
AcDbEntity
  8
0
  6
Continuous
100
AcDbCircle
 10
-112.7102099999999
 20
-31.19999699999994
 30
0.0
 40
0.8000000099999999
100
AcDbArc
 50
270.0
 51
339.9999699999969
  0
ARC
  5
1DA9
330
D1
100
AcDbEntity
  8
0
  6
Continuous
100
AcDbCircle
 10
-108.34741
 20
-27.39999399999999
 30
0.0
 40
2.0
100
AcDbArc
 50
90.0
 51
160.0000200000003
  0
ARC
  5
1DAA
330
D1
100
AcDbEntity
  8
0
  6
Continuous
100
AcDbCircle
 10
-94.50000000000001
 20
-27.5
 30
0.0
 40
2.0
100
AcDbArc
 50
0.0
 51
81.28498699999544
  0
ARC
  5
1DAB
330
D1
100
AcDbEntity
  8
0
  6
Continuous
100
AcDbCircle
 10
-94.50000000000001
 20
27.5
 30
0.0
 40
2.0
100
AcDbArc
 50
278.7150099999971
 51
0.0
  0
ARC
  5
1DAC
330
D1
100
AcDbEntity
  8
0
  6
Continuous
100
AcDbCircle
 10
-108.34741
 20
27.39999399999999
 30
0.0
 40
2.0
100
AcDbArc
 50
199.9999799999996
 51
270.0
  0
ARC
  5
1DAD
330
D1
100
AcDbEntity
  8
0
  6
Continuous
100
AcDbCircle
 10
-112.7102099999999
 20
31.20001200000002
 30
0.0
 40
0.8000000099999999
100
AcDbArc
 50
20.00002899999736
 51
90.0
  0
ARC
  5
1DCC
330
D1
100
AcDbEntity
  8
0
  6
Continuous
100
AcDbCircle
 10
4.5
 20
73.69997399999999
 30
0.0
 40
5.0
100
AcDbArc
 50
0.0
 51
180.0
  0
CIRCLE
  5
1DCD
330
D1
100
AcDbEntity
  8
0
  6
Continuous
100
AcDbCircle
 10
4.5
 20
73.69997399999999
 30
0.0
 40
3.730384799999999
  0
CIRCLE
  5
1DCE
330
D1
100
AcDbEntity
  8
0
  6
Continuous
100
AcDbCircle
 10
4.5
 20
73.69997399999999
 30
0.0
 40
4.25
  0
ARC
  5
1DCF
330
D1
100
AcDbEntity
  8
0
  6
Continuous
100
AcDbCircle
 10
-16.5
 20
106.9999699999999
 30
0.0
 40
4.0
100
AcDbArc
 50
0.0
 51
90.0
  0
ARC
  5
1DD0
330
D1
100
AcDbEntity
  8
0
  6
Continuous
100
AcDbCircle
 10
16.5
 20
106.9999699999999
 30
0.0
 40
4.0
100
AcDbArc
 50
90.0
 51
180.0
  0
ARC
  5
1DD1
330
D1
100
AcDbEntity
  8
0
  6
Continuous
100
AcDbCircle
 10
12.75
 20
108.9999699999999
 30
0.0
 40
2.0
100
AcDbArc
 50
0.0
 51
41.03483799999838
  0
ARC
  5
1DD3
330
D1
100
AcDbEntity
  8
0
  6
Continuous
100
AcDbCircle
 10
-12.75
 20
108.9999699999999
 30
0.0
 40
2.0
100
AcDbArc
 50
138.9651600000011
 51
180.0
  0
ELLIPSE
  5
1DF7
330
D1
100
AcDbEntity
  8
0
  6
Continuous
100
AcDbEllipse
 10
-13.85644499999989
 20
-72.0
 30
0.0
 11
0.0
 21
-4.663686999999999
 31
0.0
210
0.0
220
0.0
230
1.0
 40
0.75999135
 41
4.712388999999999
 42
7.853981607179585
  0
ELLIPSE
  5
1DF8
330
D1
100
AcDbEntity
  8
0
  6
Continuous
100
AcDbEllipse
 10
-13.85644499999989
 20
-66.0
 30
0.0
 11
-3.544361799999999
 21
0.0
 31
0.0
210
0.0
220
0.0
230
1.0
 40
0.7330163200000001
 41
3.1415927
 42
6.283185299999999
  0
ELLIPSE
  5
1DF9
330
D1
100
AcDbEntity
  8
0
  6
Continuous
100
AcDbEllipse
 10
13.85644499999989
 20
-72.0
 30
0.0
 11
0.0
 21
-4.663686999999999
 31
0.0
210
0.0
220
0.0
230
1.0
 40
0.75999135
 41
4.712388999999999
 42
7.853981607179585
  0
ELLIPSE
  5
1DFA
330
D1
100
AcDbEntity
  8
0
  6
Continuous
100
AcDbEllipse
 10
13.85644499999989
 20
-66.0
 30
0.0
 11
3.544361799999999
 21
0.0
 31
0.0
210
0.0
220
0.0
230
1.0
 40
0.7330163200000001
 41
0.0
 42
3.1415927
  0
ELLIPSE
  5
1DFB
330
D1
100
AcDbEntity
  8
0
  6
Continuous
100
AcDbEllipse
 10
0.0
 20
-66.0
 30
0.0
 11
7.088723599999998
 21
0.0
 31
0.0
210
0.0
220
0.0
230
1.0
 40
0.36650816
 41
0.0
 42
3.1415927
  0
ELLIPSE
  5
1DFC
330
D1
100
AcDbEntity
  8
0
  6
Continuous
100
AcDbEllipse
 10
0.0
 20
-72.0
 30
0.0
 11
7.088723599999998
 21
0.0
 31
0.0
210
0.0
220
0.0
230
1.0
 40
0.65790222
 41
3.1415927
 42
6.283185299999999
  0
LINE
  5
1E31
330
D1
100
AcDbEntity
  8
0
  6
Continuous
100
AcDbLine
 10
-37.4999694824221
 20
453.8750815128254
 30
0.0
 11
-37.4999694824221
 21
435.5
 31
0.0
  0
LINE
  5
1E33
330
D1
100
AcDbEntity
  8
0
  6
Continuous
100
AcDbLine
 10
-25.39999348242214
 20
417.5
 30
0.0
 11
-25.39999348242214
 21
401.6525899999999
 31
0.0
  0
LINE
  5
1E4D
330
D1
100
AcDbEntity
  8
0
  6
Continuous
100
AcDbLine
 10
-45.9999694824221
 20
417.5
 30
0.0
 11
-45.9999694824221
 21
435.5
 31
0.0
  0
LINE
  5
1E56
330
D1
100
AcDbEntity
  8
0
  6
Continuous
100
AcDbLine
 10
46.0000305175779
 20
417.4999999999999
 30
0.0
 11
46.0000305175779
 21
435.5
 31
0.0
  0
LINE
  5
1E57
330
D1
100
AcDbEntity
  8
0
  6
Continuous
100
AcDbLine
 10
31.47363651757792
 20
398.0415700000001
 30
0.0
 11
26.7159905175779
 21
399.7732100000001
 31
0.0
  0
LINE
  5
1E58
330
D1
100
AcDbEntity
  8
0
  6
Continuous
100
AcDbLine
 10
32.0000305175779
 20
395.0
 30
0.0
 11
32.0000305175779
 21
397.28979
 31
0.0
  0
LINE
  5
1E59
330
D1
100
AcDbEntity
  8
0
  6
Continuous
100
AcDbLine
 10
-31.47357548242212
 20
398.0416000000001
 30
0.0
 11
-26.7159274824221
 21
399.7732400000001
 31
0.0
  0
LINE
  5
1E5A
330
D1
100
AcDbEntity
  8
0
  6
Continuous
100
AcDbLine
 10
-31.99996948242211
 20
395.0000000000001
 30
0.0
 11
-31.99996948242211
 21
397.2897900000001
 31
0.0
  0
LINE
  5
1E5B
330
D1
100
AcDbEntity
  8
0
  6
Continuous
100
AcDbLine
 10
32.0000305175779
 20
395.0
 30
0.0
 11
-31.99996948242211
 21
395.0000000000001
 31
0.0
  0
LINE
  5
1E5C
330
D1
100
AcDbEntity
  8
0
  6
Continuous
100
AcDbLine
 10
25.40005451757793
 20
417.4999999999999
 30
0.0
 11
25.40005451757793
 21
401.6525899999999
 31
0.0
  0
LINE
  5
1E5F
330
D1
100
AcDbEntity
  8
0
  6
Continuous
100
AcDbLine
 10
25.40005451757793
 20
400.2521999999999
 30
0.0
 11
-25.39999348242214
 21
400.2521999999999
 31
0.0
  0
LINE
  5
1E60
330
D1
100
AcDbEntity
  8
0
  6
Continuous
100
AcDbLine
 10
31.47366351757796
 20
397.84998
 30
0.0
 11
-31.47357548242212
 21
397.84998
 31
0.0
  0
LINE
  5
1E61
330
D1
100
AcDbEntity
  8
0
  6
Continuous
100
AcDbLine
 10
46.0000305175779
 20
417.4999999999999
 30
0.0
 11
-45.9999694824221
 21
417.5
 31
0.0
  0
LINE
  5
1E63
330
D1
100
AcDbEntity
  8
0
  6
Continuous
100
AcDbLine
 10
46.0000305175779
 20
435.5
 30
0.0
 11
-45.9999694824221
 21
435.5
 31
0.0
  0
ARC
  5
1EE5
330
D1
100
AcDbEntity
  8
0
  6
Continuous
100
AcDbCircle
 10
27.40005451757793
 20
401.6525899999999
 30
0.0
 40
2.0
100
AcDbArc
 50
180.0
 51
250.0000200000027
  0
ARC
  5
1EE6
330
D1
100
AcDbEntity
  8
0
  6
Continuous
100
AcDbCircle
 10
31.20004251757791
 20
397.28979
 30
0.0
 40
0.8000000099999999
100
AcDbArc
 50
0.0
 51
69.99996999999682
  0
ARC
  5
1EE7
330
D1
100
AcDbEntity
  8
0
  6
Continuous
100
AcDbCircle
 10
-31.19998148242212
 20
397.2897900000001
 30
0.0
 40
0.8000000099999999
100
AcDbArc
 50
110.0000290000056
 51
180.0
  0
ARC
  5
1EE8
330
D1
100
AcDbEntity
  8
0
  6
Continuous
100
AcDbCircle
 10
-27.39999348242213
 20
401.6525899999999
 30
0.0
 40
2.0
100
AcDbArc
 50
289.9999799999974
 51
0.0
  0
LINE
  5
2045
330
D1
100
AcDbEntity
  8
0
  6
CENTER
100
AcDbLine
 10
400.0
 20
-89.4883786293858
 30
0.0
 11
400.0
 21
312.2999770108027
 31
0.0
  0
LINE
  5
2046
330
D1
100
AcDbEntity
  8
0
  6
CENTER
100
AcDbLine
 10
272.1153851475506
 20
0.0
 30
0.0
 11
463.537517265509
 21
0.0
 31
0.0
  0
LINE
  5
2047
330
D1
100
AcDbEntity
  8
0
  6
CENTER
100
AcDbLine
 10
0.0
 20
-89.4883786293858
 30
0.0
 11
0.0
 21
312.2999770108027
 31
0.0
  0
LINE
  5
2048
330
D1
100
AcDbEntity
  8
0
  6
CENTER
100
AcDbLine
 10
-129.659862046303
 20
0.0
 30
0.0
 11
129.659862046303
 21
0.0
 31
0.0
  0
LINE
  5
2049
330
D1
100
AcDbEntity
  8
0
  6
CENTER
100
AcDbLine
 10
0.0
 20
375.2044057107662
 30
0.0
 11
0.0
 21
594.8163761821494
 31
0.0
  0
LINE
  5
204A
330
D1
100
AcDbEntity
  8
0
  6
CENTER
100
AcDbLine
 10
-131.2306170956794
 20
510.0
 30
0.0
 11
131.2306170956794
 21
510.0
 31
0.0
  0
TEXT
  5
204B
330
D1
100
AcDbEntity
  8
0
100
AcDbText
 10
-333.3333333333333
 20
659.1666666666666
 30
0.0
 40
50.0
  1
3BA__V08000 2S
 72
     4
 11
0.0
 21
680.0
 31
0.0
100
AcDbText
  0
LINE
  5
232B
330
D1
100
AcDbEntity
  8
0
  6
Continuous
100
AcDbLine
 10
-92.5
 20
46.0
 30
0.0
 11
-74.5
 21
46.0
 31
0.0
  0
LINE
  5
232C
330
D1
100
AcDbEntity
  8
0
  6
Continuous
100
AcDbLine
 10
-67.5
 20
62.5
 30
0.0
 11
-67.50000000000001
 21
43.5
 31
0.0
  0
LINE
  5
232D
330
D1
100
AcDbEntity
  8
0
  6
Continuous
100
AcDbLine
 10
332.5
 20
62.49996899999996
 30
0.0
 11
332.5
 21
43.49996900000002
 31
0.0
  0
LINE
  5
232E
330
D1
100
AcDbEntity
  8
0
  6
Continuous
100
AcDbLine
 10
-3.999969482422102
 20
417.4999999999999
 30
0.0
 11
-3.999969482422102
 21
435.5
 31
0.0
  0
LINE
  5
232F
330
D1
100
AcDbEntity
  8
0
  6
Continuous
100
AcDbLine
 10
4.000030517577897
 20
417.4999999999999
 30
0.0
 11
4.000030517577897
 21
435.5
 31
0.0
  0
LINE
  5
275E
330
D1
100
AcDbEntity
  8
0
  6
Continuous
100
AcDbLine
 10
37.4999694824221
 20
453.8750525740179
 30
0.0
 11
37.4999694824221
 21
435.5
 31
0.0
  0
LINE
  5
2B86
330
D1
100
AcDbEntity
  8
0
100
AcDbLine
 10
28.80941772460938
 20
513.9999389648437
 30
0.0
 11
24.19058227539063
 21
513.9999389648437
 31
0.0
  0
LINE
  5
2B87
330
D1
100
AcDbEntity
  8
0
100
AcDbLine
 10
-24.19061986062331
 20
505.9998626985145
 30
0.0
 11
-21.88120210492639
 21
509.9998915154897
 31
0.0
  0
LINE
  5
2B88
330
D1
100
AcDbEntity
  8
0
100
AcDbLine
 10
-28.80941772460938
 20
505.9998779296875
 30
0.0
 11
-24.19058227539063
 21
505.9998779296875
 31
0.0
  0
LINE
  5
2B89
330
D1
100
AcDbEntity
  8
0
100
AcDbLine
 10
28.80941772460938
 20
505.9998779296875
 30
0.0
 11
24.19058227539063
 21
505.9998779296875
 31
0.0
  0
LINE
  5
2B8A
330
D1
100
AcDbEntity
  8
0
100
AcDbLine
 10
31.11878507160941
 20
509.9998632685504
 30
0.0
 11
28.8093673159126
 21
505.9998344515752
 31
0.0
  0
LINE
  5
2B8B
330
D1
100
AcDbEntity
  8
0
100
AcDbLine
 10
21.88116081309954
 20
509.9998364127684
 30
0.0
 11
24.19057856879636
 21
513.9998652297435
 31
0.0
  0
LINE
  5
2B8C
330
D1
100
AcDbEntity
  8
0
100
AcDbLine
 10
31.11881981740771
 20
509.9999238779655
 30
0.0
 11
28.8094020617109
 21
513.9999526949407
 31
0.0
  0
LINE
  5
2B8D
330
D1
100
AcDbEntity
  8
0
100
AcDbLine
 10
-21.88128196384832
 20
509.9998118446269
 30
0.0
 11
-24.19069971954514
 21
513.9998406616021
 31
0.0
  0
LINE
  5
2B8E
330
D1
100
AcDbEntity
  8
0
100
AcDbLine
 10
-28.80941772460938
 20
513.9999389648437
 30
0.0
 11
-24.19058227539063
 21
513.9999389648437
 31
0.0
  0
LINE
  5
2B8F
330
D1
100
AcDbEntity
  8
0
100
AcDbLine
 10
24.19056376022388
 20
505.9998933065424
 30
0.0
 11
21.88114600452696
 21
509.9999221235175
 31
0.0
  0
CIRCLE
  5
2B90
330
D1
100
AcDbEntity
  8
0
100
AcDbCircle
 10
0.0
 20
510.0
 30
0.0
 40
45.5999755859375
  0
CIRCLE
  5
2B91
330
D1
100
AcDbEntity
  8
0
100
AcDbCircle
 10
0.0
 20
510.0
 30
0.0
 40
44.54998779296874
  0
CIRCLE
  5
2B92
330
D1
100
AcDbEntity
  8
0
100
AcDbCircle
 10
0.0
 20
510.0
 30
0.0
 40
12.0
  0
CIRCLE
  5
2B93
330
D1
100
AcDbEntity
  8
0
100
AcDbCircle
 10
0.0
 20
510.0
 30
0.0
 40
7.75
  0
CIRCLE
  5
2B94
330
D1
100
AcDbEntity
  8
0
100
AcDbCircle
 10
21.21318054199219
 20
531.2132263183594
 30
0.0
 40
3.0
  0
CIRCLE
  5
2B95
330
D1
100
AcDbEntity
  8
0
100
AcDbCircle
 10
-21.21318817138672
 20
531.2132263183594
 30
0.0
 40
3.0
  0
CIRCLE
  5
2B96
330
D1
100
AcDbEntity
  8
0
100
AcDbCircle
 10
21.21318054199219
 20
488.7867736816406
 30
0.0
 40
3.0
  0
CIRCLE
  5
2B97
330
D1
100
AcDbEntity
  8
0
100
AcDbCircle
 10
-21.21318817138672
 20
531.2132263183594
 30
0.0
 40
2.599999904632568
  0
CIRCLE
  5
2B98
330
D1
100
AcDbEntity
  8
0
100
AcDbCircle
 10
21.21318054199219
 20
531.2132263183594
 30
0.0
 40
2.599999904632568
  0
CIRCLE
  5
2B99
330
D1
100
AcDbEntity
  8
0
100
AcDbCircle
 10
-21.21318817138672
 20
488.7868041992187
 30
0.0
 40
3.0
  0
CIRCLE
  5
2B9A
330
D1
100
AcDbEntity
  8
0
100
AcDbCircle
 10
-21.21318817138672
 20
488.7868041992187
 30
0.0
 40
2.599999904632568
  0
CIRCLE
  5
2B9B
330
D1
100
AcDbEntity
  8
0
100
AcDbCircle
 10
21.21318054199219
 20
488.7867736816406
 30
0.0
 40
2.599999904632568
  0
CIRCLE
  5
2B9C
330
D1
100
AcDbEntity
  8
0
100
AcDbCircle
 10
26.5
 20
510.0
 30
0.0
 40
4.0
  0
CIRCLE
  5
2B9D
330
D1
100
AcDbEntity
  8
0
100
AcDbCircle
 10
-26.5
 20
510.0
 30
0.0
 40
4.0
  0
CIRCLE
  5
2B9E
330
D1
100
AcDbEntity
  8
0
100
AcDbCircle
 10
26.5
 20
510.0
 30
0.0
 40
2.0
  0
CIRCLE
  5
2B9F
330
D1
100
AcDbEntity
  8
0
100
AcDbCircle
 10
-26.5
 20
510.0
 30
0.0
 40
2.0
  0
CIRCLE
  5
2BA0
330
D1
100
AcDbEntity
  8
0
100
AcDbCircle
 10
-26.5
 20
510.0
 30
0.0
 40
2.5
  0
CIRCLE
  5
2BA1
330
D1
100
AcDbEntity
  8
0
100
AcDbCircle
 10
26.5
 20
510.0
 30
0.0
 40
2.5
  0
CIRCLE
  5
2BA2
330
D1
100
AcDbEntity
  8
0
100
AcDbCircle
 10
26.5
 20
510.0
 30
0.0
 40
5.0
  0
LINE
  5
2BA3
330
D1
100
AcDbEntity
  8
0
100
AcDbLine
 10
-31.11878507160941
 20
509.9998632685504
 30
0.0
 11
-28.8093673159126
 21
505.9998344515752
 31
0.0
  0
LINE
  5
2BA4
330
D1
100
AcDbEntity
  8
0
100
AcDbLine
 10
-31.11881981740771
 20
509.9999238779655
 30
0.0
 11
-28.8094020617109
 21
513.9999526949407
 31
0.0
  0
LINE
  5
2BA6
330
D1
100
AcDbEntity
  8
0
100
AcDbLine
 10
355.450012207031
 20
282.8999999999997
 30
0.0
 11
355.450012207031
 21
158.654373168945
 31
0.0
  0
LINE
  5
2BA7
330
D1
100
AcDbEntity
  8
0
100
AcDbLine
 10
355.4500148119748
 20
158.6543759976539
 30
0.0
 11
354.4000139304155
 21
146.652810968447
 31
0.0
  0
LINE
  5
2BA8
330
D1
100
AcDbEntity
  8
0
100
AcDbLine
 10
444.6000366210937
 20
114.9999999999999
 30
0.0
 11
355.3999633789063
 21
114.9999999999999
 31
0.0
  0
LINE
  5
2BA9
330
D1
100
AcDbEntity
  8
0
100
AcDbLine
 10
354.3999633789062
 20
115.9999999999999
 30
0.0
 11
354.3999633789062
 21
146.6528167724609
 31
0.0
  0
LINE
  5
2BB1
330
D1
100
AcDbEntity
  8
0
100
AcDbLine
 10
356.4500122070308
 20
283.8999999999998
 30
0.0
 11
443.5500488281245
 21
283.8999999999998
 31
0.0
  0
LINE
  5
2BBF
330
D1
100
AcDbEntity
  8
0
100
AcDbLine
 10
354.3999633789062
 20
146.6528167724609
 30
0.0
 11
445.6000366210937
 21
146.6528167724609
 31
0.0
  0
LINE
  5
2BC0
330
D1
100
AcDbEntity
  8
0
100
AcDbLine
 10
444.5500488281247
 20
158.654373168945
 30
0.0
 11
355.450012207031
 21
158.6543731689449
 31
0.0
  0
LINE
  5
2BC5
330
D1
100
AcDbEntity
  8
0
100
AcDbLine
 10
444.5500246707502
 20
158.6543732864878
 30
0.0
 11
445.6000255523097
 21
146.6528082572808
 31
0.0
  0
LINE
  5
2BC6
330
D1
100
AcDbEntity
  8
0
100
AcDbLine
 10
444.5500488281252
 20
282.9000000000002
 30
0.0
 11
444.5500488281252
 21
158.6543731689455
 31
0.0
  0
LINE
  5
2BC7
330
D1
100
AcDbEntity
  8
0
100
AcDbLine
 10
445.6000366210937
 20
115.9999999999999
 30
0.0
 11
445.6000366210937
 21
146.6528167724609
 31
0.0
  0
ARC
  5
2BD5
330
D1
100
AcDbEntity
  8
0
100
AcDbCircle
 10
356.4500122070313
 20
282.9
 30
0.0
 40
1.0
100
AcDbArc
 50
90.00000250446868
 51
180.0000050089569
  0
ARC
  5
2BD6
330
D1
100
AcDbEntity
  8
0
100
AcDbCircle
 10
355.3999633789063
 20
115.9999999999999
 30
0.0
 40
1.000000119209289
100
AcDbArc
 50
179.9999913485786
 51
270.000000683243
  0
ARC
  5
2BD7
330
D1
100
AcDbEntity
  8
0
100
AcDbCircle
 10
444.6000366210937
 20
115.9999999999999
 30
0.0
 40
1.000000119209289
100
AcDbArc
 50
269.9999974955182
 51
0.0
  0
ARC
  5
2BD8
330
D1
100
AcDbEntity
  8
0
100
AcDbCircle
 10
443.550048828125
 20
282.9
 30
0.0
 40
1.0
100
AcDbArc
 50
0.0
 51
90.00000250446868
  0
LINE
  5
2BEA
330
D1
100
AcDbEntity
  8
0
100
AcDbLine
 10
44.54998779296852
 20
158.6543584277339
 30
0.0
 11
-44.54998779296897
 21
158.6543584277337
 31
0.0
  0
LINE
  5
2BEB
330
D1
100
AcDbEntity
  8
0
100
AcDbLine
 10
44.60003662109374
 20
114.9999699999999
 30
0.0
 11
-44.60003662109374
 21
114.9999699999999
 31
0.0
  0
LINE
  5
2BEC
330
D1
100
AcDbEntity
  8
0
100
AcDbLine
 10
44.54998779296874
 20
282.8999699999999
 30
0.0
 11
44.54998779296874
 21
158.6543584277343
 31
0.0
  0
LINE
  5
2BED
330
D1
100
AcDbEntity
  8
0
100
AcDbLine
 10
45.60003662109375
 20
115.9999699999999
 30
0.0
 11
45.60003662109375
 21
146.6528020312499
 31
0.0
  0
LINE
  5
2BF1
330
D1
100
AcDbEntity
  8
0
100
AcDbLine
 10
-43.54998779296898
 20
283.8999699999994
 30
0.0
 11
43.54998779296852
 21
283.8999699999995
 31
0.0
  0
LINE
  5
2BF2
330
D1
100
AcDbEntity
  8
0
100
AcDbLine
 10
-44.54998779296874
 20
282.8999699999999
 30
0.0
 11
-44.54998779296874
 21
158.6543584277343
 31
0.0
  0
LINE
  5
2BF3
330
D1
100
AcDbEntity
  8
0
100
AcDbLine
 10
-44.54996785383719
 20
158.6543459615856
 30
0.0
 11
-45.59996740550537
 21
146.6527961331035
 31
0.0
  0
LINE
  5
2BF4
330
D1
100
AcDbEntity
  8
0
100
AcDbLine
 10
-45.60003662109375
 20
115.9999699999999
 30
0.0
 11
-45.60003662109375
 21
146.6528020312499
 31
0.0
  0
LINE
  5
2BF6
330
D1
100
AcDbEntity
  8
0
100
AcDbLine
 10
-45.60003662109375
 20
146.6528020312499
 30
0.0
 11
45.60003662109375
 21
146.6528020312499
 31
0.0
  0
LINE
  5
2BF7
330
D1
100
AcDbEntity
  8
0
100
AcDbLine
 10
44.54996467142336
 20
158.6543518738253
 30
0.0
 11
45.59996555298266
 21
146.6527868446185
 31
0.0
  0
ARC
  5
2BFD
330
D1
100
AcDbEntity
  8
0
100
AcDbCircle
 10
43.54998779296875
 20
282.8999699999999
 30
0.0
 40
1.0
100
AcDbArc
 50
0.0
 51
90.00000250446868
  0
ARC
  5
2BFE
330
D1
100
AcDbEntity
  8
0
100
AcDbCircle
 10
44.60003662109374
 20
115.9999699999999
 30
0.0
 40
1.000000119209289
100
AcDbArc
 50
269.9999974955182
 51
0.0
  0
ARC
  5
2BFF
330
D1
100
AcDbEntity
  8
0
100
AcDbCircle
 10
-43.54998779296875
 20
282.8999699999999
 30
0.0
 40
1.0
100
AcDbArc
 50
90.00000250446868
 51
180.0000050089569
  0
ARC
  5
2C00
330
D1
100
AcDbEntity
  8
0
100
AcDbCircle
 10
-44.60003662109374
 20
115.9999699999999
 30
0.0
 40
1.000000119209289
100
AcDbArc
 50
179.9999913485786
 51
270.000000683243
  0
LINE
  5
2C2B
330
D1
100
AcDbEntity
  8
0
  6
Continuous
100
AcDbLine
 10
-56.12482494951166
 20
547.499969482422
 30
0.0
 11
-74.5
 21
547.499969482422
 31
0.0
  0
LINE
  5
2C2C
330
D1
100
AcDbEntity
  8
0
  6
Continuous
100
AcDbLine
 10
-92.5
 20
535.3999934824221
 30
0.0
 11
-108.34741
 21
535.3999934824221
 31
0.0
  0
LINE
  5
2C2D
330
D1
100
AcDbEntity
  8
0
  6
Continuous
100
AcDbLine
 10
-92.5
 20
555.999969482422
 30
0.0
 11
-74.5
 21
555.999969482422
 31
0.0
  0
LINE
  5
2C2E
330
D1
100
AcDbEntity
  8
0
  6
Continuous
100
AcDbLine
 10
-92.5
 20
463.999969482422
 30
0.0
 11
-74.5
 21
463.999969482422
 31
0.0
  0
LINE
  5
2C2F
330
D1
100
AcDbEntity
  8
0
  6
Continuous
100
AcDbLine
 10
-111.9584299999999
 20
478.5263634824221
 30
0.0
 11
-110.2267899999999
 21
483.2840094824221
 31
0.0
  0
LINE
  5
2C30
330
D1
100
AcDbEntity
  8
0
  6
Continuous
100
AcDbLine
 10
-115.0
 20
477.9999694824221
 30
0.0
 11
-112.7102099999999
 21
477.9999694824221
 31
0.0
  0
LINE
  5
2C31
330
D1
100
AcDbEntity
  8
0
  6
Continuous
100
AcDbLine
 10
-111.9584
 20
541.4735754824221
 30
0.0
 11
-110.22676
 21
536.7159274824221
 31
0.0
  0
LINE
  5
2C32
330
D1
100
AcDbEntity
  8
0
  6
Continuous
100
AcDbLine
 10
-115.0
 20
541.9999694824221
 30
0.0
 11
-112.7102099999999
 21
541.9999694824221
 31
0.0
  0
LINE
  5
2C33
330
D1
100
AcDbEntity
  8
0
  6
Continuous
100
AcDbLine
 10
-115.0
 20
477.9999694824221
 30
0.0
 11
-115.0
 21
541.9999694824221
 31
0.0
  0
LINE
  5
2C34
330
D1
100
AcDbEntity
  8
0
  6
Continuous
100
AcDbLine
 10
-92.5
 20
484.599945482422
 30
0.0
 11
-108.34741
 21
484.599945482422
 31
0.0
  0
LINE
  5
2C35
330
D1
100
AcDbEntity
  8
0
  6
Continuous
100
AcDbLine
 10
-109.7478000000001
 20
484.599945482422
 30
0.0
 11
-109.7478000000001
 21
535.3999934824221
 31
0.0
  0
LINE
  5
2C36
330
D1
100
AcDbEntity
  8
0
  6
Continuous
100
AcDbLine
 10
-112.15002
 20
478.526336482422
 30
0.0
 11
-112.15002
 21
541.4735754824221
 31
0.0
  0
LINE
  5
2C37
330
D1
100
AcDbEntity
  8
0
  6
Continuous
100
AcDbLine
 10
-92.5
 20
463.999969482422
 30
0.0
 11
-92.5
 21
555.999969482422
 31
0.0
  0
LINE
  5
2C38
330
D1
100
AcDbEntity
  8
0
  6
Continuous
100
AcDbLine
 10
-74.5
 20
463.999969482422
 30
0.0
 11
-74.5
 21
555.999969482422
 31
0.0
  0
ARC
  5
2C39
330
D1
100
AcDbEntity
  8
0
  6
Continuous
100
AcDbCircle
 10
-108.34741
 20
482.599945482422
 30
0.0
 40
2.0
100
AcDbArc
 50
90.0
 51
160.0000200000006
  0
ARC
  5
2C3A
330
D1
100
AcDbEntity
  8
0
  6
Continuous
100
AcDbCircle
 10
-112.7102099999999
 20
478.7999574824221
 30
0.0
 40
0.8000000099999999
100
AcDbArc
 50
270.0
 51
339.9999699999967
  0
ARC
  5
2C3B
330
D1
100
AcDbEntity
  8
0
  6
Continuous
100
AcDbCircle
 10
-112.7102099999999
 20
541.1999814824221
 30
0.0
 40
0.8000000099999999
100
AcDbArc
 50
20.00002900000373
 51
90.0
  0
ARC
  5
2C3C
330
D1
100
AcDbEntity
  8
0
  6
Continuous
100
AcDbCircle
 10
-108.34741
 20
537.3999934824221
 30
0.0
 40
2.0
100
AcDbArc
 50
199.9999799999993
 51
270.0
  0
LINE
  5
2C3D
330
D1
100
AcDbEntity
  8
0
  6
Continuous
100
AcDbLine
 10
-92.5
 20
513.999969482422
 30
0.0
 11
-74.5
 21
513.999969482422
 31
0.0
  0
LINE
  5
2C3E
330
D1
100
AcDbEntity
  8
0
  6
Continuous
100
AcDbLine
 10
-92.5
 20
505.999969482422
 30
0.0
 11
-74.5
 21
505.999969482422
 31
0.0
  0
LINE
  5
2C3F
330
D1
100
AcDbEntity
  8
0
  6
Continuous
100
AcDbLine
 10
-56.12489412275041
 20
472.500030517578
 30
0.0
 11
-74.5
 21
472.5000305175779
 31
0.0
  0
LINE
  5
2C40
330
D1
100
AcDbEntity
  8
0
  6
Continuous
100
AcDbLine
 10
56.12486826120367
 20
547.499969482422
 30
0.0
 11
74.5
 21
547.499969482422
 31
0.0
  0
LINE
  5
2C41
330
D1
100
AcDbEntity
  8
0
  6
Continuous
100
AcDbLine
 10
92.5
 20
535.3999934824221
 30
0.0
 11
108.34741
 21
535.3999934824221
 31
0.0
  0
LINE
  5
2C42
330
D1
100
AcDbEntity
  8
0
  6
Continuous
100
AcDbLine
 10
92.5
 20
555.999969482422
 30
0.0
 11
74.5
 21
555.999969482422
 31
0.0
  0
LINE
  5
2C43
330
D1
100
AcDbEntity
  8
0
  6
Continuous
100
AcDbLine
 10
92.5
 20
463.999969482422
 30
0.0
 11
74.5
 21
463.999969482422
 31
0.0
  0
LINE
  5
2C44
330
D1
100
AcDbEntity
  8
0
  6
Continuous
100
AcDbLine
 10
111.9584299999999
 20
478.5263634824221
 30
0.0
 11
110.2267899999999
 21
483.2840094824221
 31
0.0
  0
LINE
  5
2C45
330
D1
100
AcDbEntity
  8
0
  6
Continuous
100
AcDbLine
 10
115.0
 20
477.9999694824221
 30
0.0
 11
112.7102099999999
 21
477.9999694824221
 31
0.0
  0
LINE
  5
2C46
330
D1
100
AcDbEntity
  8
0
  6
Continuous
100
AcDbLine
 10
111.9584
 20
541.4735754824221
 30
0.0
 11
110.22676
 21
536.7159274824221
 31
0.0
  0
LINE
  5
2C47
330
D1
100
AcDbEntity
  8
0
  6
Continuous
100
AcDbLine
 10
115.0
 20
541.9999694824221
 30
0.0
 11
112.7102099999999
 21
541.9999694824221
 31
0.0
  0
LINE
  5
2C48
330
D1
100
AcDbEntity
  8
0
  6
Continuous
100
AcDbLine
 10
115.0
 20
477.9999694824221
 30
0.0
 11
115.0
 21
541.9999694824221
 31
0.0
  0
LINE
  5
2C49
330
D1
100
AcDbEntity
  8
0
  6
Continuous
100
AcDbLine
 10
92.5
 20
484.599945482422
 30
0.0
 11
108.34741
 21
484.599945482422
 31
0.0
  0
LINE
  5
2C4A
330
D1
100
AcDbEntity
  8
0
  6
Continuous
100
AcDbLine
 10
109.7478000000001
 20
484.599945482422
 30
0.0
 11
109.7478000000001
 21
535.3999934824221
 31
0.0
  0
LINE
  5
2C4B
330
D1
100
AcDbEntity
  8
0
  6
Continuous
100
AcDbLine
 10
112.15002
 20
478.526336482422
 30
0.0
 11
112.15002
 21
541.4735754824221
 31
0.0
  0
LINE
  5
2C4C
330
D1
100
AcDbEntity
  8
0
  6
Continuous
100
AcDbLine
 10
92.5
 20
463.999969482422
 30
0.0
 11
92.5
 21
555.999969482422
 31
0.0
  0
LINE
  5
2C4D
330
D1
100
AcDbEntity
  8
0
  6
Continuous
100
AcDbLine
 10
74.5
 20
463.999969482422
 30
0.0
 11
74.5
 21
555.999969482422
 31
0.0
  0
ARC
  5
2C4E
330
D1
100
AcDbEntity
  8
0
  6
Continuous
100
AcDbCircle
 10
108.34741
 20
482.599945482422
 30
0.0
 40
2.0
100
AcDbArc
 50
19.99997999999935
 51
90.0
  0
ARC
  5
2C4F
330
D1
100
AcDbEntity
  8
0
  6
Continuous
100
AcDbCircle
 10
112.7102099999999
 20
478.7999574824221
 30
0.0
 40
0.8000000099999999
100
AcDbArc
 50
200.0000300000032
 51
270.0
  0
ARC
  5
2C50
330
D1
100
AcDbEntity
  8
0
  6
Continuous
100
AcDbCircle
 10
112.7102099999999
 20
541.1999814824221
 30
0.0
 40
0.8000000099999999
100
AcDbArc
 50
90.0
 51
159.9999709999963
  0
ARC
  5
2C51
330
D1
100
AcDbEntity
  8
0
  6
Continuous
100
AcDbCircle
 10
108.34741
 20
537.3999934824221
 30
0.0
 40
2.0
100
AcDbArc
 50
270.0
 51
340.0000200000006
  0
LINE
  5
2C52
330
D1
100
AcDbEntity
  8
0
  6
Continuous
100
AcDbLine
 10
92.5
 20
513.999969482422
 30
0.0
 11
74.5
 21
513.999969482422
 31
0.0
  0
LINE
  5
2C53
330
D1
100
AcDbEntity
  8
0
  6
Continuous
100
AcDbLine
 10
92.5
 20
505.999969482422
 30
0.0
 11
74.5
 21
505.999969482422
 31
0.0
  0
LINE
  5
2C54
330
D1
100
AcDbEntity
  8
0
  6
Continuous
100
AcDbLine
 10
56.12493743444244
 20
472.500030517578
 30
0.0
 11
74.5
 21
472.5000305175779
 31
0.0
  0
CIRCLE
  5
2C55
330
D1
100
AcDbEntity
  8
0
  6
Continuous
100
AcDbCircle
 10
0.0000216558460124
 20
509.9999482354271
 30
0.0
 40
67.5
  0
CIRCLE
  5
2C57
330
D1
100
AcDbEntity
  8
0
  6
Continuous
100
AcDbCircle
 10
0.0000216558460124
 20
509.9999482354271
 30
0.0
 40
59.5
  0
LINE
  5
2C58
330
D1
100
AcDbEntity
  8
0
  6
Continuous
100
AcDbLine
 10
421.2999990000001
 20
72.91026517775835
 30
0.0
 11
421.2999990000001
 21
69.09999800000003
 31
0.0
  0
LINE
  5
2C59
330
D1
100
AcDbEntity
  8
0
  6
Continuous
100
AcDbLine
 10
426.299999
 20
77.43038899999999
 30
0.0
 11
426.299999
 21
69.96961999999996
 31
0.0
  0
LINE
  5
2C5A
330
D1
100
AcDbEntity
  8
0
  6
Continuous
100
AcDbLine
 10
426.0
 20
69.45000500000003
 30
0.0
 11
421.2999990000001
 21
69.45000500000003
 31
0.0
  0
LINE
  5
2C5B
330
D1
100
AcDbEntity
  8
0
  6
Continuous
100
AcDbLine
 10
421.2999990000001
 20
69.09999800000003
 30
0.0
 11
420.0
 21
69.09999800000003
 31
0.0
  0
LINE
  5
2C5C
330
D1
100
AcDbEntity
  8
0
  6
Continuous
100
AcDbLine
 10
421.9999999999999
 20
73.40041034801727
 30
0.0
 11
422.0
 21
69.45000500000003
 31
0.0
  0
LINE
  5
2C5D
330
D1
100
AcDbEntity
  8
0
  6
Continuous
100
AcDbLine
 10
426.0
 20
76.96172381446692
 30
0.0
 11
426.0
 21
69.45000500000003
 31
0.0
  0
LINE
  5
2C5E
330
D1
100
AcDbEntity
  8
0
  6
Continuous
100
AcDbLine
 10
426.0
 20
69.449997
 30
0.0
 11
426.299999
 21
69.96961199999998
 31
0.0
  0
LINE
  5
2C5F
330
D1
100
AcDbEntity
  8
0
  6
Continuous
100
AcDbLine
 10
426.299999
 20
77.43038899999999
 30
0.0
 11
426.2953030735134
 21
77.43852249701106
 31
0.0
  0
CIRCLE
  5
2D67
330
D1
100
AcDbEntity
  8
0
  6
Continuous
100
AcDbCircle
 10
0.0000433116920249
 20
509.9998964708543
 30
0.0
 40
56.5
  0
CIRCLE
  5
2D68
330
D1
100
AcDbEntity
  8
0
  6
Continuous
100
AcDbCircle
 10
0.0000216558460124
 20
509.9999177178492
 30
0.0
 40
52.0
  0
LINE
  5
2E98
330
D1
100
AcDbEntity
  8
0
100
AcDbLine
 10
28.60000610351562
 20
291.9000305175781
 30
0.0
 11
24.39999389648438
 21
291.9000305175781
 31
0.0
  0
LINE
  5
2E99
330
D1
100
AcDbEntity
  8
0
100
AcDbLine
 10
-31.11880493164063
 20
288.5356201171875
 30
0.0
 11
-31.11880493164063
 21
284.9000305175781
 31
0.0
  0
LINE
  5
2E9A
330
D1
100
AcDbEntity
  8
0
100
AcDbLine
 10
-24.19061279296875
 20
288.5356201171875
 30
0.0
 11
-24.19061279296875
 21
284.9000305175781
 31
0.0
  0
LINE
  5
2E9B
330
D1
100
AcDbEntity
  8
0
100
AcDbLine
 10
21.5
 20
284.9000305175781
 30
0.0
 11
21.5
 21
283.9000305175781
 31
0.0
  0
LINE
  5
2E9C
330
D1
100
AcDbEntity
  8
0
100
AcDbLine
 10
31.5
 20
283.9000305175781
 30
0.0
 11
31.5
 21
284.9000305175781
 31
0.0
  0
LINE
  5
2E9D
330
D1
100
AcDbEntity
  8
0
100
AcDbLine
 10
31.5
 20
284.9000305175781
 30
0.0
 11
21.5
 21
284.9000305175781
 31
0.0
  0
LINE
  5
2E9E
330
D1
100
AcDbEntity
  8
0
100
AcDbLine
 10
-24.0
 20
291.5000366210937
 30
0.0
 11
-24.0
 21
288.9000305175781
 31
0.0
  0
LINE
  5
2E9F
330
D1
100
AcDbEntity
  8
0
100
AcDbLine
 10
-24.3999884921468
 20
291.9000036809166
 30
0.0
 11
-23.99999669233989
 21
291.5000118811097
 31
0.0
  0
LINE
  5
2EA0
330
D1
100
AcDbEntity
  8
0
100
AcDbLine
 10
-29.0
 20
291.5000366210937
 30
0.0
 11
-29.0
 21
288.9000305175781
 31
0.0
  0
LINE
  5
2EA1
330
D1
100
AcDbEntity
  8
0
100
AcDbLine
 10
-28.59998870686536
 20
291.9000036809166
 30
0.0
 11
-28.99998590146879
 21
291.500006486313
 31
0.0
  0
LINE
  5
2EA2
330
D1
100
AcDbEntity
  8
0
100
AcDbLine
 10
-21.88119506835938
 20
288.5356201171875
 30
0.0
 11
-21.88119506835938
 21
284.9000305175781
 31
0.0
  0
LINE
  5
2EA3
330
D1
100
AcDbEntity
  8
0
100
AcDbLine
 10
21.88119506835938
 20
288.5356201171875
 30
0.0
 11
21.88119506835938
 21
284.9000305175781
 31
0.0
  0
LINE
  5
2EA4
330
D1
100
AcDbEntity
  8
0
100
AcDbLine
 10
28.80940246582031
 20
288.5356201171875
 30
0.0
 11
28.80940246582031
 21
284.9000305175781
 31
0.0
  0
LINE
  5
2EA5
330
D1
100
AcDbEntity
  8
0
100
AcDbLine
 10
24.0
 20
291.5000366210937
 30
0.0
 11
24.0
 21
288.9000305175781
 31
0.0
  0
LINE
  5
2EA6
330
D1
100
AcDbEntity
  8
0
100
AcDbLine
 10
28.59999315200162
 20
291.9000360496962
 30
0.0
 11
29.00000653099505
 21
291.500022670703
 31
0.0
  0
LINE
  5
2EA7
330
D1
100
AcDbEntity
  8
0
100
AcDbLine
 10
24.39999293728306
 20
291.9000360496962
 30
0.0
 11
23.99999034788288
 21
291.5000334602961
 31
0.0
  0
LINE
  5
2EA8
330
D1
100
AcDbEntity
  8
0
100
AcDbLine
 10
-31.5
 20
283.9000305175781
 30
0.0
 11
-31.5
 21
284.9000305175781
 31
0.0
  0
LINE
  5
2EA9
330
D1
100
AcDbEntity
  8
0
100
AcDbLine
 10
-31.5
 20
284.9000305175781
 30
0.0
 11
-21.5
 21
284.9000305175781
 31
0.0
  0
LINE
  5
2EAA
330
D1
100
AcDbEntity
  8
0
100
AcDbLine
 10
-21.5
 20
284.9000305175781
 30
0.0
 11
-21.5
 21
283.9000305175781
 31
0.0
  0
LINE
  5
2EAB
330
D1
100
AcDbEntity
  8
0
100
AcDbLine
 10
31.11880493164063
 20
288.5356201171875
 30
0.0
 11
31.11880493164063
 21
284.9000305175781
 31
0.0
  0
LINE
  5
2EAC
330
D1
100
AcDbEntity
  8
0
100
AcDbLine
 10
29.0
 20
291.5000366210937
 30
0.0
 11
29.0
 21
288.9000305175781
 31
0.0
  0
LINE
  5
2EAD
330
D1
100
AcDbEntity
  8
0
100
AcDbLine
 10
-24.39999389648438
 20
291.9000305175781
 30
0.0
 11
-28.60000610351562
 21
291.9000305175781
 31
0.0
  0
LINE
  5
2EAE
330
D1
100
AcDbEntity
  8
0
100
AcDbLine
 10
-29.964111328125
 20
288.9000305175781
 30
0.0
 11
-23.035888671875
 21
288.9000305175781
 31
0.0
  0
LINE
  5
2EAF
330
D1
100
AcDbEntity
  8
0
100
AcDbLine
 10
-28.80938720703125
 20
288.5356201171875
 30
0.0
 11
-28.80938720703125
 21
284.9000305175781
 31
0.0
  0
LINE
  5
2EB0
330
D1
100
AcDbEntity
  8
0
100
AcDbLine
 10
-12.0
 20
307.4000305175781
 30
0.0
 11
-12.0
 21
286.9000305175781
 31
0.0
  0
LINE
  5
2EB1
330
D1
100
AcDbEntity
  8
0
100
AcDbLine
 10
-11.0
 20
285.9000305175781
 30
0.0
 11
11.0
 21
285.9000305175781
 31
0.0
  0
LINE
  5
2EB2
330
D1
100
AcDbEntity
  8
0
100
AcDbLine
 10
-11.0
 20
308.4000305175781
 30
0.0
 11
11.0
 21
308.4000305175781
 31
0.0
  0
LINE
  5
2EB3
330
D1
100
AcDbEntity
  8
0
100
AcDbLine
 10
24.19059753417969
 20
288.5356201171875
 30
0.0
 11
24.19059753417969
 21
284.9000305175781
 31
0.0
  0
LINE
  5
2EB4
330
D1
100
AcDbEntity
  8
0
100
AcDbLine
 10
-7.0
 20
283.9000305175781
 30
0.0
 11
-7.0
 21
285.9000305175781
 31
0.0
  0
LINE
  5
2EB5
330
D1
100
AcDbEntity
  8
0
100
AcDbLine
 10
7.0
 20
285.9000305175781
 30
0.0
 11
7.0
 21
283.9000305175781
 31
0.0
  0
LINE
  5
2EB6
330
D1
100
AcDbEntity
  8
0
100
AcDbLine
 10
23.03590393066406
 20
288.9000305175781
 30
0.0
 11
29.96409606933594
 21
288.9000305175781
 31
0.0
  0
LINE
  5
2EB7
330
D1
100
AcDbEntity
  8
0
100
AcDbLine
 10
12.0
 20
307.4000305175781
 30
0.0
 11
12.0
 21
286.9000305175781
 31
0.0
  0
ARC
  5
2EB8
330
D1
100
AcDbEntity
  8
0
100
AcDbCircle
 10
-29.964111328125
 20
286.8883728027343
 30
0.0
 40
2.011653184890747
100
AcDbArc
 50
54.96996349690338
 51
125.0300415120586
  0
ARC
  5
2EB9
330
D1
100
AcDbEntity
  8
0
100
AcDbCircle
 10
26.5
 20
281.4000305175781
 30
0.0
 40
7.5
100
AcDbArc
 50
72.06606359322844
 51
107.9339345855393
  0
ARC
  5
2EBA
330
D1
100
AcDbEntity
  8
0
100
AcDbCircle
 10
29.96409606933594
 20
286.8883728027343
 30
0.0
 40
2.011653184890747
100
AcDbArc
 50
54.96996349690338
 51
125.0300415120586
  0
ARC
  5
2EBB
330
D1
100
AcDbEntity
  8
0
100
AcDbCircle
 10
23.03590393066406
 20
286.8883728027343
 30
0.0
 40
2.011653184890747
100
AcDbArc
 50
54.96996349690338
 51
125.0300415120586
  0
ARC
  5
2EBC
330
D1
100
AcDbEntity
  8
0
100
AcDbCircle
 10
-23.035888671875
 20
286.8883728027343
 30
0.0
 40
2.011653184890747
100
AcDbArc
 50
54.96996349690338
 51
125.0300415120586
  0
CIRCLE
  5
2EBD
330
D1
100
AcDbEntity
  8
0
100
AcDbCircle
 10
0.0
 20
276.9
 30
0.0
 40
4.158030033111572
  0
CIRCLE
  5
2EBE
330
D1
100
AcDbEntity
  8
0
100
AcDbCircle
 10
0.0
 20
276.9
 30
0.0
 40
4.738999843597412
  0
ARC
  5
2EBF
330
D1
100
AcDbEntity
  8
0
100
AcDbCircle
 10
11.0
 20
286.9000305175781
 30
0.0
 40
1.0
100
AcDbArc
 50
269.9999974955182
 51
0.0
  0
ARC
  5
2EC0
330
D1
100
AcDbEntity
  8
0
100
AcDbCircle
 10
-11.0
 20
286.9000305175781
 30
0.0
 40
1.0
100
AcDbArc
 50
179.999994991043
 51
269.9999974955182
  0
ARC
  5
2EC1
330
D1
100
AcDbEntity
  8
0
100
AcDbCircle
 10
-11.0
 20
307.4000305175781
 30
0.0
 40
1.0
100
AcDbArc
 50
90.00000250446868
 51
180.0000050089569
  0
ARC
  5
2EC2
330
D1
100
AcDbEntity
  8
0
100
AcDbCircle
 10
11.0
 20
307.4000305175781
 30
0.0
 40
1.0
100
AcDbArc
 50
0.0
 51
90.00000250446868
  0
ARC
  5
2EC3
330
D1
100
AcDbEntity
  8
0
100
AcDbCircle
 10
-26.5
 20
281.4000305175781
 30
0.0
 40
7.5
100
AcDbArc
 50
72.06606359322844
 51
107.9339345855393
  0
CIRCLE
  5
2EC4
330
D1
100
AcDbEntity
  8
0
100
AcDbCircle
 10
0.0
 20
136.4999999999999
 30
0.0
 40
4.158030033111572
  0
CIRCLE
  5
2EC5
330
D1
100
AcDbEntity
  8
0
100
AcDbCircle
 10
0.0
 20
136.4999999999999
 30
0.0
 40
4.738999843597412
  0
LINE
  5
2EC6
330
D1
100
AcDbEntity
  8
0
100
AcDbLine
 10
388.0000915527339
 20
307.4000000000002
 30
0.0
 11
388.0000915527339
 21
286.9000000000003
 31
0.0
  0
LINE
  5
2EC7
330
D1
100
AcDbEntity
  8
0
100
AcDbLine
 10
397.5000915527339
 20
291.5000061035159
 30
0.0
 11
397.5000915527339
 21
288.9000000000002
 31
0.0
  0
LINE
  5
2EC8
330
D1
100
AcDbEntity
  8
0
100
AcDbLine
 10
405.0000915527339
 20
284.9000000000003
 30
0.0
 11
405.0000915527339
 21
283.9000000000003
 31
0.0
  0
LINE
  5
2EC9
330
D1
100
AcDbEntity
  8
0
100
AcDbLine
 10
412.0000915527339
 20
307.4000000000002
 30
0.0
 11
412.0000915527339
 21
286.9000000000003
 31
0.0
  0
LINE
  5
2ECA
330
D1
100
AcDbEntity
  8
0
100
AcDbLine
 10
397.9000910216507
 20
291.9000171679084
 30
0.0
 11
397.5000911296488
 21
291.5000172759065
 31
0.0
  0
LINE
  5
2ECB
330
D1
100
AcDbEntity
  8
0
100
AcDbLine
 10
389.0000915527339
 20
308.4000000000003
 30
0.0
 11
411.0000915527339
 21
308.4000000000003
 31
0.0
  0
LINE
  5
2ECC
330
D1
100
AcDbEntity
  8
0
100
AcDbLine
 10
404.6188964843745
 20
285.9000000000003
 30
0.0
 11
411.0000915527339
 21
285.9000000000003
 31
0.0
  0
LINE
  5
2ECD
330
D1
100
AcDbEntity
  8
0
100
AcDbLine
 10
389.0000915527339
 20
285.9000000000003
 30
0.0
 11
395.3812866210933
 21
285.9000000000003
 31
0.0
  0
LINE
  5
2ECE
330
D1
100
AcDbEntity
  8
0
100
AcDbLine
 10
402.5000915527339
 20
291.5000061035159
 30
0.0
 11
402.5000915527339
 21
288.9000000000002
 31
0.0
  0
LINE
  5
2ECF
330
D1
100
AcDbEntity
  8
0
100
AcDbLine
 10
395.0000915527339
 20
284.9000000000003
 30
0.0
 11
405.0000915527339
 21
284.9000000000003
 31
0.0
  0
LINE
  5
2ED0
330
D1
100
AcDbEntity
  8
0
100
AcDbLine
 10
402.1000912363694
 20
291.9000171679084
 30
0.0
 11
402.5000830361764
 21
291.5000253681014
 31
0.0
  0
LINE
  5
2ED1
330
D1
100
AcDbEntity
  8
0
100
AcDbLine
 10
402.1000976562495
 20
291.9000000000003
 30
0.0
 11
397.9000854492183
 21
291.9000000000003
 31
0.0
  0
LINE
  5
2ED2
330
D1
100
AcDbEntity
  8
0
100
AcDbLine
 10
395.0000915527339
 20
283.9000000000003
 30
0.0
 11
395.0000915527339
 21
284.9000000000003
 31
0.0
  0
LINE
  5
2ED3
330
D1
100
AcDbEntity
  8
0
100
AcDbLine
 10
407.0000915527339
 20
285.9000000000003
 30
0.0
 11
407.0000915527339
 21
283.9000000000003
 31
0.0
  0
LINE
  5
2ED4
330
D1
100
AcDbEntity
  8
0
100
AcDbLine
 10
393.0000915527339
 20
283.9000000000003
 30
0.0
 11
393.0000915527339
 21
285.9000000000003
 31
0.0
  0
ARC
  5
2ED5
330
D1
100
AcDbEntity
  8
0
100
AcDbCircle
 10
389.0000915527339
 20
286.9000000000003
 30
0.0
 40
1.0
100
AcDbArc
 50
179.999994991043
 51
269.9999974955182
  0
ARC
  5
2ED6
330
D1
100
AcDbEntity
  8
0
100
AcDbCircle
 10
411.0000915527339
 20
286.9000000000003
 30
0.0
 40
1.0
100
AcDbArc
 50
269.9999974955182
 51
0.0
  0
ARC
  5
2ED7
330
D1
100
AcDbEntity
  8
0
100
AcDbCircle
 10
389.0000915527339
 20
307.4000000000002
 30
0.0
 40
1.0
100
AcDbArc
 50
90.00000250446868
 51
180.0000050089569
  0
ARC
  5
2ED8
330
D1
100
AcDbEntity
  8
0
100
AcDbCircle
 10
411.0000915527339
 20
307.4000000000002
 30
0.0
 40
1.0
100
AcDbArc
 50
0.0
 51
90.00000250446868
  0
ARC
  5
2ED9
330
D1
100
AcDbEntity
  8
0
100
AcDbCircle
 10
398.0000950010099
 20
283.0654861111006
 30
0.0
 40
5.776760101318358
100
AcDbArc
 50
69.7444458007815
 51
110.2555541992185
  0
LINE
  5
2EDA
330
D1
100
AcDbEntity
  8
0
100
AcDbLine
 10
404.0000950010099
 20
288.8999812124189
 30
0.0
 11
396.0000950010098
 21
288.8999812124189
 31
0.0
  0
LINE
  5
2EDB
330
D1
100
AcDbEntity
  8
0
100
AcDbLine
 10
396.0000950010098
 20
284.8999812124189
 30
0.0
 11
396.0000950010098
 21
288.8999812124189
 31
0.0
  0
LINE
  5
2EDC
330
D1
100
AcDbEntity
  8
0
100
AcDbLine
 10
400.0000950010099
 20
284.8999812124189
 30
0.0
 11
400.0000950010099
 21
288.4849820324189
 31
0.0
  0
ARC
  5
2EDD
330
D1
100
AcDbEntity
  8
0
100
AcDbCircle
 10
402.0000950010098
 20
283.0654861111005
 30
0.0
 40
5.776760101318358
100
AcDbArc
 50
69.7444458007815
 51
110.2555541992185
  0
LINE
  5
2EDE
330
D1
100
AcDbEntity
  8
0
100
AcDbLine
 10
404.0000950010099
 20
284.8999812124189
 30
0.0
 11
404.0000950010099
 21
288.8999812124189
 31
0.0
  0
ENDSEC
  0
SECTION
  2
OBJECTS
  0
DICTIONARY
  5
17FA
330
0
100
AcDbDictionary
281
     1
  3
ACAD_2007HEADERVARS_RT
350
31AB
  3
ACAD_CIP_PREVIOUS_PRODUCT_INFO
350
1856
  3
ACAD_COLOR
350
1834
  3
ACAD_DETAILVIEWSTYLE
350
315D
  3
ACAD_GROUP
350
17FB
  3
ACAD_LAYOUT
350
184C
  3
ACAD_MATERIAL
350
1802
  3
ACAD_MLEADERSTYLE
350
1849
  3
ACAD_MLINESTYLE
350
17FC
  3
ACAD_PLOTSETTINGS
350
184D
  3
ACAD_PLOTSTYLENAME
350
1800
  3
ACAD_SCALELIST
350
1837
  3
ACAD_SECTIONVIEWSTYLE
350
315B
  3
ACAD_TABLESTYLE
350
1835
  3
ACAD_VISUALSTYLE
350
181B
  3
ACDB_RECOMPOSE_DATA
350
31AA
  3
AcDbVariableDictionary
350
1975
  3
AcmDictionary
350
18C9
  3
AEC_PROPERTY_SET_DEFS
350
2043
  3
AMG
350
1858
  3
AMGSNAPSETTINGS
350
195B
  0
DICTIONARY
  5
199E
330
E2
100
AcDbDictionary
280
     1
281
     1
  0
DICTIONARY
  5
2035
330
C8
100
AcDbDictionary
280
     1
281
     1
  3
ACAD_LAYERSTATES
360
2036
  0
DICTIONARY
  5
1963
330
C9
100
AcDbDictionary
280
     1
281
     1
  3
ADSK_XREC_LAYER_RECONCILED
360
1964
  0
DICTIONARY
  5
1C1E
330
D1
100
AcDbDictionary
280
     1
281
     1
  3
ACAD_SORTENTS
360
1C1F
  0
DICTIONARY
  5
31AB
102
{ACAD_REACTORS
330
17FA
102
}
330
17FA
100
AcDbDictionary
281
     1
  3
DIMARCSYM
350
31AC
  3
DIMLTEX1
350
31AF
  3
DIMLTEX2
350
31B0
  3
DIMLTYPE
350
31AE
  3
DIMTFILL
350
31AD
  0
XRECORD
  5
1856
102
{ACAD_REACTORS
330
17FA
102
}
330
17FA
100
AcDbXrecord
280
     1
300
AMECH_PP
300
2012
300
PDSU_F_S
  0
DICTIONARY
  5
1834
102
{ACAD_REACTORS
330
17FA
102
}
330
17FA
100
AcDbDictionary
281
     1
  0
DICTIONARY
  5
315D
102
{ACAD_REACTORS
330
17FA
102
}
330
17FA
100
AcDbDictionary
281
     1
  3
Metric50
350
315E
  0
DICTIONARY
  5
17FB
102
{ACAD_REACTORS
330
17FA
102
}
330
17FA
100
AcDbDictionary
281
     1
  0
DICTIONARY
  5
184C
102
{ACAD_REACTORS
330
17FA
102
}
330
17FA
100
AcDbDictionary
281
     1
  3
Model
350
184E
  3
レイアウト1
350
184F
  0
DICTIONARY
  5
1802
102
{ACAD_REACTORS
330
17FA
102
}
330
17FA
100
AcDbDictionary
281
     1
  3
ByBlock
350
180B
  3
ByLayer
350
1803
  3
Global
350
1813
  0
DICTIONARY
  5
1849
102
{ACAD_REACTORS
330
17FA
102
}
330
17FA
100
AcDbDictionary
281
     1
  3
Standard
350
184A
  0
DICTIONARY
  5
17FC
102
{ACAD_REACTORS
330
17FA
102
}
330
17FA
100
AcDbDictionary
281
     1
  3
STANDARD
350
17FD
  0
DICTIONARY
  5
184D
102
{ACAD_REACTORS
330
17FA
102
}
330
17FA
100
AcDbDictionary
281
     1
  0
ACDBDICTIONARYWDFLT
  5
1800
102
{ACAD_REACTORS
330
17FA
102
}
330
17FA
100
AcDbDictionary
281
     1
  3
Normal
350
1801
100
AcDbDictionaryWithDefault
340
1801
  0
DICTIONARY
  5
1837
102
{ACAD_REACTORS
330
17FA
102
}
330
17FA
100
AcDbDictionary
281
     1
  3
A0
350
1838
  3
A1
350
1839
  3
A2
350
183A
  3
A3
350
183B
  3
A4
350
183C
  3
A5
350
183D
  3
A6
350
183E
  3
A7
350
183F
  3
A8
350
1840
  3
A9
350
1841
  3
B0
350
1842
  3
B1
350
1843
  3
B2
350
1844
  3
B3
350
1845
  3
B4
350
1846
  3
B5
350
1847
  3
B6
350
1848
  0
DICTIONARY
  5
315B
102
{ACAD_REACTORS
330
17FA
102
}
330
17FA
100
AcDbDictionary
281
     1
  3
Metric50
350
315C
  0
DICTIONARY
  5
1835
102
{ACAD_REACTORS
330
17FA
102
}
330
17FA
100
AcDbDictionary
281
     1
  3
Standard
350
1836
  0
DICTIONARY
  5
181B
102
{ACAD_REACTORS
330
17FA
102
}
330
17FA
100
AcDbDictionary
281
     1
  3
2dWireframe
350
1821
  3
3D Hidden
350
31A3
  3
3dWireframe
350
31A2
  3
Basic
350
1820
  3
Brighten
350
1827
  3
ColorChange
350
182B
  3
Conceptual
350
1824
  3
Dim
350
1826
  3
EdgeColorOff
350
1833
  3
Facepattern
350
182A
  3
Flat
350
181C
  3
FlatWithEdges
350
181D
  3
Gouraud
350
181E
  3
GouraudWithEdges
350
181F
  3
Hidden
350
1823
  3
JitterOff
350
1831
  3
Linepattern
350
1829
  3
OverhangOff
350
1832
  3
Realistic
350
1825
  3
Shaded
350
1830
  3
Shaded with edges
350
182F
  3
Shades of Gray
350
182C
  3
Sketchy
350
182D
  3
Thicken
350
1828
  3
Wireframe
350
1822
  3
X-Ray
350
182E
  0
XRECORD
  5
31AA
102
{ACAD_REACTORS
330
17FA
102
}
330
17FA
100
AcDbXrecord
280
     1
 90
        1
330
1836
  0
DICTIONARY
  5
1975
102
{ACAD_REACTORS
330
17FA
102
}
330
17FA
100
AcDbDictionary
281
     1
  3
CANNOSCALE
350
1979
  3
CMLEADERSTYLE
350
1977
  3
CTABLESTYLE
350
1976
  3
CVIEWDETAILSTYLE
350
319E
  3
CVIEWSECTIONSTYLE
350
319F
  3
DIMASSOC
350
19DA
  3
INDEXCTL
350
19D9
  3
LAYEREVAL
350
197B
  3
LAYERNOTIFY
350
197C
  3
LIGHTINGUNITS
350
197A
  3
MSLTSCALE
350
1978
  3
SORTENTS
350
19D8
  3
XCLIPFRAME
350
31A8
  0
DICTIONARY
  5
18C9
102
{ACAD_REACTORS
330
17FA
102
}
330
17FA
100
AcDbDictionary
281
     1
  3
AcmStdDictionary
350
18CA
  0
DICTIONARY
  5
2043
102
{ACAD_REACTORS
330
17FA
102
}
330
17FA
100
AcDbDictionary
281
     1
  0
DICTIONARY
  5
1858
102
{ACAD_REACTORS
330
17FA
102
}
330
17FA
100
AcDbDictionary
281
     1
  0
DICTIONARY
  5
195B
102
{ACAD_REACTORS
330
17FA
102
}
330
17FA
100
AcDbDictionary
281
     1
  0
DICTIONARY
  5
2036
102
{ACAD_REACTORS
330
2035
102
}
330
2035
100
AcDbDictionary
281
     1
  0
XRECORD
  5
1964
102
{ACAD_REACTORS
330
1963
102
}
330
1963
100
AcDbXrecord
280
     1
290
     1
  0
SORTENTSTABLE
  5
1C1F
102
{ACAD_REACTORS
330
1C1E
102
}
330
1C1E
100
AcDbSortentsTable
330
D1
331
1BBE
  5
1EE2
331
1CF6
  5
1C7C
331
1B10
  5
1E3F
331
1ABD
  5
1DE3
331
1CF2
  5
1C77
331
2BA6
  5
2BA9
331
1C50
  5
1BD5
331
1B0C
  5
1E30
331
1CB3
  5
1C3C
331
1D9D
  5
1D24
331
2047
  5
204A
331
2BA2
  5
2BA5
331
2C4C
  5
2C4F
331
1C4C
  5
1BCF
331
1D99
  5
1D1E
331
1CEA
  5
1C75
331
2C48
  5
2C4B
331
2B9E
  5
2BA1
331
2BED
  5
2BF0
331
1C48
  5
1BCB
331
2B9A
  5
2B9D
331
2C44
  5
2C47
331
2C40
  5
2C43
331
1AB5
  5
1DDC
331
1B47
  5
1E74
331
1AB1
  5
1DD5
331
1B43
  5
1E67
331
1C0D
  5
1F31
331
1AAD
  5
1DD1
331
1B3F
  5
1E63
331
1B00
  5
1E26
331
1BAA
  5
1ECE
331
1D95
  5
1D1A
331
1CE6
  5
1C6D
331
1C44
  5
1BC7
331
1AA9
  5
1DCD
331
1AFC
  5
1E22
331
1BA6
  5
1ECA
331
1D91
  5
1D16
331
1CE2
  5
1C68
331
1DFC
  5
1DB1
331
2B96
  5
2B99
331
1C40
  5
1BC4
331
1DF8
  5
1D7D
331
2B92
  5
2B95
331
2C3C
  5
2C3F
331
1C38
  5
1BBB
331
1CDA
  5
1C61
331
2C38
  5
2C3B
331
2B8E
  5
2B91
331
2BD5
  5
2BD8
331
2B8A
  5
2B8D
331
2C34
  5
2C37
331
2C30
  5
2C33
331
1AA5
  5
1DC9
331
1B37
  5
1E5E
331
1AA1
  5
1DC5
331
1AF4
  5
1E1E
331
1B2F
  5
1E56
331
1C34
  5
1BB8
331
1CD6
  5
1C5B
331
1EE7
  5
1B48
331
1A99
  5
1DBF
331
1C6F
  5
1BF6
331
1C30
  5
1BB3
331
2BC5
  5
2BC8
331
2B86
  5
2B89
331
1AD0
  5
1E16
331
1B62
  5
1E89
331
1C6B
  5
1BF0
331
1C2C
  5
1BAF
331
1D0D
  5
1D09
331
1DD0
  5
1D55
331
2C2C
  5
2C2F
331
1D09
  5
1C8F
331
1E63
  5
1AC4
331
275E
  5
2978
331
2D67
  5
2D68
331
1DCC
  5
1D51
331
2C00
  5
2C03
331
1A95
  5
1DB9
331
1A91
  5
1DB5
331
1C67
  5
1BEA
331
1B1F
  5
1E4E
331
1AC8
  5
1DF1
331
1C63
  5
1BE6
331
1C24
  5
1BA7
331
1CC6
  5
1C4B
331
1E5F
  5
1AC0
331
1D05
  5
1C8B
331
1B5A
  5
1E80
331
1AC4
  5
1DEA
331
1B56
  5
1E7C
331
1C5F
  5
1BE2
331
1C20
  5
1BA3
331
1D01
  5
1C88
331
1E5B
  5
1ABC
331
1DAC
  5
1D4C
331
232E
  5
2976
331
2C5F
  5
2C5F
331
1B52
  5
1E76
331
1C5B
  5
1BDE
331
1C1C
  5
2046
331
1CFD
  5
1C83
331
1E57
  5
1AB8
331
1DA8
  5
1D2D
331
2BB1
  5
2BB4
331
2C5B
  5
2C5B
331
1BC1
  5
1EE7
331
1C18
  5
1F3E
331
1CBA
  5
1C49
331
2C57
  5
1BA2
331
204A
  5
232C
331
2C53
  5
2C56
331
2BF4
  5
2BF7
331
2BA9
  5
2BAC
331
1BBD
  5
1EE1
331
1C57
  5
1BDA
331
1ABC
  5
1DE0
331
1BB9
  5
1EDF
331
1CF5
  5
1C7A
331
1B0F
  5
1E3E
331
1AB8
  5
1DDD
331
1B0B
  5
1E2F
331
1BB5
  5
1EDD
331
1C4F
  5
1BD2
331
2C4F
  5
2C52
331
1C10
  5
1F3C
331
1CB2
  5
1C3A
331
1C4B
  5
1BCE
331
1D9C
  5
1D23
331
2046
  5
2049
331
2BA1
  5
2BA4
331
2C4B
  5
2C4E
331
1D98
  5
1D1D
331
1CE9
  5
1C74
331
1E33
  5
1A94
331
2B9D
  5
2BA0
331
2C47
  5
2C4A
331
2BEC
  5
2BEF
331
2B99
  5
2B9C
331
2C43
  5
2C46
331
1AB4
  5
1DDB
331
1B46
  5
1E73
331
1AB0
  5
1DD4
331
1B42
  5
1E66
331
1BAD
  5
1ED9
331
1CAE
  5
1C35
331
1C47
  5
1BCA
331
1BA9
  5
1ECD
331
1C43
  5
1BC6
331
1D94
  5
1D19
331
1AAC
  5
1DD0
331
1AA8
  5
1DCC
331
1B3A
  5
1E61
331
1C3F
  5
1BC3
331
1D90
  5
1D15
331
1DFB
  5
1DB0
331
2B95
  5
2B98
331
2C3F
  5
2C42
331
1CE1
  5
1C66
331
1BF8
  5
1F30
331
1C3B
  5
1BC0
331
1CDD
  5
1C63
331
1DF7
  5
1D7C
331
2B91
  5
2B94
331
2C3B
  5
2C3E
331
2BD8
  5
2BDB
331
1D8C
  5
1D13
331
1CD9
  5
1C5F
331
2B8D
  5
2B90
331
2C37
  5
2C3A
331
1D88
  5
1D11
331
2B89
  5
2B8C
331
2C33
  5
2C36
331
1AA4
  5
1DC8
331
1AA0
  5
1DC4
331
1B32
  5
1E5A
331
1C76
  5
1C2F
331
1C37
  5
1BBA
331
1BF0
  5
1F19
331
1B69
  5
1EC8
331
1C33
  5
1BB7
331
1CD5
  5
1C5A
331
1EE6
  5
1B47
331
1B2E
  5
1E53
331
1A98
  5
1DBC
331
1C2F
  5
1BB2
331
1DD3
  5
1D7A
331
2C2F
  5
2C32
331
1C6A
  5
1BEF
331
1C2B
  5
1BAE
331
1D0C
  5
1D08
331
1DCF
  5
1D54
331
2BC0
  5
2BC3
331
2C2B
  5
2C2E
331
1CC9
  5
1C59
331
1A94
  5
1DB8
331
1B26
  5
1E50
331
1A90
  5
1DB4
331
1C66
  5
1BE9
331
1C27
  5
1BAC
331
1B5D
  5
1E83
331
1B1E
  5
1E47
331
1BC8
  5
1F11
331
1C62
  5
1BE5
331
1C23
  5
1BA6
331
1AC7
  5
1DEF
331
1AC3
  5
1DE9
331
1B55
  5
1E7B
331
1C5E
  5
1BE1
331
1E5A
  5
1ABB
331
1DAB
  5
1D30
331
232D
  5
275E
331
2C5E
  5
2C5E
331
2BFF
  5
2C02
331
1D00
  5
1C87
331
1BC0
  5
1EE4
331
1C5A
  5
1BDD
331
1C1B
  5
2045
331
1CFC
  5
1C82
331
1E56
  5
1AB7
331
2C5A
  5
2C5A
331
1CF8
  5
1C7E
331
1DA3
  5
1D2B
331
2BF7
  5
2BFA
331
2049
  5
232B
331
2C52
  5
2C55
331
2BF3
  5
2BF6
331
2BA8
  5
2BAB
331
1BBC
  5
1EE0
331
1C56
  5
1BD9
331
1ABF
  5
1DE5
331
1ABB
  5
1DDF
331
1B0E
  5
1E32
331
1BB8
  5
1EDE
331
1C52
  5
1BD7
331
1CF4
  5
1C79
331
1C17
  5
1F3D
331
1B49
  5
1E75
331
1B0A
  5
1E2E
331
1BB4
  5
1EDA
331
1C4E
  5
1BD1
331
2BA4
  5
2BA7
331
2C4E
  5
2C51
331
1CB1
  5
1C36
331
1C4A
  5
1BCD
331
1D9B
  5
1D20
331
2045
  5
2048
331
2BA0
  5
2BA3
331
2C4A
  5
2C4D
331
2B9C
  5
2B9F
331
2C46
  5
2C49
331
2BEB
  5
2BEE
331
2B98
  5
2B9B
331
2C42
  5
2C45
331
1AB3
  5
1DD9
331
1B45
  5
1E6A
331
1B06
  5
1E2C
331
1C0F
  5
1F39
331
1B41
  5
1E65
331
1B02
  5
1E2A
331
1BAC
  5
1ED6
331
1CAD
  5
1C34
331
1C46
  5
1BC9
331
1D97
  5
1D1C
331
1AAF
  5
1DD3
331
1AAB
  5
1DCF
331
1BA8
  5
1ECC
331
1C42
  5
1BC5
331
1D93
  5
1D18
331
1CE4
  5
1C6C
331
1B3D
  5
1E62
331
1B39
  5
1E60
331
1DFA
  5
1DAF
331
2B94
  5
2B97
331
2C3E
  5
2C41
331
1CE0
  5
1C65
331
1D8F
  5
1D14
331
1C79
  5
1C33
331
1C3A
  5
1BBF
331
1D8B
  5
1D12
331
2B90
  5
2B93
331
2C3A
  5
2C3D
331
2BD7
  5
2BDA
331
1CD8
  5
1C5D
331
2B8C
  5
2B8F
331
2C36
  5
2C39
331
2B88
  5
2B8B
331
2C32
  5
2C35
331
1AA7
  5
1DCB
331
1AA3
  5
1DC7
331
1B35
  5
1E5B
331
1BF7
  5
1F2F
331
1A9F
  5
1DC3
331
1D87
  5
1D0E
331
1A9B
  5
1DC1
331
1B2D
  5
1E51
331
1C71
  5
1BF9
331
1C32
  5
1BB5
331
1EE5
  5
1B46
331
2BC7
  5
2BCA
331
1B68
  5
1EC7
331
1B64
  5
1E8A
331
1C2E
  5
1BB1
331
2C2E
  5
2C31
331
1B60
  5
1E88
331
1C69
  5
1BEC
331
1C2A
  5
1BAD
331
1D0B
  5
1C90
331
2BBF
  5
2BC2
331
1DCE
  5
1D53
331
1CC8
  5
1C58
331
1E61
  5
1AC2
331
1A97
  5
1DBB
331
1A93
  5
1DB7
331
1ACE
  5
1E15
331
1C65
  5
1BE8
331
1C26
  5
1BAB
331
1D07
  5
1C8E
331
1A8F
  5
1DB3
331
1B1D
  5
1E41
331
1C61
  5
1BE4
331
1C22
  5
1BA5
331
1D03
  5
1C89
331
1BC7
  5
1F0F
331
1AC2
  5
1DE8
331
1B54
  5
1E78
331
1C5D
  5
1BE0
331
1E59
  5
1ABA
331
1DAA
  5
1D2F
331
2C5D
  5
2C5D
331
2BFE
  5
2C01
331
232C
  5
232F
331
1CFF
  5
1C85
331
1BC3
  5
1EE9
331
1C59
  5
1BDC
331
1CFB
  5
1C81
331
2C59
  5
2C59
331
1DA6
  5
1D2C
331
1CB8
  5
1C48
331
2C55
  5
1B65
331
2BF6
  5
2BF9
331
1DA2
  5
1D2A
331
2C51
  5
2C54
331
2BF2
  5
2BF5
331
2048
  5
204B
331
1BBF
  5
1EE3
331
1B11
  5
1E40
331
1C55
  5
1BD8
331
1CF7
  5
1C7D
331
1ABE
  5
1DE4
331
1ABA
  5
1DDE
331
1C51
  5
1BD6
331
1CF3
  5
1C78
331
2BA7
  5
2BAA
331
1E4D
  5
1AAE
331
1B0D
  5
1E31
331
1B09
  5
1E2D
331
1CB4
  5
1C3D
331
1C4D
  5
1BD0
331
2BA3
  5
2BA6
331
2C4D
  5
2C50
331
1D9E
  5
1D25
331
1C49
  5
1BCC
331
1D9A
  5
1D1F
331
2C49
  5
2C4C
331
2B9F
  5
2BA2
331
1CEB
  5
1C76
331
2B9B
  5
2B9E
331
2C45
  5
2C48
331
2BEA
  5
2BED
331
1E31
  5
1A92
331
2C41
  5
2C44
331
1AB2
  5
1DD6
331
1B44
  5
1E68
331
1B05
  5
1E2B
331
1C0E
  5
1F38
331
1B40
  5
1E64
331
1B01
  5
1E27
331
1BAB
  5
1ED5
331
1C45
  5
1BC8
331
1D96
  5
1D1B
331
1AAE
  5
1DD2
331
1AAA
  5
1DCE
331
1AFD
  5
1E23
331
1BA7
  5
1ECB
331
1D92
  5
1D17
331
2B97
  5
2B9A
331
1CE3
  5
1C6B
331
1C3D
  5
1BC2
331
1CDF
  5
1C64
331
2B93
  5
2B96
331
2C3D
  5
2C40
331
1DF9
  5
1D7E
331
1C78
  5
1C30
331
1C39
  5
1BBD
331
2C39
  5
2C3C
331
2B8F
  5
2B92
331
2BD6
  5
2BD9
331
1CDB
  5
1C62
331
1EE8
  5
1B49
331
2B8B
  5
2B8E
331
2C35
  5
2C38
331
2C31
  5
2C34
331
1AA6
  5
1DCA
331
1AA2
  5
1DC6
331
1AF5
  5
1E21
331
1B30
  5
1E58
331
1BF2
  5
1F2E
331
1B6B
  5
1EC9
331
1CD7
  5
1C5C
331
1C35
  5
1BB9
331
1A9E
  5
1DC2
331
1A9A
  5
1DC0
331
1C70
  5
1BF8
331
2BC6
  5
2BC9
331
2B87
  5
2B8A
331
1C31
  5
1BB4
331
1B67
  5
1E8C
331
1BEE
  5
1F18
331
1AD1
  5
1E1D
331
1C6C
  5
1BF1
331
1D0E
  5
1D0A
331
1DD1
  5
1D56
331
2C2D
  5
2C30
331
1C2D
  5
1BB0
331
1DCD
  5
1D52
331
2D68
  5
2D67
331
1C68
  5
1BEB
331
1E60
  5
1AC1
331
1A96
  5
1DBA
331
1A92
  5
1DB6
331
1B5F
  5
1E85
331
1B20
  5
1E4F
331
1BCA
  5
1F13
331
1C64
  5
1BE7
331
1D06
  5
1C8D
331
1CC7
  5
1C57
331
1C25
  5
1BAA
331
1B5B
  5
1E81
331
1AC9
  5
1DF2
331
1A8E
  5
1DB2
331
1C60
  5
1BE3
331
1E5C
  5
1ABD
331
1DAD
  5
1D4D
331
232F
  5
2977
331
1C21
  5
1BA4
331
1B57
  5
1E7E
331
1BC6
  5
1EEB
331
1B53
  5
1E77
331
1C5C
  5
1BDF
331
1E58
  5
1AB9
331
1DA9
  5
1D2E
331
232B
  5
232E
331
2C5C
  5
2C5C
331
2BFD
  5
2C00
331
1C1D
  5
2047
331
1BC2
  5
1EE8
331
1CFA
  5
1C7F
331
2C58
  5
2C58
331
1CBB
  5
1C4A
331
1C58
  5
1BDB
331
1DA1
  5
1D28
331
204B
  5
232D
331
2C54
  5
2C57
331
2C50
  5
2C53
331
2BF1
  5
2BF4
  0
XRECORD
  5
31AC
102
{ACAD_REACTORS
330
31AB
102
}
330
31AB
100
AcDbXrecord
280
     1
 70
     1
  0
XRECORD
  5
31AF
102
{ACAD_REACTORS
330
31AB
102
}
330
31AB
100
AcDbXrecord
280
     1
340
28
  0
XRECORD
  5
31B0
102
{ACAD_REACTORS
330
31AB
102
}
330
31AB
100
AcDbXrecord
280
     1
340
28
  0
XRECORD
  5
31AE
102
{ACAD_REACTORS
330
31AB
102
}
330
31AB
100
AcDbXrecord
280
     1
340
28
  0
XRECORD
  5
31AD
102
{ACAD_REACTORS
330
31AB
102
}
330
31AB
100
AcDbXrecord
280
     1
 70
     1
  0
ACAD_PROXY_OBJECT
  5
315E
102
{ACAD_REACTORS
330
315D
102
}
330
315D
100
AcDbProxyObject
 90
      499
 91
      584
 95
  6815769
 70
     0
 93
     1145
310
9094D6574726963353000481C000000600000000000000002881403000000180000000000000000A2023300000018001000000180000000000000000A20400000000000017202029C129E2E20B1AB30B9102B34B2BBA232BA30B4B624B21F129014129E2E20B1AB30B9102B34B2BBA9B1B0B632902E33101112B9B7111F129
310
480233000000180008CC0000006000004C
340
23
340
0
340
28
340
23
340
28
340
28
 94
        0
  0
LAYOUT
  5
184E
102
{ACAD_REACTORS
330
184C
102
}
330
184C
100
AcDbPlotSettings
  1

  2
iR C4580
  4

  6

 40
0.0
 41
0.0
 42
0.0
 43
0.0
 44
0.0
 45
0.0
 46
0.0
 47
0.0
 48
0.0
 49
0.0
140
0.0
141
0.0
142
1.0
143
1.0
 70
  1712
 72
     0
 73
     0
 74
     0
  7

 75
     0
147
1.0
 76
     0
 77
     2
 78
   300
148
0.0
149
0.0
100
AcDbLayout
  1
Model
 70
     1
 71
     0
 10
0.0
 20
0.0
 11
12.0
 21
9.0
 12
0.0
 22
0.0
 32
0.0
 14
0.0
 24
0.0
 34
0.0
 15
0.0
 25
0.0
 35
0.0
146
0.0
 13
0.0
 23
0.0
 33
0.0
 16
1.0
 26
0.0
 36
0.0
 17
0.0
 27
1.0
 37
0.0
 76
     0
330
D1
331
1855
  0
LAYOUT
  5
184F
102
{ACAD_REACTORS
330
184C
102
}
330
184C
100
AcDbPlotSettings
  1

  2
iR C4580
  4

  6

 40
0.0
 41
0.0
 42
0.0
 43
0.0
 44
0.0
 45
0.0
 46
0.0
 47
0.0
 48
0.0
 49
0.0
140
0.0
141
0.0
142
1.0
143
1.0
 70
   688
 72
     0
 73
     0
 74
     5
  7

 75
    16
147
1.0
 76
     0
 77
     2
 78
   300
148
0.0
149
0.0
100
AcDbLayout
  1
レイアウト1
 70
     1
 71
     1
 10
-2550.0
 20
0.0
 11
0.0
 21
1800.0
 12
0.0
 22
0.0
 32
0.0
 14
-2550.0
 24
0.0
 34
0.0
 15
0.0
 25
1800.0
 35
0.0
146
0.0
 13
0.0
 23
0.0
 33
0.0
 16
1.0
 26
0.0
 36
0.0
 17
0.0
 27
1.0
 37
0.0
 76
     0
330
D2
  0
MATERIAL
  5
180B
102
{ACAD_XDICTIONARY
360
180C
102
}
102
{ACAD_REACTORS
330
1802
102
}
330
1802
100
AcDbMaterial
  1
ByBlock
 72
     0
 43
0.0208333333333333
 43
0.0
 43
0.0
 43
0.0
 43
0.0
 43
0.0208333333333333
 43
0.0
 43
0.0
 43
0.0
 43
0.0
 43
1.0
 43
0.0
 43
0.0
 43
0.0
 43
0.0
 43
1.0
 77
     0
 47
0.0208333333333333
 47
0.0
 47
0.0
 47
0.0
 47
0.0
 47
0.0208333333333333
 47
0.0
 47
0.0
 47
0.0
 47
0.0
 47
1.0
 47
0.0
 47
0.0
 47
0.0
 47
0.0
 47
1.0
171
     0
 49
0.0208333333333333
 49
0.0
 49
0.0
 49
0.0
 49
0.0
 49
0.0208333333333333
 49
0.0
 49
0.0
 49
0.0
 49
0.0
 49
1.0
 49
0.0
 49
0.0
 49
0.0
 49
0.0
 49
1.0
175
     0
142
0.0208333333333333
142
0.0
142
0.0
142
0.0
142
0.0
142
0.0208333333333333
142
0.0
142
0.0
142
0.0
142
0.0
142
1.0
142
0.0
142
0.0
142
0.0
142
0.0
142
1.0
179
     0
144
0.0208333333333333
144
0.0
144
0.0
144
0.0
144
0.0
144
0.0208333333333333
144
0.0
144
0.0
144
0.0
144
0.0
144
1.0
144
0.0
144
0.0
144
0.0
144
0.0
144
1.0
147
0.0208333333333333
147
0.0
147
0.0
147
0.0
147
0.0
147
0.0208333333333333
147
0.0
147
0.0
147
0.0
147
0.0
147
1.0
147
0.0
147
0.0
147
0.0
147
0.0
147
1.0
  0
MATERIAL
  5
1803
102
{ACAD_XDICTIONARY
360
1804
102
}
102
{ACAD_REACTORS
330
1802
102
}
330
1802
100
AcDbMaterial
  1
ByLayer
 72
     0
 43
0.0208333333333333
 43
0.0
 43
0.0
 43
0.0
 43
0.0
 43
0.0208333333333333
 43
0.0
 43
0.0
 43
0.0
 43
0.0
 43
1.0
 43
0.0
 43
0.0
 43
0.0
 43
0.0
 43
1.0
 77
     0
 47
0.0208333333333333
 47
0.0
 47
0.0
 47
0.0
 47
0.0
 47
0.0208333333333333
 47
0.0
 47
0.0
 47
0.0
 47
0.0
 47
1.0
 47
0.0
 47
0.0
 47
0.0
 47
0.0
 47
1.0
171
     0
 49
0.0208333333333333
 49
0.0
 49
0.0
 49
0.0
 49
0.0
 49
0.0208333333333333
 49
0.0
 49
0.0
 49
0.0
 49
0.0
 49
1.0
 49
0.0
 49
0.0
 49
0.0
 49
0.0
 49
1.0
175
     0
142
0.0208333333333333
142
0.0
142
0.0
142
0.0
142
0.0
142
0.0208333333333333
142
0.0
142
0.0
142
0.0
142
0.0
142
1.0
142
0.0
142
0.0
142
0.0
142
0.0
142
1.0
179
     0
144
0.0208333333333333
144
0.0
144
0.0
144
0.0
144
0.0
144
0.0208333333333333
144
0.0
144
0.0
144
0.0
144
0.0
144
1.0
144
0.0
144
0.0
144
0.0
144
0.0
144
1.0
147
0.0208333333333333
147
0.0
147
0.0
147
0.0
147
0.0
147
0.0208333333333333
147
0.0
147
0.0
147
0.0
147
0.0
147
1.0
147
0.0
147
0.0
147
0.0
147
0.0
147
1.0
  0
MATERIAL
  5
1813
102
{ACAD_XDICTIONARY
360
1814
102
}
102
{ACAD_REACTORS
330
1802
102
}
330
1802
100
AcDbMaterial
  1
Global
 72
     0
 43
0.0208333333333333
 43
0.0
 43
0.0
 43
0.0
 43
0.0
 43
0.0208333333333333
 43
0.0
 43
0.0
 43
0.0
 43
0.0
 43
1.0
 43
0.0
 43
0.0
 43
0.0
 43
0.0
 43
1.0
 77
     0
 47
0.0208333333333333
 47
0.0
 47
0.0
 47
0.0
 47
0.0
 47
0.0208333333333333
 47
0.0
 47
0.0
 47
0.0
 47
0.0
 47
1.0
 47
0.0
 47
0.0
 47
0.0
 47
0.0
 47
1.0
171
     0
 49
0.0208333333333333
 49
0.0
 49
0.0
 49
0.0
 49
0.0
 49
0.0208333333333333
 49
0.0
 49
0.0
 49
0.0
 49
0.0
 49
1.0
 49
0.0
 49
0.0
 49
0.0
 49
0.0
 49
1.0
175
     0
142
0.0208333333333333
142
0.0
142
0.0
142
0.0
142
0.0
142
0.0208333333333333
142
0.0
142
0.0
142
0.0
142
0.0
142
1.0
142
0.0
142
0.0
142
0.0
142
0.0
142
1.0
179
     0
144
0.0208333333333333
144
0.0
144
0.0
144
0.0
144
0.0
144
0.0208333333333333
144
0.0
144
0.0
144
0.0
144
0.0
144
1.0
144
0.0
144
0.0
144
0.0
144
0.0
144
1.0
147
0.0208333333333333
147
0.0
147
0.0
147
0.0
147
0.0
147
0.0208333333333333
147
0.0
147
0.0
147
0.0
147
0.0
147
1.0
147
0.0
147
0.0
147
0.0
147
0.0
147
1.0
  0
MLEADERSTYLE
  5
184A
102
{ACAD_XDICTIONARY
360
319C
102
}
102
{ACAD_REACTORS
330
1849
102
}
330
1849
100
AcDbMLeaderStyle
170
     2
171
     1
172
     0
 90
        2
 40
0.0
 41
0.0
173
     1
 91
-1056964608
340
26
 92
       -2
290
     1
 42
2.0
291
     1
 43
0.36
  3
Standard
 44
4.0
300

342
23
174
     1
178
     6
175
     1
176
     0
 93
-1056964608
 45
4.0
292
     0
297
     0
 46
4.0
 94
-1056964608
 47
1.0
 49
1.0
140
1.0
293
     1
141
0.0
294
     1
177
     0
142
1.0
295
     0
296
     0
143
0.125
1001
ACAD_MLEADERVER
1070
     2
  0
MLINESTYLE
  5
17FD
102
{ACAD_REACTORS
330
17FC
102
}
330
17FC
100
AcDbMlineStyle
  2
STANDARD
 70
     0
  3

 62
     0
 51
90.0
 52
90.0
 71
     2
 49
0.5
 62
   256
  6
BYLAYER
 49
-0.5
 62
   256
  6
BYLAYER
  0
ACDBPLACEHOLDER
  5
1801
102
{ACAD_REACTORS
330
1800
102
}
330
1800
  0
SCALE
  5
1838
102
{ACAD_REACTORS
330
1837
102
}
330
1837
100
AcDbScale
 70
     0
300
1:1
140
1.0
141
1.0
290
     1
  0
SCALE
  5
1839
102
{ACAD_REACTORS
330
1837
102
}
330
1837
100
AcDbScale
 70
     0
300
1:2
140
1.0
141
2.0
290
     0
  0
SCALE
  5
183A
102
{ACAD_REACTORS
330
1837
102
}
330
1837
100
AcDbScale
 70
     0
300
1:4
140
1.0
141
4.0
290
     0
  0
SCALE
  5
183B
102
{ACAD_REACTORS
330
1837
102
}
330
1837
100
AcDbScale
 70
     0
300
1:5
140
1.0
141
5.0
290
     0
  0
SCALE
  5
183C
102
{ACAD_REACTORS
330
1837
102
}
330
1837
100
AcDbScale
 70
     0
300
1:8
140
1.0
141
8.0
290
     0
  0
SCALE
  5
183D
102
{ACAD_REACTORS
330
1837
102
}
330
1837
100
AcDbScale
 70
     0
300
1:10
140
1.0
141
10.0
290
     0
  0
SCALE
  5
183E
102
{ACAD_REACTORS
330
1837
102
}
330
1837
100
AcDbScale
 70
     0
300
1:16
140
1.0
141
16.0
290
     0
  0
SCALE
  5
183F
102
{ACAD_REACTORS
330
1837
102
}
330
1837
100
AcDbScale
 70
     0
300
1:20
140
1.0
141
20.0
290
     0
  0
SCALE
  5
1840
102
{ACAD_REACTORS
330
1837
102
}
330
1837
100
AcDbScale
 70
     0
300
1:30
140
1.0
141
30.0
290
     0
  0
SCALE
  5
1841
102
{ACAD_REACTORS
330
1837
102
}
330
1837
100
AcDbScale
 70
     0
300
1:40
140
1.0
141
40.0
290
     0
  0
SCALE
  5
1842
102
{ACAD_REACTORS
330
1837
102
}
330
1837
100
AcDbScale
 70
     0
300
1:50
140
1.0
141
50.0
290
     0
  0
SCALE
  5
1843
102
{ACAD_REACTORS
330
1837
102
}
330
1837
100
AcDbScale
 70
     0
300
1:100
140
1.0
141
100.0
290
     0
  0
SCALE
  5
1844
102
{ACAD_REACTORS
330
1837
102
}
330
1837
100
AcDbScale
 70
     0
300
2:1
140
2.0
141
1.0
290
     0
  0
SCALE
  5
1845
102
{ACAD_REACTORS
330
1837
102
}
330
1837
100
AcDbScale
 70
     0
300
4:1
140
4.0
141
1.0
290
     0
  0
SCALE
  5
1846
102
{ACAD_REACTORS
330
1837
102
}
330
1837
100
AcDbScale
 70
     0
300
8:1
140
8.0
141
1.0
290
     0
  0
SCALE
  5
1847
102
{ACAD_REACTORS
330
1837
102
}
330
1837
100
AcDbScale
 70
     0
300
10:1
140
10.0
141
1.0
290
     0
  0
SCALE
  5
1848
102
{ACAD_REACTORS
330
1837
102
}
330
1837
100
AcDbScale
 70
     0
300
100:1
140
100.0
141
1.0
290
     0
  0
ACAD_PROXY_OBJECT
  5
315C
102
{ACAD_REACTORS
330
315B
102
}
330
315B
100
AcDbProxyObject
 90
      499
 91
      583
 95
  6815769
 70
     0
 93
     2325
310
9094D65747269633530004B34000000600000000000000002881000000180000000000000000A202229258409E5840A25840A65840B05840B4000000000000001220233000000180009940000006000000000000000028800000000000000A20400000060000000000000000288100000000000005C8080AB44A78B882C6AC
310
C2E440ACD2CAEEA6CAC6E8D2DEDCA6E8C2E4E892C87C4A5A4A78B882C6ACC2E440ACD2CAEEA6CAC6E8D2DEDC8ADCC892C87C4A40504A78B882C6ACC2E440ACD2CAEEA6C6C2D8CA40B8CC40444AE6DC447C4A5201000000180010000001900083A0A729A49998803100000000000000881000000000000008808340C16A22A7
310
D90FC9F8CAE65A70A583A07E1FE81C635378FA1F8CAE65A70A583A17E7944A7F127A97E9FC
340
23
340
0
340
0
340
28
340
28
340
23
 94
        0
  0
TABLESTYLE
  5
1836
102
{ACAD_XDICTIONARY
360
199A
102
}
102
{ACAD_REACTORS
330
1835
102
}
330
1835
100
AcDbTableStyle
  3
Standard
 70
     0
 71
     0
 40
1.5
 41
1.5
280
     0
281
     0
  7
STANDARD
140
4.5
170
     2
 62
     0
 63
     7
283
     0
274
    -2
284
     1
 64
     0
275
    -2
285
     1
 65
     0
276
    -2
286
     1
 66
     0
277
    -2
287
     1
 67
     0
278
    -2
288
     1
 68
     0
279
    -2
289
     1
 69
     0
  7
STANDARD
140
6.0
170
     5
 62
     0
 63
     7
283
     0
274
    -2
284
     1
 64
     0
275
    -2
285
     1
 65
     0
276
    -2
286
     1
 66
     0
277
    -2
287
     1
 67
     0
278
    -2
288
     1
 68
     0
279
    -2
289
     1
 69
     0
  7
STANDARD
140
4.5
170
     5
 62
     0
 63
     7
283
     0
274
    -2
284
     1
 64
     0
275
    -2
285
     1
 65
     0
276
    -2
286
     1
 66
     0
277
    -2
287
     1
 67
     0
278
    -2
288
     1
 68
     0
279
    -2
289
     1
 69
     0
  0
VISUALSTYLE
  5
1821
102
{ACAD_XDICTIONARY
360
3175
102
}
102
{ACAD_REACTORS
330
181B
102
}
330
181B
100
AcDbVisualStyle
  2
2dWireframe
 70
     4
 71
     0
 72
     2
 73
     0
 90
        0
 40
-0.6
 41
-30.0
 62
     5
 63
     7
 74
     1
 91
        4
 64
     7
 65
   257
 75
     1
175
     1
 42
1.0
 92
        0
 66
   257
 43
1.0
 76
     1
 77
     6
 78
     2
 67
     7
 79
     5
170
     0
171
     0
290
     0
174
     0
 93
        1
 44
0.0
173
     0
291
     0
 45
0.0
1001
ACAD
1000
AcDbSavedByObjectVersion
1070
     0
  0
VISUALSTYLE
  5
31A3
102
{ACAD_XDICTIONARY
360
31B7
102
}
102
{ACAD_REACTORS
330
181B
102
}
330
181B
100
AcDbVisualStyle
  2
3D Hidden
 70
     6
 71
     1
 72
     2
 73
     2
 90
        0
 40
-0.6
 41
-30.0
 62
     5
 63
     7
421
 16777215
 74
     2
 91
        2
 64
     7
 65
   257
 75
     2
175
     1
 42
179.0
 92
        0
 66
   257
 43
1.0
 76
     1
 77
     6
 78
     2
 67
     7
 79
     3
170
     0
171
     0
290
     0
174
     0
 93
        1
 44
0.0
173
     0
291
     0
 45
0.0
1001
ACAD
1000
AcDbSavedByObjectVersion
1070
     0
  0
VISUALSTYLE
  5
31A2
102
{ACAD_XDICTIONARY
360
31B5
102
}
102
{ACAD_REACTORS
330
181B
102
}
330
181B
100
AcDbVisualStyle
  2
3dWireframe
 70
     5
 71
     0
 72
     2
 73
     0
 90
        0
 40
-0.6
 41
-30.0
 62
     5
 63
     7
421
 16777215
 74
     1
 91
        4
 64
     7
 65
   257
 75
     1
175
     1
 42
1.0
 92
        0
 66
   257
 43
1.0
 76
     1
 77
     6
 78
     2
 67
     7
 79
     5
170
     0
171
     0
290
     0
174
     0
 93
        1
 44
0.0
173
     0
291
     0
 45
0.0
1001
ACAD
1000
AcDbSavedByObjectVersion
1070
     0
  0
VISUALSTYLE
  5
1820
102
{ACAD_XDICTIONARY
360
3173
102
}
102
{ACAD_REACTORS
330
181B
102
}
330
181B
100
AcDbVisualStyle
  2
Basic
 70
     7
 71
     1
 72
     0
 73
     1
 90
        0
 40
-0.6
 41
-30.0
 62
     5
 63
     7
 74
     0
 91
        4
 64
     7
 65
   257
 75
     1
175
     1
 42
1.0
 92
        8
 66
     7
 43
1.0
 76
     1
 77
     6
 78
     2
 67
     7
 79
     5
170
     0
171
     0
290
     0
174
     0
 93
        1
 44
0.0
173
     0
291
     1
 45
0.0
1001
ACAD
1000
AcDbSavedByObjectVersion
1070
     0
  0
VISUALSTYLE
  5
1827
102
{ACAD_XDICTIONARY
360
3181
102
}
102
{ACAD_REACTORS
330
181B
102
}
330
181B
100
AcDbVisualStyle
  2
Brighten
 70
    12
 71
     2
 72
     2
 73
     0
 90
        0
 40
-0.6
 41
-30.0
 62
     5
 63
     7
 74
     1
 91
        4
 64
     7
 65
   257
 75
     1
175
     1
 42
1.0
 92
        8
 66
     7
 43
1.0
 76
     1
 77
     6
 78
     2
 67
     7
 79
     5
170
     0
171
     0
290
     0
174
     0
 93
        1
 44
50.0
173
     0
291
     1
 45
0.0
1001
ACAD
1000
AcDbSavedByObjectVersion
1070
     0
  0
VISUALSTYLE
  5
182B
102
{ACAD_XDICTIONARY
360
3189
102
}
102
{ACAD_REACTORS
330
181B
102
}
330
181B
100
AcDbVisualStyle
  2
ColorChange
 70
    16
 71
     2
 72
     2
 73
     3
 90
        0
 40
-0.6
 41
-30.0
 62
     5
 63
     8
 74
     1
 91
        4
 64
     7
 65
   257
 75
     1
175
     1
 42
1.0
 92
        8
 66
     8
 43
1.0
 76
     1
 77
     6
 78
     2
 67
     7
 79
     5
170
     0
171
     0
290
     0
174
     0
 93
        1
 44
0.0
173
     0
291
     1
 45
0.0
1001
ACAD
1000
AcDbSavedByObjectVersion
1070
     0
  0
VISUALSTYLE
  5
1824
102
{ACAD_XDICTIONARY
360
317B
102
}
102
{ACAD_REACTORS
330
181B
102
}
330
181B
100
AcDbVisualStyle
  2
Conceptual
 70
     9
 71
     3
 72
     2
 73
     0
 90
        0
 40
-0.6
 41
-30.0
 62
     5
 63
     7
 74
     2
 91
        2
 64
     7
 65
   257
 75
     1
175
     1
 42
179.0
 92
        8
 66
     7
 43
1.0
 76
     1
 77
     6
 78
     2
 67
     7
 79
     3
170
     0
171
     0
290
     0
174
     0
 93
        1
 44
0.0
173
     0
291
     0
 45
0.0
1001
ACAD
1000
AcDbSavedByObjectVersion
1070
     0
  0
VISUALSTYLE
  5
1826
102
{ACAD_XDICTIONARY
360
317F
102
}
102
{ACAD_REACTORS
330
181B
102
}
330
181B
100
AcDbVisualStyle
  2
Dim
 70
    11
 71
     2
 72
     2
 73
     0
 90
        0
 40
-0.6
 41
-30.0
 62
     5
 63
     7
 74
     1
 91
        4
 64
     7
 65
   257
 75
     1
175
     1
 42
1.0
 92
        8
 66
     7
 43
1.0
 76
     1
 77
     6
 78
     2
 67
     7
 79
     5
170
     0
171
     0
290
     0
174
     0
 93
        1
 44
-50.0
173
     0
291
     1
 45
0.0
1001
ACAD
1000
AcDbSavedByObjectVersion
1070
     0
  0
VISUALSTYLE
  5
1833
102
{ACAD_XDICTIONARY
360
3199
102
}
102
{ACAD_REACTORS
330
181B
102
}
330
181B
100
AcDbVisualStyle
  2
EdgeColorOff
 70
    22
 71
     2
 72
     2
 73
     0
 90
        0
 40
-0.6
 41
-30.0
 62
     5
 63
     7
 74
     1
 91
        4
 64
     7
 65
   257
 75
     1
175
     1
 42
1.0
 92
        8
 66
     7
 43
1.0
 76
     1
 77
     6
 78
     2
 67
     7
 79
     5
170
     0
171
     0
290
     0
174
     0
 93
        1
 44
0.0
173
     0
291
     1
 45
0.0
1001
ACAD
1000
AcDbSavedByObjectVersion
1070
     0
  0
VISUALSTYLE
  5
182A
102
{ACAD_XDICTIONARY
360
3187
102
}
102
{ACAD_REACTORS
330
181B
102
}
330
181B
100
AcDbVisualStyle
  2
Facepattern
 70
    15
 71
     2
 72
     2
 73
     0
 90
        0
 40
-0.6
 41
-30.0
 62
     5
 63
     7
 74
     1
 91
        4
 64
     7
 65
   257
 75
     1
175
     1
 42
1.0
 92
        8
 66
     7
 43
1.0
 76
     1
 77
     6
 78
     2
 67
     7
 79
     5
170
     0
171
     0
290
     0
174
     0
 93
        1
 44
0.0
173
     0
291
     1
 45
0.0
1001
ACAD
1000
AcDbSavedByObjectVersion
1070
     0
  0
VISUALSTYLE
  5
181C
102
{ACAD_XDICTIONARY
360
316B
102
}
102
{ACAD_REACTORS
330
181B
102
}
330
181B
100
AcDbVisualStyle
  2
Flat
 70
     0
 71
     2
 72
     1
 73
     1
 90
        2
 40
-0.6
 41
30.0
 62
     5
 63
     7
 74
     0
 91
        0
 64
     7
 65
   257
 75
     1
175
     1
 42
1.0
 92
        8
 66
     7
 43
1.0
 76
     1
 77
     6
 78
     2
 67
     7
 79
     5
170
     0
171
     0
290
     0
174
     0
 93
       13
 44
0.0
173
     0
291
     1
 45
0.0
1001
ACAD
1000
AcDbSavedByObjectVersion
1070
     0
  0
VISUALSTYLE
  5
181D
102
{ACAD_XDICTIONARY
360
316D
102
}
102
{ACAD_REACTORS
330
181B
102
}
330
181B
100
AcDbVisualStyle
  2
FlatWithEdges
 70
     1
 71
     2
 72
     1
 73
     1
 90
        2
 40
-0.6
 41
30.0
 62
     5
 63
     7
 74
     1
 91
        0
 64
     7
 65
   257
 75
     1
175
     1
 42
1.0
 92
        0
 66
   257
 43
1.0
 76
     1
 77
     6
 78
     2
 67
     7
 79
     5
170
     0
171
     0
290
     0
174
     0
 93
       13
 44
0.0
173
     0
291
     1
 45
0.0
1001
ACAD
1000
AcDbSavedByObjectVersion
1070
     0
  0
VISUALSTYLE
  5
181E
102
{ACAD_XDICTIONARY
360
316F
102
}
102
{ACAD_REACTORS
330
181B
102
}
330
181B
100
AcDbVisualStyle
  2
Gouraud
 70
     2
 71
     2
 72
     2
 73
     1
 90
        2
 40
-0.6
 41
30.0
 62
     5
 63
     7
 74
     0
 91
        0
 64
     7
 65
   257
 75
     1
175
     1
 42
1.0
 92
        0
 66
     7
 43
1.0
 76
     1
 77
     6
 78
     2
 67
     7
 79
     5
170
     0
171
     0
290
     0
174
     0
 93
       13
 44
0.0
173
     0
291
     1
 45
0.0
1001
ACAD
1000
AcDbSavedByObjectVersion
1070
     0
  0
VISUALSTYLE
  5
181F
102
{ACAD_XDICTIONARY
360
3171
102
}
102
{ACAD_REACTORS
330
181B
102
}
330
181B
100
AcDbVisualStyle
  2
GouraudWithEdges
 70
     3
 71
     2
 72
     2
 73
     1
 90
        2
 40
-0.6
 41
30.0
 62
     5
 63
     7
 74
     1
 91
        0
 64
     7
 65
   257
 75
     1
175
     1
 42
1.0
 92
        0
 66
   257
 43
1.0
 76
     1
 77
     6
 78
     2
 67
     7
 79
     5
170
     0
171
     0
290
     0
174
     0
 93
       13
 44
0.0
173
     0
291
     1
 45
0.0
1001
ACAD
1000
AcDbSavedByObjectVersion
1070
     0
  0
VISUALSTYLE
  5
1823
102
{ACAD_XDICTIONARY
360
3179
102
}
102
{ACAD_REACTORS
330
181B
102
}
330
181B
100
AcDbVisualStyle
  2
Hidden
 70
     6
 71
     1
 72
     2
 73
     2
 90
        0
 40
-0.6
 41
-30.0
 62
     5
 63
     7
 74
     2
 91
        2
 64
     7
 65
   257
 75
     2
175
     1
 42
40.0
 92
        0
 66
   257
 43
1.0
 76
     1
 77
     6
 78
     2
 67
     7
 79
     3
170
     0
171
     0
290
     0
174
     0
 93
        1
 44
0.0
173
     0
291
     0
 45
0.0
1001
ACAD
1000
AcDbSavedByObjectVersion
1070
     0
  0
VISUALSTYLE
  5
1831
102
{ACAD_XDICTIONARY
360
3195
102
}
102
{ACAD_REACTORS
330
181B
102
}
330
181B
100
AcDbVisualStyle
  2
JitterOff
 70
    20
 71
     2
 72
     2
 73
     0
 90
        0
 40
-0.6
 41
-30.0
 62
     5
 63
     7
 74
     1
 91
        4
 64
     7
 65
   257
 75
     1
175
     1
 42
1.0
 92
       10
 66
     7
 43
1.0
 76
     1
 77
     6
 78
     2
 67
     7
 79
     5
170
     0
171
     0
290
     0
174
     0
 93
        1
 44
0.0
173
     0
291
     1
 45
0.0
1001
ACAD
1000
AcDbSavedByObjectVersion
1070
     0
  0
VISUALSTYLE
  5
1829
102
{ACAD_XDICTIONARY
360
3185
102
}
102
{ACAD_REACTORS
330
181B
102
}
330
181B
100
AcDbVisualStyle
  2
Linepattern
 70
    14
 71
     2
 72
     2
 73
     0
 90
        0
 40
-0.6
 41
-30.0
 62
     5
 63
     7
 74
     1
 91
        4
 64
     7
 65
   257
 75
     7
175
     7
 42
1.0
 92
        8
 66
     7
 43
1.0
 76
     1
 77
     6
 78
     2
 67
     7
 79
     5
170
     0
171
     0
290
     0
174
     0
 93
        1
 44
0.0
173
     0
291
     1
 45
0.0
1001
ACAD
1000
AcDbSavedByObjectVersion
1070
     0
  0
VISUALSTYLE
  5
1832
102
{ACAD_XDICTIONARY
360
3197
102
}
102
{ACAD_REACTORS
330
181B
102
}
330
181B
100
AcDbVisualStyle
  2
OverhangOff
 70
    21
 71
     2
 72
     2
 73
     0
 90
        0
 40
-0.6
 41
-30.0
 62
     5
 63
     7
 74
     1
 91
        4
 64
     7
 65
   257
 75
     1
175
     1
 42
1.0
 92
        9
 66
     7
 43
1.0
 76
     1
 77
     6
 78
     2
 67
     7
 79
     5
170
     0
171
     0
290
     0
174
     0
 93
        1
 44
0.0
173
     0
291
     1
 45
0.0
1001
ACAD
1000
AcDbSavedByObjectVersion
1070
     0
  0
VISUALSTYLE
  5
1825
102
{ACAD_XDICTIONARY
360
317D
102
}
102
{ACAD_REACTORS
330
181B
102
}
330
181B
100
AcDbVisualStyle
  2
Realistic
 70
     8
 71
     2
 72
     2
 73
     0
 90
        2
 40
-0.6
 41
30.0
 62
     5
 63
     7
 74
     0
 91
        0
 64
     7
 65
   257
 75
     1
175
     1
 42
1.0
 92
        8
 66
   257
 43
1.0
 76
     1
 77
     6
 78
     2
 67
     7
 79
     3
170
     0
171
     0
290
     0
174
     0
 93
       13
 44
0.0
173
     0
291
     0
 45
0.0
1001
ACAD
1000
AcDbSavedByObjectVersion
1070
     0
  0
VISUALSTYLE
  5
1830
102
{ACAD_XDICTIONARY
360
3193
102
}
102
{ACAD_REACTORS
330
181B
102
}
330
181B
100
AcDbVisualStyle
  2
Shaded
 70
    27
 71
     2
 72
     2
 73
     1
 90
        2
 40
-0.6
 41
30.0
 62
     5
 63
     7
 74
     0
 91
        4
 64
     7
 65
   257
 75
     1
175
     1
 42
1.0
 92
        8
 66
   257
 43
1.0
 76
     1
 77
     6
 78
     2
 67
     8
 79
     3
170
     0
171
     0
290
     0
174
     0
 93
        5
 44
0.0
173
     0
291
     0
 45
0.0
1001
ACAD
1000
AcDbSavedByObjectVersion
1070
     0
  0
VISUALSTYLE
  5
182F
102
{ACAD_XDICTIONARY
360
3191
102
}
102
{ACAD_REACTORS
330
181B
102
}
330
181B
100
AcDbVisualStyle
  2
Shaded with edges
 70
    26
 71
     2
 72
     2
 73
     1
 90
        2
 40
-0.6
 41
30.0
 62
     5
 63
     7
 74
     1
 91
       10
 64
     7
 65
   257
 75
     2
175
     1
 42
1.0
 92
        8
 66
   257
 43
1.0
 76
     1
 77
     6
 78
     2
 67
     7
 79
     3
170
     0
171
     0
290
     0
174
     0
 93
        5
 44
0.0
173
     0
291
     0
 45
0.0
1001
ACAD
1000
AcDbSavedByObjectVersion
1070
     0
  0
VISUALSTYLE
  5
182C
102
{ACAD_XDICTIONARY
360
318B
102
}
102
{ACAD_REACTORS
330
181B
102
}
330
181B
100
AcDbVisualStyle
  2
Shades of Gray
 70
    23
 71
     2
 72
     2
 73
     3
 90
        0
 40
-0.6
 41
-30.0
 62
     5
 63
     7
 74
     2
 91
        2
 64
     7
 65
     7
 75
     1
175
     1
 42
40.0
 92
        8
 66
     7
 43
1.0
 76
     1
 77
     6
 78
     2
 67
     7
 79
     3
170
     0
171
     0
290
     0
174
     0
 93
        1
 44
0.0
173
     0
291
     0
 45
0.0
1001
ACAD
1000
AcDbSavedByObjectVersion
1070
     0
  0
VISUALSTYLE
  5
182D
102
{ACAD_XDICTIONARY
360
318D
102
}
102
{ACAD_REACTORS
330
181B
102
}
330
181B
100
AcDbVisualStyle
  2
Sketchy
 70
    24
 71
     1
 72
     2
 73
     2
 90
        0
 40
-0.6
 41
-30.0
 62
     5
 63
     7
 74
     2
 91
        2
 64
     7
 65
     7
 75
     1
175
     1
 42
40.0
 92
       11
 66
     7
 43
1.0
 76
     1
 77
     6
 78
     2
 67
     7
 79
     6
170
     0
171
     0
290
     0
174
     0
 93
        1
 44
0.0
173
     0
291
     0
 45
0.0
1001
ACAD
1000
AcDbSavedByObjectVersion
1070
     0
  0
VISUALSTYLE
  5
1828
102
{ACAD_XDICTIONARY
360
3183
102
}
102
{ACAD_REACTORS
330
181B
102
}
330
181B
100
AcDbVisualStyle
  2
Thicken
 70
    13
 71
     2
 72
     2
 73
     0
 90
        0
 40
-0.6
 41
-30.0
 62
     5
 63
     7
 74
     1
 91
        4
 64
     7
 65
   257
 75
     1
175
     1
 42
1.0
 92
       12
 66
     7
 43
1.0
 76
     1
 77
     6
 78
     2
 67
     7
 79
     5
170
     0
171
     0
290
     0
174
     0
 93
        1
 44
0.0
173
     0
291
     1
 45
0.0
1001
ACAD
1000
AcDbSavedByObjectVersion
1070
     0
  0
VISUALSTYLE
  5
1822
102
{ACAD_XDICTIONARY
360
3177
102
}
102
{ACAD_REACTORS
330
181B
102
}
330
181B
100
AcDbVisualStyle
  2
Wireframe
 70
     5
 71
     0
 72
     2
 73
     0
 90
        0
 40
-0.6
 41
-30.0
 62
     5
 63
     7
 74
     1
 91
        4
 64
     7
 65
   257
 75
     1
175
     1
 42
1.0
 92
        0
 66
   257
 43
1.0
 76
     1
 77
     6
 78
     2
 67
     7
 79
     3
170
     0
171
     0
290
     0
174
     0
 93
        1
 44
0.0
173
     0
291
     0
 45
0.0
1001
ACAD
1000
AcDbSavedByObjectVersion
1070
     0
  0
VISUALSTYLE
  5
182E
102
{ACAD_XDICTIONARY
360
318F
102
}
102
{ACAD_REACTORS
330
181B
102
}
330
181B
100
AcDbVisualStyle
  2
X-Ray
 70
    25
 71
     2
 72
     2
 73
     1
 90
        1
 40
0.5
 41
-30.0
 62
     5
 63
     7
 74
     1
 91
        0
 64
     7
 65
   257
 75
     1
175
     1
 42
1.0
 92
        8
 66
     7
 43
1.0
 76
     1
 77
     6
 78
     2
 67
     7
 79
     3
170
     0
171
     0
290
     0
174
     0
 93
       13
 44
0.0
173
     0
291
     0
 45
0.0
1001
ACAD
1000
AcDbSavedByObjectVersion
1070
     0
  0
DICTIONARYVAR
  5
1979
102
{ACAD_REACTORS
330
1975
102
}
330
1975
100
DictionaryVariables
280
     0
  1
1:1
  0
DICTIONARYVAR
  5
1977
102
{ACAD_REACTORS
330
1975
102
}
330
1975
100
DictionaryVariables
280
     0
  1
STANDARD
  0
DICTIONARYVAR
  5
1976
102
{ACAD_REACTORS
330
1975
102
}
330
1975
100
DictionaryVariables
280
     0
  1
STANDARD
  0
DICTIONARYVAR
  5
319E
102
{ACAD_REACTORS
330
1975
102
}
330
1975
100
DictionaryVariables
280
     0
  1
Metric50
  0
DICTIONARYVAR
  5
319F
102
{ACAD_REACTORS
330
1975
102
}
330
1975
100
DictionaryVariables
280
     0
  1
Metric50
  0
DICTIONARYVAR
  5
19DA
102
{ACAD_REACTORS
330
1975
102
}
330
1975
100
DictionaryVariables
280
     0
  1
1
  0
DICTIONARYVAR
  5
19D9
102
{ACAD_REACTORS
330
1975
102
}
330
1975
100
DictionaryVariables
280
     0
  1
0
  0
DICTIONARYVAR
  5
197B
102
{ACAD_REACTORS
330
1975
102
}
330
1975
100
DictionaryVariables
280
     0
  1
1
  0
DICTIONARYVAR
  5
197C
102
{ACAD_REACTORS
330
1975
102
}
330
1975
100
DictionaryVariables
280
     0
  1
15
  0
DICTIONARYVAR
  5
197A
102
{ACAD_REACTORS
330
1975
102
}
330
1975
100
DictionaryVariables
280
     0
  1
0
  0
DICTIONARYVAR
  5
1978
102
{ACAD_REACTORS
330
1975
102
}
330
1975
100
DictionaryVariables
280
     0
  1
0
  0
DICTIONARYVAR
  5
19D8
102
{ACAD_REACTORS
330
1975
102
}
330
1975
100
DictionaryVariables
280
     0
  1
127
  0
DICTIONARYVAR
  5
31A8
102
{ACAD_REACTORS
330
1975
102
}
330
1975
100
DictionaryVariables
280
     0
  1
2
  0
DICTIONARY
  5
18CA
102
{ACAD_REACTORS
330
18C9
102
}
330
18C9
100
AcDbDictionary
281
     1
  0
DICTIONARY
  5
180C
330
180B
100
AcDbDictionary
280
     1
281
     1
  3
ACAD_XREC_ROUNDTRIP
360
31B2
  3
BUMPTILE
360
180E
  3
DIFFUSETILE
360
180D
  3
OPACITYTILE
360
1811
  3
REFLECTIONTILE
360
1810
  3
REFRACTIONTILE
360
1812
  3
SPECULARTILE
360
180F
  0
DICTIONARY
  5
1804
330
1803
100
AcDbDictionary
280
     1
281
     1
  3
ACAD_XREC_ROUNDTRIP
360
31B1
  3
BUMPTILE
360
1806
  3
DIFFUSETILE
360
1805
  3
OPACITYTILE
360
1809
  3
REFLECTIONTILE
360
1808
  3
REFRACTIONTILE
360
180A
  3
SPECULARTILE
360
1807
  0
DICTIONARY
  5
1814
330
1813
100
AcDbDictionary
280
     1
281
     1
  3
ACAD_XREC_ROUNDTRIP
360
31B3
  3
BUMPTILE
360
1816
  3
DIFFUSETILE
360
1815
  3
OPACITYTILE
360
1819
  3
REFLECTIONTILE
360
1818
  3
REFRACTIONTILE
360
181A
  3
SPECULARTILE
360
1817
  0
DICTIONARY
  5
319C
330
184A
100
AcDbDictionary
280
     1
281
     1
  3
ACAD_XREC_ROUNDTRIP
360
319D
  0
DICTIONARY
  5
199A
330
1836
100
AcDbDictionary
280
     1
281
     1
  3
ACAD_ROUNDTRIP_2008_TABLESTYLE_CELLSTYLEMAP
360
31A9
  3
ACAD_XREC_ROUNDTRIP
360
31B4
  0
DICTIONARY
  5
3175
330
1821
100
AcDbDictionary
280
     1
281
     1
  3
ACAD_XREC_ROUNDTRIP
360
3176
  0
DICTIONARY
  5
31B7
330
31A3
100
AcDbDictionary
280
     1
281
     1
  3
ACAD_XREC_ROUNDTRIP
360
31B8
  0
DICTIONARY
  5
31B5
330
31A2
100
AcDbDictionary
280
     1
281
     1
  3
ACAD_XREC_ROUNDTRIP
360
31B6
  0
DICTIONARY
  5
3173
330
1820
100
AcDbDictionary
280
     1
281
     1
  3
ACAD_XREC_ROUNDTRIP
360
3174
  0
DICTIONARY
  5
3181
330
1827
100
AcDbDictionary
280
     1
281
     1
  3
ACAD_XREC_ROUNDTRIP
360
3182
  0
DICTIONARY
  5
3189
330
182B
100
AcDbDictionary
280
     1
281
     1
  3
ACAD_XREC_ROUNDTRIP
360
318A
  0
DICTIONARY
  5
317B
330
1824
100
AcDbDictionary
280
     1
281
     1
  3
ACAD_XREC_ROUNDTRIP
360
317C
  0
DICTIONARY
  5
317F
330
1826
100
AcDbDictionary
280
     1
281
     1
  3
ACAD_XREC_ROUNDTRIP
360
3180
  0
DICTIONARY
  5
3199
330
1833
100
AcDbDictionary
280
     1
281
     1
  3
ACAD_XREC_ROUNDTRIP
360
319A
  0
DICTIONARY
  5
3187
330
182A
100
AcDbDictionary
280
     1
281
     1
  3
ACAD_XREC_ROUNDTRIP
360
3188
  0
DICTIONARY
  5
316B
330
181C
100
AcDbDictionary
280
     1
281
     1
  3
ACAD_XREC_ROUNDTRIP
360
316C
  0
DICTIONARY
  5
316D
330
181D
100
AcDbDictionary
280
     1
281
     1
  3
ACAD_XREC_ROUNDTRIP
360
316E
  0
DICTIONARY
  5
316F
330
181E
100
AcDbDictionary
280
     1
281
     1
  3
ACAD_XREC_ROUNDTRIP
360
3170
  0
DICTIONARY
  5
3171
330
181F
100
AcDbDictionary
280
     1
281
     1
  3
ACAD_XREC_ROUNDTRIP
360
3172
  0
DICTIONARY
  5
3179
330
1823
100
AcDbDictionary
280
     1
281
     1
  3
ACAD_XREC_ROUNDTRIP
360
317A
  0
DICTIONARY
  5
3195
330
1831
100
AcDbDictionary
280
     1
281
     1
  3
ACAD_XREC_ROUNDTRIP
360
3196
  0
DICTIONARY
  5
3185
330
1829
100
AcDbDictionary
280
     1
281
     1
  3
ACAD_XREC_ROUNDTRIP
360
3186
  0
DICTIONARY
  5
3197
330
1832
100
AcDbDictionary
280
     1
281
     1
  3
ACAD_XREC_ROUNDTRIP
360
3198
  0
DICTIONARY
  5
317D
330
1825
100
AcDbDictionary
280
     1
281
     1
  3
ACAD_XREC_ROUNDTRIP
360
317E
  0
DICTIONARY
  5
3193
330
1830
100
AcDbDictionary
280
     1
281
     1
  3
ACAD_XREC_ROUNDTRIP
360
3194
  0
DICTIONARY
  5
3191
330
182F
100
AcDbDictionary
280
     1
281
     1
  3
ACAD_XREC_ROUNDTRIP
360
3192
  0
DICTIONARY
  5
318B
330
182C
100
AcDbDictionary
280
     1
281
     1
  3
ACAD_XREC_ROUNDTRIP
360
318C
  0
DICTIONARY
  5
318D
330
182D
100
AcDbDictionary
280
     1
281
     1
  3
ACAD_XREC_ROUNDTRIP
360
318E
  0
DICTIONARY
  5
3183
330
1828
100
AcDbDictionary
280
     1
281
     1
  3
ACAD_XREC_ROUNDTRIP
360
3184
  0
DICTIONARY
  5
3177
330
1822
100
AcDbDictionary
280
     1
281
     1
  3
ACAD_XREC_ROUNDTRIP
360
3178
  0
DICTIONARY
  5
318F
330
182E
100
AcDbDictionary
280
     1
281
     1
  3
ACAD_XREC_ROUNDTRIP
360
3190
  0
XRECORD
  5
31B2
102
{ACAD_REACTORS
330
180C
102
}
330
180C
100
AcDbXrecord
280
     1
102
MATERIAL
148
0.0
149
0.0
149
0.0
 93
        0
 94
      127
282
     0
 72
     0
 77
     0
171
     0
175
     0
179
     0
273
     0
  0
XRECORD
  5
180E
102
{ACAD_REACTORS
330
180C
102
}
330
180C
100
AcDbXrecord
280
     1
270
     1
271
     1
  0
XRECORD
  5
180D
102
{ACAD_REACTORS
330
180C
102
}
330
180C
100
AcDbXrecord
280
     1
270
     1
271
     1
  0
XRECORD
  5
1811
102
{ACAD_REACTORS
330
180C
102
}
330
180C
100
AcDbXrecord
280
     1
270
     1
271
     1
  0
XRECORD
  5
1810
102
{ACAD_REACTORS
330
180C
102
}
330
180C
100
AcDbXrecord
280
     1
270
     1
271
     1
  0
XRECORD
  5
1812
102
{ACAD_REACTORS
330
180C
102
}
330
180C
100
AcDbXrecord
280
     1
270
     1
271
     1
  0
XRECORD
  5
180F
102
{ACAD_REACTORS
330
180C
102
}
330
180C
100
AcDbXrecord
280
     1
270
     1
271
     1
  0
XRECORD
  5
31B1
102
{ACAD_REACTORS
330
1804
102
}
330
1804
100
AcDbXrecord
280
     1
102
MATERIAL
148
0.0
149
0.0
149
0.0
 93
        0
 94
      127
282
     0
 72
     0
 77
     0
171
     0
175
     0
179
     0
273
     0
  0
XRECORD
  5
1806
102
{ACAD_REACTORS
330
1804
102
}
330
1804
100
AcDbXrecord
280
     1
270
     1
271
     1
  0
XRECORD
  5
1805
102
{ACAD_REACTORS
330
1804
102
}
330
1804
100
AcDbXrecord
280
     1
270
     1
271
     1
  0
XRECORD
  5
1809
102
{ACAD_REACTORS
330
1804
102
}
330
1804
100
AcDbXrecord
280
     1
270
     1
271
     1
  0
XRECORD
  5
1808
102
{ACAD_REACTORS
330
1804
102
}
330
1804
100
AcDbXrecord
280
     1
270
     1
271
     1
  0
XRECORD
  5
180A
102
{ACAD_REACTORS
330
1804
102
}
330
1804
100
AcDbXrecord
280
     1
270
     1
271
     1
  0
XRECORD
  5
1807
102
{ACAD_REACTORS
330
1804
102
}
330
1804
100
AcDbXrecord
280
     1
270
     1
271
     1
  0
XRECORD
  5
31B3
102
{ACAD_REACTORS
330
1814
102
}
330
1814
100
AcDbXrecord
280
     1
102
MATERIAL
148
0.0
149
0.0
149
0.0
 93
        0
 94
      127
282
     0
 72
     0
 77
     0
171
     0
175
     0
179
     0
273
     0
  0
XRECORD
  5
1816
102
{ACAD_REACTORS
330
1814
102
}
330
1814
100
AcDbXrecord
280
     1
270
     1
271
     1
  0
XRECORD
  5
1815
102
{ACAD_REACTORS
330
1814
102
}
330
1814
100
AcDbXrecord
280
     1
270
     1
271
     1
  0
XRECORD
  5
1819
102
{ACAD_REACTORS
330
1814
102
}
330
1814
100
AcDbXrecord
280
     1
270
     1
271
     1
  0
XRECORD
  5
1818
102
{ACAD_REACTORS
330
1814
102
}
330
1814
100
AcDbXrecord
280
     1
270
     1
271
     1
  0
XRECORD
  5
181A
102
{ACAD_REACTORS
330
1814
102
}
330
1814
100
AcDbXrecord
280
     1
270
     1
271
     1
  0
XRECORD
  5
1817
102
{ACAD_REACTORS
330
1814
102
}
330
1814
100
AcDbXrecord
280
     1
270
     1
271
     1
  0
XRECORD
  5
319D
102
{ACAD_REACTORS
330
319C
102
}
330
319C
100
AcDbXrecord
280
     1
102
ACAD_ROUNDTRIP_2012_MLEADER_STYLE
298
     1
  0
CELLSTYLEMAP
  5
31A9
102
{ACAD_REACTORS
330
199A
102
}
330
199A
100
AcDbCellStyleMap
 90
        3
300
CELLSTYLE
  1
TABLEFORMAT_BEGIN
 90
        5
170
     1
 91
        0
 92
    32768
 62
   257
 93
        1
300
CONTENTFORMAT
  1
CONTENTFORMAT_BEGIN
 90
        0
 91
        0
 92
      512
 93
        0
300

 40
0.0
140
1.0
 94
        5
 62
     0
340
23
144
6.0
309
CONTENTFORMAT_END
171
     1
301
MARGIN
  1
CELLMARGIN_BEGIN
 40
1.5
 40
1.5
 40
1.5
 40
1.5
 40
4.5
 40
4.5
309
CELLMARGIN_END
 94
        6
 95
        1
302
GRIDFORMAT
  1
GRIDFORMAT_BEGIN
 90
        0
 91
        1
 62
     0
 92
       -2
340
0
 93
        0
 40
1.125
309
GRIDFORMAT_END
 95
        2
302
GRIDFORMAT
  1
GRIDFORMAT_BEGIN
 90
        0
 91
        1
 62
     0
 92
       -2
340
0
 93
        0
 40
1.125
309
GRIDFORMAT_END
 95
        4
302
GRIDFORMAT
  1
GRIDFORMAT_BEGIN
 90
        0
 91
        1
 62
     0
 92
       -2
340
0
 93
        0
 40
1.125
309
GRIDFORMAT_END
 95
        8
302
GRIDFORMAT
  1
GRIDFORMAT_BEGIN
 90
        0
 91
        1
 62
     0
 92
       -2
340
0
 93
        0
 40
1.125
309
GRIDFORMAT_END
 95
       16
302
GRIDFORMAT
  1
GRIDFORMAT_BEGIN
 90
        0
 91
        1
 62
     0
 92
       -2
340
0
 93
        0
 40
1.125
309
GRIDFORMAT_END
 95
       32
302
GRIDFORMAT
  1
GRIDFORMAT_BEGIN
 90
        0
 91
        1
 62
     0
 92
       -2
340
0
 93
        0
 40
1.125
309
GRIDFORMAT_END
309
TABLEFORMAT_END
  1
CELLSTYLE_BEGIN
 90
        1
 91
        1
300
_TITLE
309
CELLSTYLE_END
300
CELLSTYLE
  1
TABLEFORMAT_BEGIN
 90
        5
170
     1
 91
        0
 92
        0
 62
   257
 93
        1
300
CONTENTFORMAT
  1
CONTENTFORMAT_BEGIN
 90
        0
 91
        0
 92
      512
 93
        0
300

 40
0.0
140
1.0
 94
        5
 62
     0
340
23
144
4.5
309
CONTENTFORMAT_END
171
     1
301
MARGIN
  1
CELLMARGIN_BEGIN
 40
1.5
 40
1.5
 40
1.5
 40
1.5
 40
4.5
 40
4.5
309
CELLMARGIN_END
 94
        6
 95
        1
302
GRIDFORMAT
  1
GRIDFORMAT_BEGIN
 90
        0
 91
        1
 62
     0
 92
       -2
340
0
 93
        0
 40
1.125
309
GRIDFORMAT_END
 95
        2
302
GRIDFORMAT
  1
GRIDFORMAT_BEGIN
 90
        0
 91
        1
 62
     0
 92
       -2
340
0
 93
        0
 40
1.125
309
GRIDFORMAT_END
 95
        4
302
GRIDFORMAT
  1
GRIDFORMAT_BEGIN
 90
        0
 91
        1
 62
     0
 92
       -2
340
0
 93
        0
 40
1.125
309
GRIDFORMAT_END
 95
        8
302
GRIDFORMAT
  1
GRIDFORMAT_BEGIN
 90
        0
 91
        1
 62
     0
 92
       -2
340
0
 93
        0
 40
1.125
309
GRIDFORMAT_END
 95
       16
302
GRIDFORMAT
  1
GRIDFORMAT_BEGIN
 90
        0
 91
        1
 62
     0
 92
       -2
340
0
 93
        0
 40
1.125
309
GRIDFORMAT_END
 95
       32
302
GRIDFORMAT
  1
GRIDFORMAT_BEGIN
 90
        0
 91
        1
 62
     0
 92
       -2
340
0
 93
        0
 40
1.125
309
GRIDFORMAT_END
309
TABLEFORMAT_END
  1
CELLSTYLE_BEGIN
 90
        2
 91
        1
300
_HEADER
309
CELLSTYLE_END
300
CELLSTYLE
  1
TABLEFORMAT_BEGIN
 90
        5
170
     1
 91
        0
 92
        0
 62
   257
 93
        1
300
CONTENTFORMAT
  1
CONTENTFORMAT_BEGIN
 90
        0
 91
        0
 92
      512
 93
        0
300

 40
0.0
140
1.0
 94
        2
 62
     0
340
23
144
4.5
309
CONTENTFORMAT_END
171
     1
301
MARGIN
  1
CELLMARGIN_BEGIN
 40
1.5
 40
1.5
 40
1.5
 40
1.5
 40
4.5
 40
4.5
309
CELLMARGIN_END
 94
        6
 95
        1
302
GRIDFORMAT
  1
GRIDFORMAT_BEGIN
 90
        0
 91
        1
 62
     0
 92
       -2
340
0
 93
        0
 40
1.125
309
GRIDFORMAT_END
 95
        2
302
GRIDFORMAT
  1
GRIDFORMAT_BEGIN
 90
        0
 91
        1
 62
     0
 92
       -2
340
0
 93
        0
 40
1.125
309
GRIDFORMAT_END
 95
        4
302
GRIDFORMAT
  1
GRIDFORMAT_BEGIN
 90
        0
 91
        1
 62
     0
 92
       -2
340
0
 93
        0
 40
1.125
309
GRIDFORMAT_END
 95
        8
302
GRIDFORMAT
  1
GRIDFORMAT_BEGIN
 90
        0
 91
        1
 62
     0
 92
       -2
340
0
 93
        0
 40
1.125
309
GRIDFORMAT_END
 95
       16
302
GRIDFORMAT
  1
GRIDFORMAT_BEGIN
 90
        0
 91
        1
 62
     0
 92
       -2
340
0
 93
        0
 40
1.125
309
GRIDFORMAT_END
 95
       32
302
GRIDFORMAT
  1
GRIDFORMAT_BEGIN
 90
        0
 91
        1
 62
     0
 92
       -2
340
0
 93
        0
 40
1.125
309
GRIDFORMAT_END
309
TABLEFORMAT_END
  1
CELLSTYLE_BEGIN
 90
        3
 91
        2
300
_DATA
309
CELLSTYLE_END
  0
XRECORD
  5
31B4
102
{ACAD_REACTORS
330
199A
102
}
330
199A
100
AcDbXrecord
280
     1
102
ACAD_ROUNDTRIP_PRE2007_TABLESTYLE
 90
      512
 91
        0
  1

 92
      512
 93
        0
  2

 94
      512
 95
        0
  3

  0
XRECORD
  5
3176
102
{ACAD_REACTORS
330
3175
102
}
330
3175
100
AcDbXrecord
280
     1
102
RTVSPost2010Prop28
280
     1
102
RTVSPost2010PropOp28
 70
     1
102
RTVSPost2010Prop29
280
     1
102
RTVSPost2010PropOp29
 70
     1
102
RTVSPost2010Prop30
280
     0
102
RTVSPost2010PropOp30
 70
     1
102
RTVSPost2010Prop31
280
     0
102
RTVSPost2010PropOp31
 70
     1
102
RTVSPost2010Prop32
280
     0
102
RTVSPost2010PropOp32
 70
     1
102
RTVSPost2010Prop33
280
     0
102
RTVSPost2010PropOp33
 70
     1
102
RTVSPost2010Prop34
280
     0
102
RTVSPost2010PropOp34
 70
     1
102
RTVSPost2010Prop35
280
     0
102
RTVSPost2010PropOp35
 70
     1
102
RTVSPost2010Prop36
280
     0
102
RTVSPost2010PropOp36
 70
     1
102
RTVSPost2010Prop37
 90
       50
102
RTVSPost2010PropOp37
 70
     1
102
RTVSPost2010Prop38
140
0.0
102
RTVSPost2010PropOp38
 70
     1
102
RTVSPost2010Prop39
140
1.0
102
RTVSPost2010PropOp39
 70
     1
102
RTVSPost2010Prop40
 90
        0
102
RTVSPost2010PropOp40
 70
     1
102
RTVSPost2010Prop41ColorIndex
 90
       18
102
RTVSPost2010Prop41ColorRGB
 90
        0
102
RTVSPost2010PropOp41
 70
     1
102
RTVSPost2010Prop42
 90
       50
102
RTVSPost2010PropOp42
 70
     1
102
RTVSPost2010Prop43
 90
        3
102
RTVSPost2010PropOp43
 70
     1
102
RTVSPost2010Prop44ColorIndex
 90
        5
102
RTVSPost2010Prop44ColorRGB
 90
      255
102
RTVSPost2010PropOp44
 70
     1
102
RTVSPost2010Prop45
280
     0
102
RTVSPost2010PropOp45
 70
     1
102
RTVSPost2010Prop46
 90
       50
102
RTVSPost2010PropOp46
 70
     1
102
RTVSPost2010Prop47
 90
       50
102
RTVSPost2010PropOp47
 70
     1
102
RTVSPost2010Prop48
 90
       50
102
RTVSPost2010PropOp48
 70
     1
102
RTVSPost2010Prop49
280
     0
102
RTVSPost2010PropOp49
 70
     1
102
RTVSPost2010Prop50
 90
       50
102
RTVSPost2010PropOp50
 70
     1
102
RTVSPost2010Prop51ColorIndex
 90
      256
102
RTVSPost2010Prop51ColorRGB
 90
-16777216
102
RTVSPost2010PropOp51
 70
     0
102
RTVSPost2010Prop52
140
1.0
102
RTVSPost2010PropOp52
 70
     0
102
RTVSPost2010Prop53
 90
        2
102
RTVSPost2010PropOp53
 70
     1
102
RTVSPost2010Prop54
  1
strokes_ogs.tif
102
RTVSPost2010PropOp54
 70
     1
102
RTVSPost2010Prop55
280
     0
102
RTVSPost2010PropOp55
 70
     1
102
RTVSPost2010Prop56
140
1.0
102
RTVSPost2010PropOp56
 70
     1
102
RTVSPost2010Prop57
140
1.0
102
RTVSPost2010PropOp57
 70
     1
102
RTVSPropertyOp28
 70
     1
102
RTVSPropertyOp29
 70
     1
102
RTVSPropertyOp30
 70
     1
102
RTVSPropertyOp31
 70
     1
102
RTVSPropertyOp32
 70
     1
102
RTVSPropertyOp33
 70
     1
102
RTVSPropertyOp34
 70
     1
102
RTVSPropertyOp35
 70
     1
102
RTVSPropertyOp36
 70
     1
102
RTVSPropertyOp37
 70
     1
102
RTVSPropertyOp38
 70
     1
102
RTVSPropertyOp39
 70
     1
102
RTVSPropertyOp40
 70
     1
102
RTVSPropertyOp41
 70
     1
102
RTVSPropertyOp42
 70
     1
102
RTVSPropertyOp43
 70
     1
102
RTVSPropertyOp44
 70
     1
102
RTVSPropertyOp45
 70
     1
102
RTVSPropertyOp46
 70
     1
102
RTVSPropertyOp47
 70
     1
102
RTVSPropertyOp48
 70
     1
102
RTVSPropertyOp49
 70
     1
102
RTVSPropertyOp50
 70
     1
102
RTVSPropertyOp51
 70
     0
102
RTVSPropertyOp52
 70
     0
102
RTVSPropertyOp53
 70
     1
102
RTVSPropertyOp54
 70
     1
102
RTVSPropertyOp55
 70
     1
102
RTVSPropertyOp56
 70
     1
102
RTVSPropertyOp57
 70
     1
102
RTVSPropertyOp58
 70
     1
102
RTVSPropertyOp59
 70
     1
102
RTVSPropertyOp60
 70
     1
102
RTVSPropertyOp61
 70
     1
102
RTVSPropertyOp62
 70
     1
102
RTVSPropertyOp0
 70
     1
102
RTVSPropertyOp1
 70
     1
102
RTVSPropertyOp2
 70
     1
102
RTVSPropertyOp3
 70
     1
102
RTVSPropertyOp4
 70
     1
102
RTVSPropertyOp5
 70
     1
102
RTVSPropertyOp6
 70
     1
102
RTVSPropertyOp7
 70
     1
102
RTVSPropertyOp8
 70
     1
102
RTVSPropertyOp9
 70
     1
102
RTVSPropertyOp10
 70
     1
102
RTVSPropertyOp11
 70
     1
102
RTVSPropertyOp12
 70
     1
102
RTVSPropertyOp13
 70
     1
102
RTVSPropertyOp14
 70
     1
102
RTVSPropertyOp15
 70
     1
102
RTVSPropertyOp16
 70
     1
102
RTVSPropertyOp17
 70
     1
102
RTVSPropertyOp18
 70
     1
102
RTVSPropertyOp19
 70
     1
102
RTVSPropertyOp20
 70
     1
102
RTVSPropertyOp21
 70
     1
102
RTVSPropertyOp22
 70
     1
102
RTVSPropertyOp23
 70
     1
102
RTVSPropertyOp24
 70
     1
102
RTVSPropertyOp25
 70
     1
102
RTVSPropertyOp26
 70
     1
102
RTVSPropertyOp27
 70
     1
  0
XRECORD
  5
31B8
102
{ACAD_REACTORS
330
31B7
102
}
330
31B7
100
AcDbXrecord
280
     1
102
RTVSPropertyOp0
 70
     1
102
RTVSPropertyOp1
 70
     1
102
RTVSPropertyOp2
 70
     1
102
RTVSPropertyOp3
 70
     1
102
RTVSPropertyOp4
 70
     1
102
RTVSPropertyOp5
 70
     1
102
RTVSPropertyOp6
 70
     1
102
RTVSPropertyOp7
 70
     1
102
RTVSPropertyOp8
 70
     1
102
RTVSPropertyOp9
 70
     1
102
RTVSPropertyOp10
 70
     1
102
RTVSPropertyOp11
 70
     1
102
RTVSPropertyOp12
 70
     1
102
RTVSPropertyOp13
 70
     1
102
RTVSPropertyOp14
 70
     1
102
RTVSPropertyOp15
 70
     1
102
RTVSPropertyOp16
 70
     1
102
RTVSPropertyOp17
 70
     1
102
RTVSPropertyOp18
 70
     1
102
RTVSPropertyOp19
 70
     1
102
RTVSPropertyOp20
 70
     1
102
RTVSPropertyOp21
 70
     1
102
RTVSPropertyOp22
 70
     1
102
RTVSPropertyOp23
 70
     1
102
RTVSPropertyOp24
 70
     1
102
RTVSPropertyOp25
 70
     1
102
RTVSPropertyOp26
 70
     1
102
RTVSPropertyOp27
 70
     1
  0
XRECORD
  5
31B6
102
{ACAD_REACTORS
330
31B5
102
}
330
31B5
100
AcDbXrecord
280
     1
102
RTVSPropertyOp0
 70
     1
102
RTVSPropertyOp1
 70
     1
102
RTVSPropertyOp2
 70
     1
102
RTVSPropertyOp3
 70
     1
102
RTVSPropertyOp4
 70
     1
102
RTVSPropertyOp5
 70
     1
102
RTVSPropertyOp6
 70
     1
102
RTVSPropertyOp7
 70
     1
102
RTVSPropertyOp8
 70
     1
102
RTVSPropertyOp9
 70
     1
102
RTVSPropertyOp10
 70
     1
102
RTVSPropertyOp11
 70
     1
102
RTVSPropertyOp12
 70
     1
102
RTVSPropertyOp13
 70
     1
102
RTVSPropertyOp14
 70
     1
102
RTVSPropertyOp15
 70
     1
102
RTVSPropertyOp16
 70
     1
102
RTVSPropertyOp17
 70
     1
102
RTVSPropertyOp18
 70
     1
102
RTVSPropertyOp19
 70
     1
102
RTVSPropertyOp20
 70
     1
102
RTVSPropertyOp21
 70
     1
102
RTVSPropertyOp22
 70
     1
102
RTVSPropertyOp23
 70
     1
102
RTVSPropertyOp24
 70
     1
102
RTVSPropertyOp25
 70
     1
102
RTVSPropertyOp26
 70
     1
102
RTVSPropertyOp27
 70
     1
  0
XRECORD
  5
3174
102
{ACAD_REACTORS
330
3173
102
}
330
3173
100
AcDbXrecord
280
     1
102
RTVSPost2010Prop28
280
     0
102
RTVSPost2010PropOp28
 70
     1
102
RTVSPost2010Prop29
280
     1
102
RTVSPost2010PropOp29
 70
     1
102
RTVSPost2010Prop30
280
     1
102
RTVSPost2010PropOp30
 70
     1
102
RTVSPost2010Prop31
280
     0
102
RTVSPost2010PropOp31
 70
     1
102
RTVSPost2010Prop32
280
     0
102
RTVSPost2010PropOp32
 70
     1
102
RTVSPost2010Prop33
280
     0
102
RTVSPost2010PropOp33
 70
     1
102
RTVSPost2010Prop34
280
     0
102
RTVSPost2010PropOp34
 70
     1
102
RTVSPost2010Prop35
280
     0
102
RTVSPost2010PropOp35
 70
     1
102
RTVSPost2010Prop36
280
     0
102
RTVSPost2010PropOp36
 70
     1
102
RTVSPost2010Prop37
 90
       50
102
RTVSPost2010PropOp37
 70
     1
102
RTVSPost2010Prop38
140
0.0
102
RTVSPost2010PropOp38
 70
     1
102
RTVSPost2010Prop39
140
1.0
102
RTVSPost2010PropOp39
 70
     1
102
RTVSPost2010Prop40
 90
        0
102
RTVSPost2010PropOp40
 70
     1
102
RTVSPost2010Prop41ColorIndex
 90
       18
102
RTVSPost2010Prop41ColorRGB
 90
        0
102
RTVSPost2010PropOp41
 70
     1
102
RTVSPost2010Prop42
 90
       50
102
RTVSPost2010PropOp42
 70
     1
102
RTVSPost2010Prop43
 90
        3
102
RTVSPost2010PropOp43
 70
     1
102
RTVSPost2010Prop44ColorIndex
 90
        5
102
RTVSPost2010Prop44ColorRGB
 90
      255
102
RTVSPost2010PropOp44
 70
     1
102
RTVSPost2010Prop45
280
     0
102
RTVSPost2010PropOp45
 70
     1
102
RTVSPost2010Prop46
 90
       50
102
RTVSPost2010PropOp46
 70
     1
102
RTVSPost2010Prop47
 90
       50
102
RTVSPost2010PropOp47
 70
     1
102
RTVSPost2010Prop48
 90
       50
102
RTVSPost2010PropOp48
 70
     1
102
RTVSPost2010Prop49
280
     0
102
RTVSPost2010PropOp49
 70
     1
102
RTVSPost2010Prop50
 90
       50
102
RTVSPost2010PropOp50
 70
     1
102
RTVSPost2010Prop51ColorIndex
 90
      256
102
RTVSPost2010Prop51ColorRGB
 90
-16777216
102
RTVSPost2010PropOp51
 70
     0
102
RTVSPost2010Prop52
140
1.0
102
RTVSPost2010PropOp52
 70
     0
102
RTVSPost2010Prop53
 90
        2
102
RTVSPost2010PropOp53
 70
     1
102
RTVSPost2010Prop54
  1
strokes_ogs.tif
102
RTVSPost2010PropOp54
 70
     1
102
RTVSPost2010Prop55
280
     0
102
RTVSPost2010PropOp55
 70
     1
102
RTVSPost2010Prop56
140
1.0
102
RTVSPost2010PropOp56
 70
     1
102
RTVSPost2010Prop57
140
1.0
102
RTVSPost2010PropOp57
 70
     1
102
RTVSPropertyOp28
 70
     1
102
RTVSPropertyOp29
 70
     1
102
RTVSPropertyOp30
 70
     1
102
RTVSPropertyOp31
 70
     1
102
RTVSPropertyOp32
 70
     1
102
RTVSPropertyOp33
 70
     1
102
RTVSPropertyOp34
 70
     1
102
RTVSPropertyOp35
 70
     1
102
RTVSPropertyOp36
 70
     1
102
RTVSPropertyOp37
 70
     1
102
RTVSPropertyOp38
 70
     1
102
RTVSPropertyOp39
 70
     1
102
RTVSPropertyOp40
 70
     1
102
RTVSPropertyOp41
 70
     1
102
RTVSPropertyOp42
 70
     1
102
RTVSPropertyOp43
 70
     1
102
RTVSPropertyOp44
 70
     1
102
RTVSPropertyOp45
 70
     1
102
RTVSPropertyOp46
 70
     1
102
RTVSPropertyOp47
 70
     1
102
RTVSPropertyOp48
 70
     1
102
RTVSPropertyOp49
 70
     1
102
RTVSPropertyOp50
 70
     1
102
RTVSPropertyOp51
 70
     0
102
RTVSPropertyOp52
 70
     0
102
RTVSPropertyOp53
 70
     1
102
RTVSPropertyOp54
 70
     1
102
RTVSPropertyOp55
 70
     1
102
RTVSPropertyOp56
 70
     1
102
RTVSPropertyOp57
 70
     1
102
RTVSPropertyOp58
 70
     1
102
RTVSPropertyOp59
 70
     1
102
RTVSPropertyOp60
 70
     1
102
RTVSPropertyOp61
 70
     1
102
RTVSPropertyOp62
 70
     1
102
RTVSPropertyOp0
 70
     1
102
RTVSPropertyOp1
 70
     1
102
RTVSPropertyOp2
 70
     1
102
RTVSPropertyOp3
 70
     1
102
RTVSPropertyOp4
 70
     1
102
RTVSPropertyOp5
 70
     1
102
RTVSPropertyOp6
 70
     1
102
RTVSPropertyOp7
 70
     1
102
RTVSPropertyOp8
 70
     1
102
RTVSPropertyOp9
 70
     1
102
RTVSPropertyOp10
 70
     1
102
RTVSPropertyOp11
 70
     1
102
RTVSPropertyOp12
 70
     1
102
RTVSPropertyOp13
 70
     1
102
RTVSPropertyOp14
 70
     1
102
RTVSPropertyOp15
 70
     1
102
RTVSPropertyOp16
 70
     1
102
RTVSPropertyOp17
 70
     1
102
RTVSPropertyOp18
 70
     1
102
RTVSPropertyOp19
 70
     1
102
RTVSPropertyOp20
 70
     1
102
RTVSPropertyOp21
 70
     1
102
RTVSPropertyOp22
 70
     1
102
RTVSPropertyOp23
 70
     1
102
RTVSPropertyOp24
 70
     1
102
RTVSPropertyOp25
 70
     1
102
RTVSPropertyOp26
 70
     1
102
RTVSPropertyOp27
 70
     1
  0
XRECORD
  5
3182
102
{ACAD_REACTORS
330
3181
102
}
330
3181
100
AcDbXrecord
280
     1
102
RTVSPost2010Prop28
280
     0
102
RTVSPost2010PropOp28
 70
     1
102
RTVSPost2010Prop29
280
     1
102
RTVSPost2010PropOp29
 70
     1
102
RTVSPost2010Prop30
280
     1
102
RTVSPost2010PropOp30
 70
     1
102
RTVSPost2010Prop31
280
     0
102
RTVSPost2010PropOp31
 70
     1
102
RTVSPost2010Prop32
280
     0
102
RTVSPost2010PropOp32
 70
     1
102
RTVSPost2010Prop33
280
     0
102
RTVSPost2010PropOp33
 70
     1
102
RTVSPost2010Prop34
280
     0
102
RTVSPost2010PropOp34
 70
     1
102
RTVSPost2010Prop35
280
     0
102
RTVSPost2010PropOp35
 70
     1
102
RTVSPost2010Prop36
280
     0
102
RTVSPost2010PropOp36
 70
     1
102
RTVSPost2010Prop37
 90
       50
102
RTVSPost2010PropOp37
 70
     1
102
RTVSPost2010Prop38
140
0.0
102
RTVSPost2010PropOp38
 70
     1
102
RTVSPost2010Prop39
140
1.0
102
RTVSPost2010PropOp39
 70
     1
102
RTVSPost2010Prop40
 90
        0
102
RTVSPost2010PropOp40
 70
     1
102
RTVSPost2010Prop41ColorIndex
 90
       18
102
RTVSPost2010Prop41ColorRGB
 90
        0
102
RTVSPost2010PropOp41
 70
     1
102
RTVSPost2010Prop42
 90
       50
102
RTVSPost2010PropOp42
 70
     1
102
RTVSPost2010Prop43
 90
        3
102
RTVSPost2010PropOp43
 70
     1
102
RTVSPost2010Prop44ColorIndex
 90
        5
102
RTVSPost2010Prop44ColorRGB
 90
      255
102
RTVSPost2010PropOp44
 70
     1
102
RTVSPost2010Prop45
280
     0
102
RTVSPost2010PropOp45
 70
     1
102
RTVSPost2010Prop46
 90
       50
102
RTVSPost2010PropOp46
 70
     1
102
RTVSPost2010Prop47
 90
       50
102
RTVSPost2010PropOp47
 70
     1
102
RTVSPost2010Prop48
 90
       50
102
RTVSPost2010PropOp48
 70
     1
102
RTVSPost2010Prop49
280
     0
102
RTVSPost2010PropOp49
 70
     1
102
RTVSPost2010Prop50
 90
       50
102
RTVSPost2010PropOp50
 70
     1
102
RTVSPost2010Prop51ColorIndex
 90
      256
102
RTVSPost2010Prop51ColorRGB
 90
-16777216
102
RTVSPost2010PropOp51
 70
     0
102
RTVSPost2010Prop52
140
1.0
102
RTVSPost2010PropOp52
 70
     0
102
RTVSPost2010Prop53
 90
        2
102
RTVSPost2010PropOp53
 70
     1
102
RTVSPost2010Prop54
  1
strokes_ogs.tif
102
RTVSPost2010PropOp54
 70
     1
102
RTVSPost2010Prop55
280
     0
102
RTVSPost2010PropOp55
 70
     1
102
RTVSPost2010Prop56
140
1.0
102
RTVSPost2010PropOp56
 70
     1
102
RTVSPost2010Prop57
140
1.0
102
RTVSPost2010PropOp57
 70
     1
102
RTVSPropertyOp28
 70
     1
102
RTVSPropertyOp29
 70
     1
102
RTVSPropertyOp30
 70
     1
102
RTVSPropertyOp31
 70
     1
102
RTVSPropertyOp32
 70
     1
102
RTVSPropertyOp33
 70
     1
102
RTVSPropertyOp34
 70
     1
102
RTVSPropertyOp35
 70
     1
102
RTVSPropertyOp36
 70
     1
102
RTVSPropertyOp37
 70
     1
102
RTVSPropertyOp38
 70
     1
102
RTVSPropertyOp39
 70
     1
102
RTVSPropertyOp40
 70
     1
102
RTVSPropertyOp41
 70
     1
102
RTVSPropertyOp42
 70
     1
102
RTVSPropertyOp43
 70
     1
102
RTVSPropertyOp44
 70
     1
102
RTVSPropertyOp45
 70
     1
102
RTVSPropertyOp46
 70
     1
102
RTVSPropertyOp47
 70
     1
102
RTVSPropertyOp48
 70
     1
102
RTVSPropertyOp49
 70
     1
102
RTVSPropertyOp50
 70
     1
102
RTVSPropertyOp51
 70
     0
102
RTVSPropertyOp52
 70
     0
102
RTVSPropertyOp53
 70
     1
102
RTVSPropertyOp54
 70
     1
102
RTVSPropertyOp55
 70
     1
102
RTVSPropertyOp56
 70
     1
102
RTVSPropertyOp57
 70
     1
102
RTVSPropertyOp58
 70
     1
102
RTVSPropertyOp59
 70
     1
102
RTVSPropertyOp60
 70
     1
102
RTVSPropertyOp61
 70
     1
102
RTVSPropertyOp62
 70
     1
102
RTVSPropertyOp0
 70
     1
102
RTVSPropertyOp1
 70
     1
102
RTVSPropertyOp2
 70
     1
102
RTVSPropertyOp3
 70
     1
102
RTVSPropertyOp4
 70
     1
102
RTVSPropertyOp5
 70
     1
102
RTVSPropertyOp6
 70
     1
102
RTVSPropertyOp7
 70
     1
102
RTVSPropertyOp8
 70
     1
102
RTVSPropertyOp9
 70
     1
102
RTVSPropertyOp10
 70
     1
102
RTVSPropertyOp11
 70
     1
102
RTVSPropertyOp12
 70
     1
102
RTVSPropertyOp13
 70
     1
102
RTVSPropertyOp14
 70
     1
102
RTVSPropertyOp15
 70
     1
102
RTVSPropertyOp16
 70
     1
102
RTVSPropertyOp17
 70
     1
102
RTVSPropertyOp18
 70
     1
102
RTVSPropertyOp19
 70
     1
102
RTVSPropertyOp20
 70
     1
102
RTVSPropertyOp21
 70
     1
102
RTVSPropertyOp22
 70
     1
102
RTVSPropertyOp23
 70
     1
102
RTVSPropertyOp24
 70
     1
102
RTVSPropertyOp25
 70
     1
102
RTVSPropertyOp26
 70
     1
102
RTVSPropertyOp27
 70
     1
  0
XRECORD
  5
318A
102
{ACAD_REACTORS
330
3189
102
}
330
3189
100
AcDbXrecord
280
     1
102
RTVSPost2010Prop28
280
     0
102
RTVSPost2010PropOp28
 70
     1
102
RTVSPost2010Prop29
280
     1
102
RTVSPost2010PropOp29
 70
     1
102
RTVSPost2010Prop30
280
     1
102
RTVSPost2010PropOp30
 70
     1
102
RTVSPost2010Prop31
280
     0
102
RTVSPost2010PropOp31
 70
     1
102
RTVSPost2010Prop32
280
     0
102
RTVSPost2010PropOp32
 70
     1
102
RTVSPost2010Prop33
280
     0
102
RTVSPost2010PropOp33
 70
     1
102
RTVSPost2010Prop34
280
     0
102
RTVSPost2010PropOp34
 70
     1
102
RTVSPost2010Prop35
280
     0
102
RTVSPost2010PropOp35
 70
     1
102
RTVSPost2010Prop36
280
     0
102
RTVSPost2010PropOp36
 70
     1
102
RTVSPost2010Prop37
 90
       50
102
RTVSPost2010PropOp37
 70
     1
102
RTVSPost2010Prop38
140
0.0
102
RTVSPost2010PropOp38
 70
     1
102
RTVSPost2010Prop39
140
1.0
102
RTVSPost2010PropOp39
 70
     1
102
RTVSPost2010Prop40
 90
        0
102
RTVSPost2010PropOp40
 70
     1
102
RTVSPost2010Prop41ColorIndex
 90
       18
102
RTVSPost2010Prop41ColorRGB
 90
        0
102
RTVSPost2010PropOp41
 70
     1
102
RTVSPost2010Prop42
 90
       50
102
RTVSPost2010PropOp42
 70
     1
102
RTVSPost2010Prop43
 90
        3
102
RTVSPost2010PropOp43
 70
     1
102
RTVSPost2010Prop44ColorIndex
 90
        5
102
RTVSPost2010Prop44ColorRGB
 90
      255
102
RTVSPost2010PropOp44
 70
     1
102
RTVSPost2010Prop45
280
     0
102
RTVSPost2010PropOp45
 70
     1
102
RTVSPost2010Prop46
 90
       50
102
RTVSPost2010PropOp46
 70
     1
102
RTVSPost2010Prop47
 90
       50
102
RTVSPost2010PropOp47
 70
     1
102
RTVSPost2010Prop48
 90
       50
102
RTVSPost2010PropOp48
 70
     1
102
RTVSPost2010Prop49
280
     0
102
RTVSPost2010PropOp49
 70
     1
102
RTVSPost2010Prop50
 90
       50
102
RTVSPost2010PropOp50
 70
     1
102
RTVSPost2010Prop51ColorIndex
 90
      256
102
RTVSPost2010Prop51ColorRGB
 90
-16777216
102
RTVSPost2010PropOp51
 70
     0
102
RTVSPost2010Prop52
140
1.0
102
RTVSPost2010PropOp52
 70
     0
102
RTVSPost2010Prop53
 90
        2
102
RTVSPost2010PropOp53
 70
     1
102
RTVSPost2010Prop54
  1
strokes_ogs.tif
102
RTVSPost2010PropOp54
 70
     1
102
RTVSPost2010Prop55
280
     0
102
RTVSPost2010PropOp55
 70
     1
102
RTVSPost2010Prop56
140
1.0
102
RTVSPost2010PropOp56
 70
     1
102
RTVSPost2010Prop57
140
1.0
102
RTVSPost2010PropOp57
 70
     1
102
RTVSPropertyOp28
 70
     1
102
RTVSPropertyOp29
 70
     1
102
RTVSPropertyOp30
 70
     1
102
RTVSPropertyOp31
 70
     1
102
RTVSPropertyOp32
 70
     1
102
RTVSPropertyOp33
 70
     1
102
RTVSPropertyOp34
 70
     1
102
RTVSPropertyOp35
 70
     1
102
RTVSPropertyOp36
 70
     1
102
RTVSPropertyOp37
 70
     1
102
RTVSPropertyOp38
 70
     1
102
RTVSPropertyOp39
 70
     1
102
RTVSPropertyOp40
 70
     1
102
RTVSPropertyOp41
 70
     1
102
RTVSPropertyOp42
 70
     1
102
RTVSPropertyOp43
 70
     1
102
RTVSPropertyOp44
 70
     1
102
RTVSPropertyOp45
 70
     1
102
RTVSPropertyOp46
 70
     1
102
RTVSPropertyOp47
 70
     1
102
RTVSPropertyOp48
 70
     1
102
RTVSPropertyOp49
 70
     1
102
RTVSPropertyOp50
 70
     1
102
RTVSPropertyOp51
 70
     0
102
RTVSPropertyOp52
 70
     0
102
RTVSPropertyOp53
 70
     1
102
RTVSPropertyOp54
 70
     1
102
RTVSPropertyOp55
 70
     1
102
RTVSPropertyOp56
 70
     1
102
RTVSPropertyOp57
 70
     1
102
RTVSPropertyOp58
 70
     1
102
RTVSPropertyOp59
 70
     1
102
RTVSPropertyOp60
 70
     1
102
RTVSPropertyOp61
 70
     1
102
RTVSPropertyOp62
 70
     1
102
RTVSPropertyOp0
 70
     1
102
RTVSPropertyOp1
 70
     1
102
RTVSPropertyOp2
 70
     1
102
RTVSPropertyOp3
 70
     1
102
RTVSPropertyOp4
 70
     1
102
RTVSPropertyOp5
 70
     1
102
RTVSPropertyOp6
 70
     1
102
RTVSPropertyOp7
 70
     1
102
RTVSPropertyOp8
 70
     1
102
RTVSPropertyOp9
 70
     1
102
RTVSPropertyOp10
 70
     1
102
RTVSPropertyOp11
 70
     1
102
RTVSPropertyOp12
 70
     1
102
RTVSPropertyOp13
 70
     1
102
RTVSPropertyOp14
 70
     1
102
RTVSPropertyOp15
 70
     1
102
RTVSPropertyOp16
 70
     1
102
RTVSPropertyOp17
 70
     1
102
RTVSPropertyOp18
 70
     1
102
RTVSPropertyOp19
 70
     1
102
RTVSPropertyOp20
 70
     1
102
RTVSPropertyOp21
 70
     1
102
RTVSPropertyOp22
 70
     1
102
RTVSPropertyOp23
 70
     1
102
RTVSPropertyOp24
 70
     1
102
RTVSPropertyOp25
 70
     1
102
RTVSPropertyOp26
 70
     1
102
RTVSPropertyOp27
 70
     1
  0
XRECORD
  5
317C
102
{ACAD_REACTORS
330
317B
102
}
330
317B
100
AcDbXrecord
280
     1
102
RTVSPost2010Prop28
280
     0
102
RTVSPost2010PropOp28
 70
     1
102
RTVSPost2010Prop29
280
     1
102
RTVSPost2010PropOp29
 70
     1
102
RTVSPost2010Prop30
280
     1
102
RTVSPost2010PropOp30
 70
     1
102
RTVSPost2010Prop31
280
     0
102
RTVSPost2010PropOp31
 70
     1
102
RTVSPost2010Prop32
280
     0
102
RTVSPost2010PropOp32
 70
     1
102
RTVSPost2010Prop33
280
     0
102
RTVSPost2010PropOp33
 70
     1
102
RTVSPost2010Prop34
280
     0
102
RTVSPost2010PropOp34
 70
     1
102
RTVSPost2010Prop35
280
     0
102
RTVSPost2010PropOp35
 70
     1
102
RTVSPost2010Prop36
280
     0
102
RTVSPost2010PropOp36
 70
     1
102
RTVSPost2010Prop37
 90
       50
102
RTVSPost2010PropOp37
 70
     1
102
RTVSPost2010Prop38
140
0.0
102
RTVSPost2010PropOp38
 70
     1
102
RTVSPost2010Prop39
140
1.0
102
RTVSPost2010PropOp39
 70
     1
102
RTVSPost2010Prop40
 90
        0
102
RTVSPost2010PropOp40
 70
     1
102
RTVSPost2010Prop41ColorIndex
 90
       18
102
RTVSPost2010Prop41ColorRGB
 90
        0
102
RTVSPost2010PropOp41
 70
     1
102
RTVSPost2010Prop42
 90
       50
102
RTVSPost2010PropOp42
 70
     1
102
RTVSPost2010Prop43
 90
        3
102
RTVSPost2010PropOp43
 70
     1
102
RTVSPost2010Prop44ColorIndex
 90
        5
102
RTVSPost2010Prop44ColorRGB
 90
      255
102
RTVSPost2010PropOp44
 70
     1
102
RTVSPost2010Prop45
280
     0
102
RTVSPost2010PropOp45
 70
     1
102
RTVSPost2010Prop46
 90
       50
102
RTVSPost2010PropOp46
 70
     1
102
RTVSPost2010Prop47
 90
       50
102
RTVSPost2010PropOp47
 70
     1
102
RTVSPost2010Prop48
 90
       50
102
RTVSPost2010PropOp48
 70
     1
102
RTVSPost2010Prop49
280
     0
102
RTVSPost2010PropOp49
 70
     1
102
RTVSPost2010Prop50
 90
       50
102
RTVSPost2010PropOp50
 70
     1
102
RTVSPost2010Prop51ColorIndex
 90
      256
102
RTVSPost2010Prop51ColorRGB
 90
-16777216
102
RTVSPost2010PropOp51
 70
     0
102
RTVSPost2010Prop52
140
1.0
102
RTVSPost2010PropOp52
 70
     0
102
RTVSPost2010Prop53
 90
        2
102
RTVSPost2010PropOp53
 70
     1
102
RTVSPost2010Prop54
  1
strokes_ogs.tif
102
RTVSPost2010PropOp54
 70
     1
102
RTVSPost2010Prop55
280
     0
102
RTVSPost2010PropOp55
 70
     1
102
RTVSPost2010Prop56
140
1.0
102
RTVSPost2010PropOp56
 70
     1
102
RTVSPost2010Prop57
140
1.0
102
RTVSPost2010PropOp57
 70
     1
102
RTVSPropertyOp28
 70
     1
102
RTVSPropertyOp29
 70
     1
102
RTVSPropertyOp30
 70
     1
102
RTVSPropertyOp31
 70
     1
102
RTVSPropertyOp32
 70
     1
102
RTVSPropertyOp33
 70
     1
102
RTVSPropertyOp34
 70
     1
102
RTVSPropertyOp35
 70
     1
102
RTVSPropertyOp36
 70
     1
102
RTVSPropertyOp37
 70
     1
102
RTVSPropertyOp38
 70
     1
102
RTVSPropertyOp39
 70
     1
102
RTVSPropertyOp40
 70
     1
102
RTVSPropertyOp41
 70
     1
102
RTVSPropertyOp42
 70
     1
102
RTVSPropertyOp43
 70
     1
102
RTVSPropertyOp44
 70
     1
102
RTVSPropertyOp45
 70
     1
102
RTVSPropertyOp46
 70
     1
102
RTVSPropertyOp47
 70
     1
102
RTVSPropertyOp48
 70
     1
102
RTVSPropertyOp49
 70
     1
102
RTVSPropertyOp50
 70
     1
102
RTVSPropertyOp51
 70
     0
102
RTVSPropertyOp52
 70
     0
102
RTVSPropertyOp53
 70
     1
102
RTVSPropertyOp54
 70
     1
102
RTVSPropertyOp55
 70
     1
102
RTVSPropertyOp56
 70
     1
102
RTVSPropertyOp57
 70
     1
102
RTVSPropertyOp58
 70
     1
102
RTVSPropertyOp59
 70
     1
102
RTVSPropertyOp60
 70
     1
102
RTVSPropertyOp61
 70
     1
102
RTVSPropertyOp62
 70
     1
102
RTVSPropertyOp0
 70
     1
102
RTVSPropertyOp1
 70
     1
102
RTVSPropertyOp2
 70
     1
102
RTVSPropertyOp3
 70
     1
102
RTVSPropertyOp4
 70
     1
102
RTVSPropertyOp5
 70
     1
102
RTVSPropertyOp6
 70
     1
102
RTVSPropertyOp7
 70
     1
102
RTVSPropertyOp8
 70
     1
102
RTVSPropertyOp9
 70
     1
102
RTVSPropertyOp10
 70
     1
102
RTVSPropertyOp11
 70
     1
102
RTVSPropertyOp12
 70
     1
102
RTVSPropertyOp13
 70
     1
102
RTVSPropertyOp14
 70
     1
102
RTVSPropertyOp15
 70
     1
102
RTVSPropertyOp16
 70
     1
102
RTVSPropertyOp17
 70
     1
102
RTVSPropertyOp18
 70
     1
102
RTVSPropertyOp19
 70
     1
102
RTVSPropertyOp20
 70
     1
102
RTVSPropertyOp21
 70
     1
102
RTVSPropertyOp22
 70
     1
102
RTVSPropertyOp23
 70
     1
102
RTVSPropertyOp24
 70
     1
102
RTVSPropertyOp25
 70
     1
102
RTVSPropertyOp26
 70
     1
102
RTVSPropertyOp27
 70
     1
  0
XRECORD
  5
3180
102
{ACAD_REACTORS
330
317F
102
}
330
317F
100
AcDbXrecord
280
     1
102
RTVSPost2010Prop28
280
     0
102
RTVSPost2010PropOp28
 70
     1
102
RTVSPost2010Prop29
280
     1
102
RTVSPost2010PropOp29
 70
     1
102
RTVSPost2010Prop30
280
     1
102
RTVSPost2010PropOp30
 70
     1
102
RTVSPost2010Prop31
280
     0
102
RTVSPost2010PropOp31
 70
     1
102
RTVSPost2010Prop32
280
     0
102
RTVSPost2010PropOp32
 70
     1
102
RTVSPost2010Prop33
280
     0
102
RTVSPost2010PropOp33
 70
     1
102
RTVSPost2010Prop34
280
     0
102
RTVSPost2010PropOp34
 70
     1
102
RTVSPost2010Prop35
280
     0
102
RTVSPost2010PropOp35
 70
     1
102
RTVSPost2010Prop36
280
     0
102
RTVSPost2010PropOp36
 70
     1
102
RTVSPost2010Prop37
 90
       50
102
RTVSPost2010PropOp37
 70
     1
102
RTVSPost2010Prop38
140
0.0
102
RTVSPost2010PropOp38
 70
     1
102
RTVSPost2010Prop39
140
1.0
102
RTVSPost2010PropOp39
 70
     1
102
RTVSPost2010Prop40
 90
        0
102
RTVSPost2010PropOp40
 70
     1
102
RTVSPost2010Prop41ColorIndex
 90
       18
102
RTVSPost2010Prop41ColorRGB
 90
        0
102
RTVSPost2010PropOp41
 70
     1
102
RTVSPost2010Prop42
 90
       50
102
RTVSPost2010PropOp42
 70
     1
102
RTVSPost2010Prop43
 90
        3
102
RTVSPost2010PropOp43
 70
     1
102
RTVSPost2010Prop44ColorIndex
 90
        5
102
RTVSPost2010Prop44ColorRGB
 90
      255
102
RTVSPost2010PropOp44
 70
     1
102
RTVSPost2010Prop45
280
     0
102
RTVSPost2010PropOp45
 70
     1
102
RTVSPost2010Prop46
 90
       50
102
RTVSPost2010PropOp46
 70
     1
102
RTVSPost2010Prop47
 90
       50
102
RTVSPost2010PropOp47
 70
     1
102
RTVSPost2010Prop48
 90
       50
102
RTVSPost2010PropOp48
 70
     1
102
RTVSPost2010Prop49
280
     0
102
RTVSPost2010PropOp49
 70
     1
102
RTVSPost2010Prop50
 90
       50
102
RTVSPost2010PropOp50
 70
     1
102
RTVSPost2010Prop51ColorIndex
 90
      256
102
RTVSPost2010Prop51ColorRGB
 90
-16777216
102
RTVSPost2010PropOp51
 70
     0
102
RTVSPost2010Prop52
140
1.0
102
RTVSPost2010PropOp52
 70
     0
102
RTVSPost2010Prop53
 90
        2
102
RTVSPost2010PropOp53
 70
     1
102
RTVSPost2010Prop54
  1
strokes_ogs.tif
102
RTVSPost2010PropOp54
 70
     1
102
RTVSPost2010Prop55
280
     0
102
RTVSPost2010PropOp55
 70
     1
102
RTVSPost2010Prop56
140
1.0
102
RTVSPost2010PropOp56
 70
     1
102
RTVSPost2010Prop57
140
1.0
102
RTVSPost2010PropOp57
 70
     1
102
RTVSPropertyOp28
 70
     1
102
RTVSPropertyOp29
 70
     1
102
RTVSPropertyOp30
 70
     1
102
RTVSPropertyOp31
 70
     1
102
RTVSPropertyOp32
 70
     1
102
RTVSPropertyOp33
 70
     1
102
RTVSPropertyOp34
 70
     1
102
RTVSPropertyOp35
 70
     1
102
RTVSPropertyOp36
 70
     1
102
RTVSPropertyOp37
 70
     1
102
RTVSPropertyOp38
 70
     1
102
RTVSPropertyOp39
 70
     1
102
RTVSPropertyOp40
 70
     1
102
RTVSPropertyOp41
 70
     1
102
RTVSPropertyOp42
 70
     1
102
RTVSPropertyOp43
 70
     1
102
RTVSPropertyOp44
 70
     1
102
RTVSPropertyOp45
 70
     1
102
RTVSPropertyOp46
 70
     1
102
RTVSPropertyOp47
 70
     1
102
RTVSPropertyOp48
 70
     1
102
RTVSPropertyOp49
 70
     1
102
RTVSPropertyOp50
 70
     1
102
RTVSPropertyOp51
 70
     0
102
RTVSPropertyOp52
 70
     0
102
RTVSPropertyOp53
 70
     1
102
RTVSPropertyOp54
 70
     1
102
RTVSPropertyOp55
 70
     1
102
RTVSPropertyOp56
 70
     1
102
RTVSPropertyOp57
 70
     1
102
RTVSPropertyOp58
 70
     1
102
RTVSPropertyOp59
 70
     1
102
RTVSPropertyOp60
 70
     1
102
RTVSPropertyOp61
 70
     1
102
RTVSPropertyOp62
 70
     1
102
RTVSPropertyOp0
 70
     1
102
RTVSPropertyOp1
 70
     1
102
RTVSPropertyOp2
 70
     1
102
RTVSPropertyOp3
 70
     1
102
RTVSPropertyOp4
 70
     1
102
RTVSPropertyOp5
 70
     1
102
RTVSPropertyOp6
 70
     1
102
RTVSPropertyOp7
 70
     1
102
RTVSPropertyOp8
 70
     1
102
RTVSPropertyOp9
 70
     1
102
RTVSPropertyOp10
 70
     1
102
RTVSPropertyOp11
 70
     1
102
RTVSPropertyOp12
 70
     1
102
RTVSPropertyOp13
 70
     1
102
RTVSPropertyOp14
 70
     1
102
RTVSPropertyOp15
 70
     1
102
RTVSPropertyOp16
 70
     1
102
RTVSPropertyOp17
 70
     1
102
RTVSPropertyOp18
 70
     1
102
RTVSPropertyOp19
 70
     1
102
RTVSPropertyOp20
 70
     1
102
RTVSPropertyOp21
 70
     1
102
RTVSPropertyOp22
 70
     1
102
RTVSPropertyOp23
 70
     1
102
RTVSPropertyOp24
 70
     1
102
RTVSPropertyOp25
 70
     1
102
RTVSPropertyOp26
 70
     1
102
RTVSPropertyOp27
 70
     1
  0
XRECORD
  5
319A
102
{ACAD_REACTORS
330
3199
102
}
330
3199
100
AcDbXrecord
280
     1
102
RTVSPost2010Prop28
280
     0
102
RTVSPost2010PropOp28
 70
     1
102
RTVSPost2010Prop29
280
     1
102
RTVSPost2010PropOp29
 70
     1
102
RTVSPost2010Prop30
280
     1
102
RTVSPost2010PropOp30
 70
     1
102
RTVSPost2010Prop31
280
     0
102
RTVSPost2010PropOp31
 70
     1
102
RTVSPost2010Prop32
280
     0
102
RTVSPost2010PropOp32
 70
     1
102
RTVSPost2010Prop33
280
     0
102
RTVSPost2010PropOp33
 70
     1
102
RTVSPost2010Prop34
280
     0
102
RTVSPost2010PropOp34
 70
     1
102
RTVSPost2010Prop35
280
     0
102
RTVSPost2010PropOp35
 70
     1
102
RTVSPost2010Prop36
280
     0
102
RTVSPost2010PropOp36
 70
     1
102
RTVSPost2010Prop37
 90
       50
102
RTVSPost2010PropOp37
 70
     1
102
RTVSPost2010Prop38
140
0.0
102
RTVSPost2010PropOp38
 70
     1
102
RTVSPost2010Prop39
140
1.0
102
RTVSPost2010PropOp39
 70
     1
102
RTVSPost2010Prop40
 90
        0
102
RTVSPost2010PropOp40
 70
     1
102
RTVSPost2010Prop41ColorIndex
 90
       18
102
RTVSPost2010Prop41ColorRGB
 90
        0
102
RTVSPost2010PropOp41
 70
     1
102
RTVSPost2010Prop42
 90
       50
102
RTVSPost2010PropOp42
 70
     1
102
RTVSPost2010Prop43
 90
        3
102
RTVSPost2010PropOp43
 70
     1
102
RTVSPost2010Prop44ColorIndex
 90
        5
102
RTVSPost2010Prop44ColorRGB
 90
      255
102
RTVSPost2010PropOp44
 70
     1
102
RTVSPost2010Prop45
280
     0
102
RTVSPost2010PropOp45
 70
     1
102
RTVSPost2010Prop46
 90
       50
102
RTVSPost2010PropOp46
 70
     1
102
RTVSPost2010Prop47
 90
       50
102
RTVSPost2010PropOp47
 70
     1
102
RTVSPost2010Prop48
 90
       50
102
RTVSPost2010PropOp48
 70
     1
102
RTVSPost2010Prop49
280
     0
102
RTVSPost2010PropOp49
 70
     1
102
RTVSPost2010Prop50
 90
       50
102
RTVSPost2010PropOp50
 70
     1
102
RTVSPost2010Prop51ColorIndex
 90
      256
102
RTVSPost2010Prop51ColorRGB
 90
-16777216
102
RTVSPost2010PropOp51
 70
     0
102
RTVSPost2010Prop52
140
1.0
102
RTVSPost2010PropOp52
 70
     0
102
RTVSPost2010Prop53
 90
        2
102
RTVSPost2010PropOp53
 70
     1
102
RTVSPost2010Prop54
  1
strokes_ogs.tif
102
RTVSPost2010PropOp54
 70
     1
102
RTVSPost2010Prop55
280
     0
102
RTVSPost2010PropOp55
 70
     1
102
RTVSPost2010Prop56
140
1.0
102
RTVSPost2010PropOp56
 70
     1
102
RTVSPost2010Prop57
140
1.0
102
RTVSPost2010PropOp57
 70
     1
102
RTVSPropertyOp28
 70
     1
102
RTVSPropertyOp29
 70
     1
102
RTVSPropertyOp30
 70
     1
102
RTVSPropertyOp31
 70
     1
102
RTVSPropertyOp32
 70
     1
102
RTVSPropertyOp33
 70
     1
102
RTVSPropertyOp34
 70
     1
102
RTVSPropertyOp35
 70
     1
102
RTVSPropertyOp36
 70
     1
102
RTVSPropertyOp37
 70
     1
102
RTVSPropertyOp38
 70
     1
102
RTVSPropertyOp39
 70
     1
102
RTVSPropertyOp40
 70
     1
102
RTVSPropertyOp41
 70
     1
102
RTVSPropertyOp42
 70
     1
102
RTVSPropertyOp43
 70
     1
102
RTVSPropertyOp44
 70
     1
102
RTVSPropertyOp45
 70
     1
102
RTVSPropertyOp46
 70
     1
102
RTVSPropertyOp47
 70
     1
102
RTVSPropertyOp48
 70
     1
102
RTVSPropertyOp49
 70
     1
102
RTVSPropertyOp50
 70
     1
102
RTVSPropertyOp51
 70
     0
102
RTVSPropertyOp52
 70
     0
102
RTVSPropertyOp53
 70
     1
102
RTVSPropertyOp54
 70
     1
102
RTVSPropertyOp55
 70
     1
102
RTVSPropertyOp56
 70
     1
102
RTVSPropertyOp57
 70
     1
102
RTVSPropertyOp58
 70
     1
102
RTVSPropertyOp59
 70
     1
102
RTVSPropertyOp60
 70
     1
102
RTVSPropertyOp61
 70
     1
102
RTVSPropertyOp62
 70
     1
102
RTVSPropertyOp0
 70
     0
102
RTVSPropertyOp1
 70
     0
102
RTVSPropertyOp2
 70
     0
102
RTVSPropertyOp3
 70
     0
102
RTVSPropertyOp4
 70
     0
102
RTVSPropertyOp5
 70
     0
102
RTVSPropertyOp6
 70
     0
102
RTVSPropertyOp7
 70
     0
102
RTVSPropertyOp8
 70
     0
102
RTVSPropertyOp9
 70
     0
102
RTVSPropertyOp10
 70
     0
102
RTVSPropertyOp11
 70
     0
102
RTVSPropertyOp12
 70
     0
102
RTVSPropertyOp13
 70
     0
102
RTVSPropertyOp14
 70
     2
102
RTVSPropertyOp15
 70
     0
102
RTVSPropertyOp16
 70
     0
102
RTVSPropertyOp17
 70
     0
102
RTVSPropertyOp18
 70
     0
102
RTVSPropertyOp19
 70
     0
102
RTVSPropertyOp20
 70
     0
102
RTVSPropertyOp21
 70
     0
102
RTVSPropertyOp22
 70
     0
102
RTVSPropertyOp23
 70
     0
102
RTVSPropertyOp24
 70
     0
102
RTVSPropertyOp25
 70
     0
102
RTVSPropertyOp26
 70
     0
102
RTVSPropertyOp27
 70
     0
  0
XRECORD
  5
3188
102
{ACAD_REACTORS
330
3187
102
}
330
3187
100
AcDbXrecord
280
     1
102
RTVSPost2010Prop28
280
     0
102
RTVSPost2010PropOp28
 70
     1
102
RTVSPost2010Prop29
280
     1
102
RTVSPost2010PropOp29
 70
     1
102
RTVSPost2010Prop30
280
     1
102
RTVSPost2010PropOp30
 70
     1
102
RTVSPost2010Prop31
280
     0
102
RTVSPost2010PropOp31
 70
     1
102
RTVSPost2010Prop32
280
     0
102
RTVSPost2010PropOp32
 70
     1
102
RTVSPost2010Prop33
280
     0
102
RTVSPost2010PropOp33
 70
     1
102
RTVSPost2010Prop34
280
     0
102
RTVSPost2010PropOp34
 70
     1
102
RTVSPost2010Prop35
280
     0
102
RTVSPost2010PropOp35
 70
     1
102
RTVSPost2010Prop36
280
     0
102
RTVSPost2010PropOp36
 70
     1
102
RTVSPost2010Prop37
 90
       50
102
RTVSPost2010PropOp37
 70
     1
102
RTVSPost2010Prop38
140
0.0
102
RTVSPost2010PropOp38
 70
     1
102
RTVSPost2010Prop39
140
1.0
102
RTVSPost2010PropOp39
 70
     1
102
RTVSPost2010Prop40
 90
        0
102
RTVSPost2010PropOp40
 70
     1
102
RTVSPost2010Prop41ColorIndex
 90
       18
102
RTVSPost2010Prop41ColorRGB
 90
        0
102
RTVSPost2010PropOp41
 70
     1
102
RTVSPost2010Prop42
 90
       50
102
RTVSPost2010PropOp42
 70
     1
102
RTVSPost2010Prop43
 90
        3
102
RTVSPost2010PropOp43
 70
     1
102
RTVSPost2010Prop44ColorIndex
 90
        5
102
RTVSPost2010Prop44ColorRGB
 90
      255
102
RTVSPost2010PropOp44
 70
     1
102
RTVSPost2010Prop45
280
     0
102
RTVSPost2010PropOp45
 70
     1
102
RTVSPost2010Prop46
 90
       50
102
RTVSPost2010PropOp46
 70
     1
102
RTVSPost2010Prop47
 90
       50
102
RTVSPost2010PropOp47
 70
     1
102
RTVSPost2010Prop48
 90
       50
102
RTVSPost2010PropOp48
 70
     1
102
RTVSPost2010Prop49
280
     0
102
RTVSPost2010PropOp49
 70
     1
102
RTVSPost2010Prop50
 90
       50
102
RTVSPost2010PropOp50
 70
     1
102
RTVSPost2010Prop51ColorIndex
 90
      256
102
RTVSPost2010Prop51ColorRGB
 90
-16777216
102
RTVSPost2010PropOp51
 70
     0
102
RTVSPost2010Prop52
140
1.0
102
RTVSPost2010PropOp52
 70
     0
102
RTVSPost2010Prop53
 90
        2
102
RTVSPost2010PropOp53
 70
     1
102
RTVSPost2010Prop54
  1
strokes_ogs.tif
102
RTVSPost2010PropOp54
 70
     1
102
RTVSPost2010Prop55
280
     0
102
RTVSPost2010PropOp55
 70
     1
102
RTVSPost2010Prop56
140
1.0
102
RTVSPost2010PropOp56
 70
     1
102
RTVSPost2010Prop57
140
1.0
102
RTVSPost2010PropOp57
 70
     1
102
RTVSPropertyOp28
 70
     1
102
RTVSPropertyOp29
 70
     1
102
RTVSPropertyOp30
 70
     1
102
RTVSPropertyOp31
 70
     1
102
RTVSPropertyOp32
 70
     1
102
RTVSPropertyOp33
 70
     1
102
RTVSPropertyOp34
 70
     1
102
RTVSPropertyOp35
 70
     1
102
RTVSPropertyOp36
 70
     1
102
RTVSPropertyOp37
 70
     1
102
RTVSPropertyOp38
 70
     1
102
RTVSPropertyOp39
 70
     1
102
RTVSPropertyOp40
 70
     1
102
RTVSPropertyOp41
 70
     1
102
RTVSPropertyOp42
 70
     1
102
RTVSPropertyOp43
 70
     1
102
RTVSPropertyOp44
 70
     1
102
RTVSPropertyOp45
 70
     1
102
RTVSPropertyOp46
 70
     1
102
RTVSPropertyOp47
 70
     1
102
RTVSPropertyOp48
 70
     1
102
RTVSPropertyOp49
 70
     1
102
RTVSPropertyOp50
 70
     1
102
RTVSPropertyOp51
 70
     0
102
RTVSPropertyOp52
 70
     0
102
RTVSPropertyOp53
 70
     1
102
RTVSPropertyOp54
 70
     1
102
RTVSPropertyOp55
 70
     1
102
RTVSPropertyOp56
 70
     1
102
RTVSPropertyOp57
 70
     1
102
RTVSPropertyOp58
 70
     1
102
RTVSPropertyOp59
 70
     1
102
RTVSPropertyOp60
 70
     1
102
RTVSPropertyOp61
 70
     1
102
RTVSPropertyOp62
 70
     1
102
RTVSPropertyOp0
 70
     1
102
RTVSPropertyOp1
 70
     1
102
RTVSPropertyOp2
 70
     1
102
RTVSPropertyOp3
 70
     1
102
RTVSPropertyOp4
 70
     1
102
RTVSPropertyOp5
 70
     1
102
RTVSPropertyOp6
 70
     1
102
RTVSPropertyOp7
 70
     1
102
RTVSPropertyOp8
 70
     1
102
RTVSPropertyOp9
 70
     1
102
RTVSPropertyOp10
 70
     1
102
RTVSPropertyOp11
 70
     1
102
RTVSPropertyOp12
 70
     1
102
RTVSPropertyOp13
 70
     1
102
RTVSPropertyOp14
 70
     1
102
RTVSPropertyOp15
 70
     1
102
RTVSPropertyOp16
 70
     1
102
RTVSPropertyOp17
 70
     1
102
RTVSPropertyOp18
 70
     1
102
RTVSPropertyOp19
 70
     1
102
RTVSPropertyOp20
 70
     1
102
RTVSPropertyOp21
 70
     1
102
RTVSPropertyOp22
 70
     1
102
RTVSPropertyOp23
 70
     1
102
RTVSPropertyOp24
 70
     1
102
RTVSPropertyOp25
 70
     1
102
RTVSPropertyOp26
 70
     1
102
RTVSPropertyOp27
 70
     1
  0
XRECORD
  5
316C
102
{ACAD_REACTORS
330
316B
102
}
330
316B
100
AcDbXrecord
280
     1
102
RTVSPost2010Prop28
280
     0
102
RTVSPost2010PropOp28
 70
     1
102
RTVSPost2010Prop29
280
     1
102
RTVSPost2010PropOp29
 70
     1
102
RTVSPost2010Prop30
280
     1
102
RTVSPost2010PropOp30
 70
     1
102
RTVSPost2010Prop31
280
     0
102
RTVSPost2010PropOp31
 70
     1
102
RTVSPost2010Prop32
280
     0
102
RTVSPost2010PropOp32
 70
     1
102
RTVSPost2010Prop33
280
     0
102
RTVSPost2010PropOp33
 70
     1
102
RTVSPost2010Prop34
280
     0
102
RTVSPost2010PropOp34
 70
     1
102
RTVSPost2010Prop35
280
     0
102
RTVSPost2010PropOp35
 70
     1
102
RTVSPost2010Prop36
280
     0
102
RTVSPost2010PropOp36
 70
     1
102
RTVSPost2010Prop37
 90
       50
102
RTVSPost2010PropOp37
 70
     1
102
RTVSPost2010Prop38
140
0.0
102
RTVSPost2010PropOp38
 70
     1
102
RTVSPost2010Prop39
140
1.0
102
RTVSPost2010PropOp39
 70
     1
102
RTVSPost2010Prop40
 90
        0
102
RTVSPost2010PropOp40
 70
     1
102
RTVSPost2010Prop41ColorIndex
 90
       18
102
RTVSPost2010Prop41ColorRGB
 90
        0
102
RTVSPost2010PropOp41
 70
     1
102
RTVSPost2010Prop42
 90
       50
102
RTVSPost2010PropOp42
 70
     1
102
RTVSPost2010Prop43
 90
        3
102
RTVSPost2010PropOp43
 70
     1
102
RTVSPost2010Prop44ColorIndex
 90
        5
102
RTVSPost2010Prop44ColorRGB
 90
      255
102
RTVSPost2010PropOp44
 70
     1
102
RTVSPost2010Prop45
280
     0
102
RTVSPost2010PropOp45
 70
     1
102
RTVSPost2010Prop46
 90
       50
102
RTVSPost2010PropOp46
 70
     1
102
RTVSPost2010Prop47
 90
       50
102
RTVSPost2010PropOp47
 70
     1
102
RTVSPost2010Prop48
 90
       50
102
RTVSPost2010PropOp48
 70
     1
102
RTVSPost2010Prop49
280
     0
102
RTVSPost2010PropOp49
 70
     1
102
RTVSPost2010Prop50
 90
       50
102
RTVSPost2010PropOp50
 70
     1
102
RTVSPost2010Prop51ColorIndex
 90
      256
102
RTVSPost2010Prop51ColorRGB
 90
-16777216
102
RTVSPost2010PropOp51
 70
     0
102
RTVSPost2010Prop52
140
1.0
102
RTVSPost2010PropOp52
 70
     0
102
RTVSPost2010Prop53
 90
        2
102
RTVSPost2010PropOp53
 70
     1
102
RTVSPost2010Prop54
  1
strokes_ogs.tif
102
RTVSPost2010PropOp54
 70
     1
102
RTVSPost2010Prop55
280
     0
102
RTVSPost2010PropOp55
 70
     1
102
RTVSPost2010Prop56
140
1.0
102
RTVSPost2010PropOp56
 70
     1
102
RTVSPost2010Prop57
140
1.0
102
RTVSPost2010PropOp57
 70
     1
102
RTVSPropertyOp28
 70
     1
102
RTVSPropertyOp29
 70
     1
102
RTVSPropertyOp30
 70
     1
102
RTVSPropertyOp31
 70
     1
102
RTVSPropertyOp32
 70
     1
102
RTVSPropertyOp33
 70
     1
102
RTVSPropertyOp34
 70
     1
102
RTVSPropertyOp35
 70
     1
102
RTVSPropertyOp36
 70
     1
102
RTVSPropertyOp37
 70
     1
102
RTVSPropertyOp38
 70
     1
102
RTVSPropertyOp39
 70
     1
102
RTVSPropertyOp40
 70
     1
102
RTVSPropertyOp41
 70
     1
102
RTVSPropertyOp42
 70
     1
102
RTVSPropertyOp43
 70
     1
102
RTVSPropertyOp44
 70
     1
102
RTVSPropertyOp45
 70
     1
102
RTVSPropertyOp46
 70
     1
102
RTVSPropertyOp47
 70
     1
102
RTVSPropertyOp48
 70
     1
102
RTVSPropertyOp49
 70
     1
102
RTVSPropertyOp50
 70
     1
102
RTVSPropertyOp51
 70
     0
102
RTVSPropertyOp52
 70
     0
102
RTVSPropertyOp53
 70
     1
102
RTVSPropertyOp54
 70
     1
102
RTVSPropertyOp55
 70
     1
102
RTVSPropertyOp56
 70
     1
102
RTVSPropertyOp57
 70
     1
102
RTVSPropertyOp58
 70
     1
102
RTVSPropertyOp59
 70
     1
102
RTVSPropertyOp60
 70
     1
102
RTVSPropertyOp61
 70
     1
102
RTVSPropertyOp62
 70
     1
102
RTVSPropertyOp0
 70
     1
102
RTVSPropertyOp1
 70
     1
102
RTVSPropertyOp2
 70
     1
102
RTVSPropertyOp3
 70
     1
102
RTVSPropertyOp4
 70
     1
102
RTVSPropertyOp5
 70
     1
102
RTVSPropertyOp6
 70
     1
102
RTVSPropertyOp7
 70
     1
102
RTVSPropertyOp8
 70
     1
102
RTVSPropertyOp9
 70
     1
102
RTVSPropertyOp10
 70
     1
102
RTVSPropertyOp11
 70
     1
102
RTVSPropertyOp12
 70
     1
102
RTVSPropertyOp13
 70
     1
102
RTVSPropertyOp14
 70
     1
102
RTVSPropertyOp15
 70
     1
102
RTVSPropertyOp16
 70
     1
102
RTVSPropertyOp17
 70
     1
102
RTVSPropertyOp18
 70
     1
102
RTVSPropertyOp19
 70
     1
102
RTVSPropertyOp20
 70
     1
102
RTVSPropertyOp21
 70
     1
102
RTVSPropertyOp22
 70
     1
102
RTVSPropertyOp23
 70
     1
102
RTVSPropertyOp24
 70
     1
102
RTVSPropertyOp25
 70
     1
102
RTVSPropertyOp26
 70
     1
102
RTVSPropertyOp27
 70
     1
  0
XRECORD
  5
316E
102
{ACAD_REACTORS
330
316D
102
}
330
316D
100
AcDbXrecord
280
     1
102
RTVSPost2010Prop28
280
     0
102
RTVSPost2010PropOp28
 70
     1
102
RTVSPost2010Prop29
280
     1
102
RTVSPost2010PropOp29
 70
     1
102
RTVSPost2010Prop30
280
     1
102
RTVSPost2010PropOp30
 70
     1
102
RTVSPost2010Prop31
280
     0
102
RTVSPost2010PropOp31
 70
     1
102
RTVSPost2010Prop32
280
     0
102
RTVSPost2010PropOp32
 70
     1
102
RTVSPost2010Prop33
280
     0
102
RTVSPost2010PropOp33
 70
     1
102
RTVSPost2010Prop34
280
     0
102
RTVSPost2010PropOp34
 70
     1
102
RTVSPost2010Prop35
280
     0
102
RTVSPost2010PropOp35
 70
     1
102
RTVSPost2010Prop36
280
     0
102
RTVSPost2010PropOp36
 70
     1
102
RTVSPost2010Prop37
 90
       50
102
RTVSPost2010PropOp37
 70
     1
102
RTVSPost2010Prop38
140
0.0
102
RTVSPost2010PropOp38
 70
     1
102
RTVSPost2010Prop39
140
1.0
102
RTVSPost2010PropOp39
 70
     1
102
RTVSPost2010Prop40
 90
        0
102
RTVSPost2010PropOp40
 70
     1
102
RTVSPost2010Prop41ColorIndex
 90
       18
102
RTVSPost2010Prop41ColorRGB
 90
        0
102
RTVSPost2010PropOp41
 70
     1
102
RTVSPost2010Prop42
 90
       50
102
RTVSPost2010PropOp42
 70
     1
102
RTVSPost2010Prop43
 90
        3
102
RTVSPost2010PropOp43
 70
     1
102
RTVSPost2010Prop44ColorIndex
 90
        5
102
RTVSPost2010Prop44ColorRGB
 90
      255
102
RTVSPost2010PropOp44
 70
     1
102
RTVSPost2010Prop45
280
     0
102
RTVSPost2010PropOp45
 70
     1
102
RTVSPost2010Prop46
 90
       50
102
RTVSPost2010PropOp46
 70
     1
102
RTVSPost2010Prop47
 90
       50
102
RTVSPost2010PropOp47
 70
     1
102
RTVSPost2010Prop48
 90
       50
102
RTVSPost2010PropOp48
 70
     1
102
RTVSPost2010Prop49
280
     0
102
RTVSPost2010PropOp49
 70
     1
102
RTVSPost2010Prop50
 90
       50
102
RTVSPost2010PropOp50
 70
     1
102
RTVSPost2010Prop51ColorIndex
 90
      256
102
RTVSPost2010Prop51ColorRGB
 90
-16777216
102
RTVSPost2010PropOp51
 70
     0
102
RTVSPost2010Prop52
140
1.0
102
RTVSPost2010PropOp52
 70
     0
102
RTVSPost2010Prop53
 90
        2
102
RTVSPost2010PropOp53
 70
     1
102
RTVSPost2010Prop54
  1
strokes_ogs.tif
102
RTVSPost2010PropOp54
 70
     1
102
RTVSPost2010Prop55
280
     0
102
RTVSPost2010PropOp55
 70
     1
102
RTVSPost2010Prop56
140
1.0
102
RTVSPost2010PropOp56
 70
     1
102
RTVSPost2010Prop57
140
1.0
102
RTVSPost2010PropOp57
 70
     1
102
RTVSPropertyOp28
 70
     1
102
RTVSPropertyOp29
 70
     1
102
RTVSPropertyOp30
 70
     1
102
RTVSPropertyOp31
 70
     1
102
RTVSPropertyOp32
 70
     1
102
RTVSPropertyOp33
 70
     1
102
RTVSPropertyOp34
 70
     1
102
RTVSPropertyOp35
 70
     1
102
RTVSPropertyOp36
 70
     1
102
RTVSPropertyOp37
 70
     1
102
RTVSPropertyOp38
 70
     1
102
RTVSPropertyOp39
 70
     1
102
RTVSPropertyOp40
 70
     1
102
RTVSPropertyOp41
 70
     1
102
RTVSPropertyOp42
 70
     1
102
RTVSPropertyOp43
 70
     1
102
RTVSPropertyOp44
 70
     1
102
RTVSPropertyOp45
 70
     1
102
RTVSPropertyOp46
 70
     1
102
RTVSPropertyOp47
 70
     1
102
RTVSPropertyOp48
 70
     1
102
RTVSPropertyOp49
 70
     1
102
RTVSPropertyOp50
 70
     1
102
RTVSPropertyOp51
 70
     0
102
RTVSPropertyOp52
 70
     0
102
RTVSPropertyOp53
 70
     1
102
RTVSPropertyOp54
 70
     1
102
RTVSPropertyOp55
 70
     1
102
RTVSPropertyOp56
 70
     1
102
RTVSPropertyOp57
 70
     1
102
RTVSPropertyOp58
 70
     1
102
RTVSPropertyOp59
 70
     1
102
RTVSPropertyOp60
 70
     1
102
RTVSPropertyOp61
 70
     1
102
RTVSPropertyOp62
 70
     1
102
RTVSPropertyOp0
 70
     1
102
RTVSPropertyOp1
 70
     1
102
RTVSPropertyOp2
 70
     1
102
RTVSPropertyOp3
 70
     1
102
RTVSPropertyOp4
 70
     1
102
RTVSPropertyOp5
 70
     1
102
RTVSPropertyOp6
 70
     1
102
RTVSPropertyOp7
 70
     1
102
RTVSPropertyOp8
 70
     1
102
RTVSPropertyOp9
 70
     1
102
RTVSPropertyOp10
 70
     1
102
RTVSPropertyOp11
 70
     1
102
RTVSPropertyOp12
 70
     1
102
RTVSPropertyOp13
 70
     1
102
RTVSPropertyOp14
 70
     1
102
RTVSPropertyOp15
 70
     1
102
RTVSPropertyOp16
 70
     1
102
RTVSPropertyOp17
 70
     1
102
RTVSPropertyOp18
 70
     1
102
RTVSPropertyOp19
 70
     1
102
RTVSPropertyOp20
 70
     1
102
RTVSPropertyOp21
 70
     1
102
RTVSPropertyOp22
 70
     1
102
RTVSPropertyOp23
 70
     1
102
RTVSPropertyOp24
 70
     1
102
RTVSPropertyOp25
 70
     1
102
RTVSPropertyOp26
 70
     1
102
RTVSPropertyOp27
 70
     1
  0
XRECORD
  5
3170
102
{ACAD_REACTORS
330
316F
102
}
330
316F
100
AcDbXrecord
280
     1
102
RTVSPost2010Prop28
280
     0
102
RTVSPost2010PropOp28
 70
     1
102
RTVSPost2010Prop29
280
     1
102
RTVSPost2010PropOp29
 70
     1
102
RTVSPost2010Prop30
280
     1
102
RTVSPost2010PropOp30
 70
     1
102
RTVSPost2010Prop31
280
     0
102
RTVSPost2010PropOp31
 70
     1
102
RTVSPost2010Prop32
280
     0
102
RTVSPost2010PropOp32
 70
     1
102
RTVSPost2010Prop33
280
     0
102
RTVSPost2010PropOp33
 70
     1
102
RTVSPost2010Prop34
280
     0
102
RTVSPost2010PropOp34
 70
     1
102
RTVSPost2010Prop35
280
     0
102
RTVSPost2010PropOp35
 70
     1
102
RTVSPost2010Prop36
280
     0
102
RTVSPost2010PropOp36
 70
     1
102
RTVSPost2010Prop37
 90
       50
102
RTVSPost2010PropOp37
 70
     1
102
RTVSPost2010Prop38
140
0.0
102
RTVSPost2010PropOp38
 70
     1
102
RTVSPost2010Prop39
140
1.0
102
RTVSPost2010PropOp39
 70
     1
102
RTVSPost2010Prop40
 90
        0
102
RTVSPost2010PropOp40
 70
     1
102
RTVSPost2010Prop41ColorIndex
 90
       18
102
RTVSPost2010Prop41ColorRGB
 90
        0
102
RTVSPost2010PropOp41
 70
     1
102
RTVSPost2010Prop42
 90
       50
102
RTVSPost2010PropOp42
 70
     1
102
RTVSPost2010Prop43
 90
        3
102
RTVSPost2010PropOp43
 70
     1
102
RTVSPost2010Prop44ColorIndex
 90
        5
102
RTVSPost2010Prop44ColorRGB
 90
      255
102
RTVSPost2010PropOp44
 70
     1
102
RTVSPost2010Prop45
280
     0
102
RTVSPost2010PropOp45
 70
     1
102
RTVSPost2010Prop46
 90
       50
102
RTVSPost2010PropOp46
 70
     1
102
RTVSPost2010Prop47
 90
       50
102
RTVSPost2010PropOp47
 70
     1
102
RTVSPost2010Prop48
 90
       50
102
RTVSPost2010PropOp48
 70
     1
102
RTVSPost2010Prop49
280
     0
102
RTVSPost2010PropOp49
 70
     1
102
RTVSPost2010Prop50
 90
       50
102
RTVSPost2010PropOp50
 70
     1
102
RTVSPost2010Prop51ColorIndex
 90
      256
102
RTVSPost2010Prop51ColorRGB
 90
-16777216
102
RTVSPost2010PropOp51
 70
     0
102
RTVSPost2010Prop52
140
1.0
102
RTVSPost2010PropOp52
 70
     0
102
RTVSPost2010Prop53
 90
        2
102
RTVSPost2010PropOp53
 70
     1
102
RTVSPost2010Prop54
  1
strokes_ogs.tif
102
RTVSPost2010PropOp54
 70
     1
102
RTVSPost2010Prop55
280
     0
102
RTVSPost2010PropOp55
 70
     1
102
RTVSPost2010Prop56
140
1.0
102
RTVSPost2010PropOp56
 70
     1
102
RTVSPost2010Prop57
140
1.0
102
RTVSPost2010PropOp57
 70
     1
102
RTVSPropertyOp28
 70
     1
102
RTVSPropertyOp29
 70
     1
102
RTVSPropertyOp30
 70
     1
102
RTVSPropertyOp31
 70
     1
102
RTVSPropertyOp32
 70
     1
102
RTVSPropertyOp33
 70
     1
102
RTVSPropertyOp34
 70
     1
102
RTVSPropertyOp35
 70
     1
102
RTVSPropertyOp36
 70
     1
102
RTVSPropertyOp37
 70
     1
102
RTVSPropertyOp38
 70
     1
102
RTVSPropertyOp39
 70
     1
102
RTVSPropertyOp40
 70
     1
102
RTVSPropertyOp41
 70
     1
102
RTVSPropertyOp42
 70
     1
102
RTVSPropertyOp43
 70
     1
102
RTVSPropertyOp44
 70
     1
102
RTVSPropertyOp45
 70
     1
102
RTVSPropertyOp46
 70
     1
102
RTVSPropertyOp47
 70
     1
102
RTVSPropertyOp48
 70
     1
102
RTVSPropertyOp49
 70
     1
102
RTVSPropertyOp50
 70
     1
102
RTVSPropertyOp51
 70
     0
102
RTVSPropertyOp52
 70
     0
102
RTVSPropertyOp53
 70
     1
102
RTVSPropertyOp54
 70
     1
102
RTVSPropertyOp55
 70
     1
102
RTVSPropertyOp56
 70
     1
102
RTVSPropertyOp57
 70
     1
102
RTVSPropertyOp58
 70
     1
102
RTVSPropertyOp59
 70
     1
102
RTVSPropertyOp60
 70
     1
102
RTVSPropertyOp61
 70
     1
102
RTVSPropertyOp62
 70
     1
102
RTVSPropertyOp0
 70
     1
102
RTVSPropertyOp1
 70
     1
102
RTVSPropertyOp2
 70
     1
102
RTVSPropertyOp3
 70
     1
102
RTVSPropertyOp4
 70
     1
102
RTVSPropertyOp5
 70
     1
102
RTVSPropertyOp6
 70
     1
102
RTVSPropertyOp7
 70
     1
102
RTVSPropertyOp8
 70
     1
102
RTVSPropertyOp9
 70
     1
102
RTVSPropertyOp10
 70
     1
102
RTVSPropertyOp11
 70
     1
102
RTVSPropertyOp12
 70
     1
102
RTVSPropertyOp13
 70
     1
102
RTVSPropertyOp14
 70
     1
102
RTVSPropertyOp15
 70
     1
102
RTVSPropertyOp16
 70
     1
102
RTVSPropertyOp17
 70
     1
102
RTVSPropertyOp18
 70
     1
102
RTVSPropertyOp19
 70
     1
102
RTVSPropertyOp20
 70
     1
102
RTVSPropertyOp21
 70
     1
102
RTVSPropertyOp22
 70
     1
102
RTVSPropertyOp23
 70
     1
102
RTVSPropertyOp24
 70
     1
102
RTVSPropertyOp25
 70
     1
102
RTVSPropertyOp26
 70
     1
102
RTVSPropertyOp27
 70
     1
  0
XRECORD
  5
3172
102
{ACAD_REACTORS
330
3171
102
}
330
3171
100
AcDbXrecord
280
     1
102
RTVSPost2010Prop28
280
     0
102
RTVSPost2010PropOp28
 70
     1
102
RTVSPost2010Prop29
280
     1
102
RTVSPost2010PropOp29
 70
     1
102
RTVSPost2010Prop30
280
     1
102
RTVSPost2010PropOp30
 70
     1
102
RTVSPost2010Prop31
280
     0
102
RTVSPost2010PropOp31
 70
     1
102
RTVSPost2010Prop32
280
     0
102
RTVSPost2010PropOp32
 70
     1
102
RTVSPost2010Prop33
280
     0
102
RTVSPost2010PropOp33
 70
     1
102
RTVSPost2010Prop34
280
     0
102
RTVSPost2010PropOp34
 70
     1
102
RTVSPost2010Prop35
280
     0
102
RTVSPost2010PropOp35
 70
     1
102
RTVSPost2010Prop36
280
     0
102
RTVSPost2010PropOp36
 70
     1
102
RTVSPost2010Prop37
 90
       50
102
RTVSPost2010PropOp37
 70
     1
102
RTVSPost2010Prop38
140
0.0
102
RTVSPost2010PropOp38
 70
     1
102
RTVSPost2010Prop39
140
1.0
102
RTVSPost2010PropOp39
 70
     1
102
RTVSPost2010Prop40
 90
        0
102
RTVSPost2010PropOp40
 70
     1
102
RTVSPost2010Prop41ColorIndex
 90
       18
102
RTVSPost2010Prop41ColorRGB
 90
        0
102
RTVSPost2010PropOp41
 70
     1
102
RTVSPost2010Prop42
 90
       50
102
RTVSPost2010PropOp42
 70
     1
102
RTVSPost2010Prop43
 90
        3
102
RTVSPost2010PropOp43
 70
     1
102
RTVSPost2010Prop44ColorIndex
 90
        5
102
RTVSPost2010Prop44ColorRGB
 90
      255
102
RTVSPost2010PropOp44
 70
     1
102
RTVSPost2010Prop45
280
     0
102
RTVSPost2010PropOp45
 70
     1
102
RTVSPost2010Prop46
 90
       50
102
RTVSPost2010PropOp46
 70
     1
102
RTVSPost2010Prop47
 90
       50
102
RTVSPost2010PropOp47
 70
     1
102
RTVSPost2010Prop48
 90
       50
102
RTVSPost2010PropOp48
 70
     1
102
RTVSPost2010Prop49
280
     0
102
RTVSPost2010PropOp49
 70
     1
102
RTVSPost2010Prop50
 90
       50
102
RTVSPost2010PropOp50
 70
     1
102
RTVSPost2010Prop51ColorIndex
 90
      256
102
RTVSPost2010Prop51ColorRGB
 90
-16777216
102
RTVSPost2010PropOp51
 70
     0
102
RTVSPost2010Prop52
140
1.0
102
RTVSPost2010PropOp52
 70
     0
102
RTVSPost2010Prop53
 90
        2
102
RTVSPost2010PropOp53
 70
     1
102
RTVSPost2010Prop54
  1
strokes_ogs.tif
102
RTVSPost2010PropOp54
 70
     1
102
RTVSPost2010Prop55
280
     0
102
RTVSPost2010PropOp55
 70
     1
102
RTVSPost2010Prop56
140
1.0
102
RTVSPost2010PropOp56
 70
     1
102
RTVSPost2010Prop57
140
1.0
102
RTVSPost2010PropOp57
 70
     1
102
RTVSPropertyOp28
 70
     1
102
RTVSPropertyOp29
 70
     1
102
RTVSPropertyOp30
 70
     1
102
RTVSPropertyOp31
 70
     1
102
RTVSPropertyOp32
 70
     1
102
RTVSPropertyOp33
 70
     1
102
RTVSPropertyOp34
 70
     1
102
RTVSPropertyOp35
 70
     1
102
RTVSPropertyOp36
 70
     1
102
RTVSPropertyOp37
 70
     1
102
RTVSPropertyOp38
 70
     1
102
RTVSPropertyOp39
 70
     1
102
RTVSPropertyOp40
 70
     1
102
RTVSPropertyOp41
 70
     1
102
RTVSPropertyOp42
 70
     1
102
RTVSPropertyOp43
 70
     1
102
RTVSPropertyOp44
 70
     1
102
RTVSPropertyOp45
 70
     1
102
RTVSPropertyOp46
 70
     1
102
RTVSPropertyOp47
 70
     1
102
RTVSPropertyOp48
 70
     1
102
RTVSPropertyOp49
 70
     1
102
RTVSPropertyOp50
 70
     1
102
RTVSPropertyOp51
 70
     0
102
RTVSPropertyOp52
 70
     0
102
RTVSPropertyOp53
 70
     1
102
RTVSPropertyOp54
 70
     1
102
RTVSPropertyOp55
 70
     1
102
RTVSPropertyOp56
 70
     1
102
RTVSPropertyOp57
 70
     1
102
RTVSPropertyOp58
 70
     1
102
RTVSPropertyOp59
 70
     1
102
RTVSPropertyOp60
 70
     1
102
RTVSPropertyOp61
 70
     1
102
RTVSPropertyOp62
 70
     1
102
RTVSPropertyOp0
 70
     1
102
RTVSPropertyOp1
 70
     1
102
RTVSPropertyOp2
 70
     1
102
RTVSPropertyOp3
 70
     1
102
RTVSPropertyOp4
 70
     1
102
RTVSPropertyOp5
 70
     1
102
RTVSPropertyOp6
 70
     1
102
RTVSPropertyOp7
 70
     1
102
RTVSPropertyOp8
 70
     1
102
RTVSPropertyOp9
 70
     1
102
RTVSPropertyOp10
 70
     1
102
RTVSPropertyOp11
 70
     1
102
RTVSPropertyOp12
 70
     1
102
RTVSPropertyOp13
 70
     1
102
RTVSPropertyOp14
 70
     1
102
RTVSPropertyOp15
 70
     1
102
RTVSPropertyOp16
 70
     1
102
RTVSPropertyOp17
 70
     1
102
RTVSPropertyOp18
 70
     1
102
RTVSPropertyOp19
 70
     1
102
RTVSPropertyOp20
 70
     1
102
RTVSPropertyOp21
 70
     1
102
RTVSPropertyOp22
 70
     1
102
RTVSPropertyOp23
 70
     1
102
RTVSPropertyOp24
 70
     1
102
RTVSPropertyOp25
 70
     1
102
RTVSPropertyOp26
 70
     1
102
RTVSPropertyOp27
 70
     1
  0
XRECORD
  5
317A
102
{ACAD_REACTORS
330
3179
102
}
330
3179
100
AcDbXrecord
280
     1
102
RTVSPost2010Prop28
280
     0
102
RTVSPost2010PropOp28
 70
     1
102
RTVSPost2010Prop29
280
     1
102
RTVSPost2010PropOp29
 70
     1
102
RTVSPost2010Prop30
280
     1
102
RTVSPost2010PropOp30
 70
     1
102
RTVSPost2010Prop31
280
     0
102
RTVSPost2010PropOp31
 70
     1
102
RTVSPost2010Prop32
280
     0
102
RTVSPost2010PropOp32
 70
     1
102
RTVSPost2010Prop33
280
     0
102
RTVSPost2010PropOp33
 70
     1
102
RTVSPost2010Prop34
280
     0
102
RTVSPost2010PropOp34
 70
     1
102
RTVSPost2010Prop35
280
     0
102
RTVSPost2010PropOp35
 70
     1
102
RTVSPost2010Prop36
280
     0
102
RTVSPost2010PropOp36
 70
     1
102
RTVSPost2010Prop37
 90
       50
102
RTVSPost2010PropOp37
 70
     1
102
RTVSPost2010Prop38
140
0.0
102
RTVSPost2010PropOp38
 70
     1
102
RTVSPost2010Prop39
140
1.0
102
RTVSPost2010PropOp39
 70
     1
102
RTVSPost2010Prop40
 90
        0
102
RTVSPost2010PropOp40
 70
     1
102
RTVSPost2010Prop41ColorIndex
 90
       18
102
RTVSPost2010Prop41ColorRGB
 90
        0
102
RTVSPost2010PropOp41
 70
     1
102
RTVSPost2010Prop42
 90
       50
102
RTVSPost2010PropOp42
 70
     1
102
RTVSPost2010Prop43
 90
        3
102
RTVSPost2010PropOp43
 70
     1
102
RTVSPost2010Prop44ColorIndex
 90
        5
102
RTVSPost2010Prop44ColorRGB
 90
      255
102
RTVSPost2010PropOp44
 70
     1
102
RTVSPost2010Prop45
280
     0
102
RTVSPost2010PropOp45
 70
     1
102
RTVSPost2010Prop46
 90
       50
102
RTVSPost2010PropOp46
 70
     1
102
RTVSPost2010Prop47
 90
       50
102
RTVSPost2010PropOp47
 70
     1
102
RTVSPost2010Prop48
 90
       50
102
RTVSPost2010PropOp48
 70
     1
102
RTVSPost2010Prop49
280
     0
102
RTVSPost2010PropOp49
 70
     1
102
RTVSPost2010Prop50
 90
       50
102
RTVSPost2010PropOp50
 70
     1
102
RTVSPost2010Prop51ColorIndex
 90
      256
102
RTVSPost2010Prop51ColorRGB
 90
-16777216
102
RTVSPost2010PropOp51
 70
     0
102
RTVSPost2010Prop52
140
1.0
102
RTVSPost2010PropOp52
 70
     0
102
RTVSPost2010Prop53
 90
        2
102
RTVSPost2010PropOp53
 70
     1
102
RTVSPost2010Prop54
  1
strokes_ogs.tif
102
RTVSPost2010PropOp54
 70
     1
102
RTVSPost2010Prop55
280
     0
102
RTVSPost2010PropOp55
 70
     1
102
RTVSPost2010Prop56
140
1.0
102
RTVSPost2010PropOp56
 70
     1
102
RTVSPost2010Prop57
140
1.0
102
RTVSPost2010PropOp57
 70
     1
102
RTVSPropertyOp28
 70
     1
102
RTVSPropertyOp29
 70
     1
102
RTVSPropertyOp30
 70
     1
102
RTVSPropertyOp31
 70
     1
102
RTVSPropertyOp32
 70
     1
102
RTVSPropertyOp33
 70
     1
102
RTVSPropertyOp34
 70
     1
102
RTVSPropertyOp35
 70
     1
102
RTVSPropertyOp36
 70
     1
102
RTVSPropertyOp37
 70
     1
102
RTVSPropertyOp38
 70
     1
102
RTVSPropertyOp39
 70
     1
102
RTVSPropertyOp40
 70
     1
102
RTVSPropertyOp41
 70
     1
102
RTVSPropertyOp42
 70
     1
102
RTVSPropertyOp43
 70
     1
102
RTVSPropertyOp44
 70
     1
102
RTVSPropertyOp45
 70
     1
102
RTVSPropertyOp46
 70
     1
102
RTVSPropertyOp47
 70
     1
102
RTVSPropertyOp48
 70
     1
102
RTVSPropertyOp49
 70
     1
102
RTVSPropertyOp50
 70
     1
102
RTVSPropertyOp51
 70
     0
102
RTVSPropertyOp52
 70
     0
102
RTVSPropertyOp53
 70
     1
102
RTVSPropertyOp54
 70
     1
102
RTVSPropertyOp55
 70
     1
102
RTVSPropertyOp56
 70
     1
102
RTVSPropertyOp57
 70
     1
102
RTVSPropertyOp58
 70
     1
102
RTVSPropertyOp59
 70
     1
102
RTVSPropertyOp60
 70
     1
102
RTVSPropertyOp61
 70
     1
102
RTVSPropertyOp62
 70
     1
102
RTVSPropertyOp0
 70
     1
102
RTVSPropertyOp1
 70
     1
102
RTVSPropertyOp2
 70
     1
102
RTVSPropertyOp3
 70
     1
102
RTVSPropertyOp4
 70
     1
102
RTVSPropertyOp5
 70
     1
102
RTVSPropertyOp6
 70
     1
102
RTVSPropertyOp7
 70
     1
102
RTVSPropertyOp8
 70
     1
102
RTVSPropertyOp9
 70
     1
102
RTVSPropertyOp10
 70
     1
102
RTVSPropertyOp11
 70
     1
102
RTVSPropertyOp12
 70
     1
102
RTVSPropertyOp13
 70
     1
102
RTVSPropertyOp14
 70
     1
102
RTVSPropertyOp15
 70
     1
102
RTVSPropertyOp16
 70
     1
102
RTVSPropertyOp17
 70
     1
102
RTVSPropertyOp18
 70
     1
102
RTVSPropertyOp19
 70
     1
102
RTVSPropertyOp20
 70
     1
102
RTVSPropertyOp21
 70
     1
102
RTVSPropertyOp22
 70
     1
102
RTVSPropertyOp23
 70
     1
102
RTVSPropertyOp24
 70
     1
102
RTVSPropertyOp25
 70
     1
102
RTVSPropertyOp26
 70
     1
102
RTVSPropertyOp27
 70
     1
  0
XRECORD
  5
3196
102
{ACAD_REACTORS
330
3195
102
}
330
3195
100
AcDbXrecord
280
     1
102
RTVSPost2010Prop28
280
     0
102
RTVSPost2010PropOp28
 70
     1
102
RTVSPost2010Prop29
280
     1
102
RTVSPost2010PropOp29
 70
     1
102
RTVSPost2010Prop30
280
     1
102
RTVSPost2010PropOp30
 70
     1
102
RTVSPost2010Prop31
280
     0
102
RTVSPost2010PropOp31
 70
     1
102
RTVSPost2010Prop32
280
     0
102
RTVSPost2010PropOp32
 70
     1
102
RTVSPost2010Prop33
280
     0
102
RTVSPost2010PropOp33
 70
     1
102
RTVSPost2010Prop34
280
     0
102
RTVSPost2010PropOp34
 70
     1
102
RTVSPost2010Prop35
280
     0
102
RTVSPost2010PropOp35
 70
     1
102
RTVSPost2010Prop36
280
     0
102
RTVSPost2010PropOp36
 70
     1
102
RTVSPost2010Prop37
 90
       50
102
RTVSPost2010PropOp37
 70
     1
102
RTVSPost2010Prop38
140
0.0
102
RTVSPost2010PropOp38
 70
     1
102
RTVSPost2010Prop39
140
1.0
102
RTVSPost2010PropOp39
 70
     1
102
RTVSPost2010Prop40
 90
        0
102
RTVSPost2010PropOp40
 70
     1
102
RTVSPost2010Prop41ColorIndex
 90
       18
102
RTVSPost2010Prop41ColorRGB
 90
        0
102
RTVSPost2010PropOp41
 70
     1
102
RTVSPost2010Prop42
 90
       50
102
RTVSPost2010PropOp42
 70
     1
102
RTVSPost2010Prop43
 90
        3
102
RTVSPost2010PropOp43
 70
     1
102
RTVSPost2010Prop44ColorIndex
 90
        5
102
RTVSPost2010Prop44ColorRGB
 90
      255
102
RTVSPost2010PropOp44
 70
     1
102
RTVSPost2010Prop45
280
     0
102
RTVSPost2010PropOp45
 70
     1
102
RTVSPost2010Prop46
 90
       50
102
RTVSPost2010PropOp46
 70
     1
102
RTVSPost2010Prop47
 90
       50
102
RTVSPost2010PropOp47
 70
     1
102
RTVSPost2010Prop48
 90
       50
102
RTVSPost2010PropOp48
 70
     1
102
RTVSPost2010Prop49
280
     0
102
RTVSPost2010PropOp49
 70
     1
102
RTVSPost2010Prop50
 90
       50
102
RTVSPost2010PropOp50
 70
     1
102
RTVSPost2010Prop51ColorIndex
 90
      256
102
RTVSPost2010Prop51ColorRGB
 90
-16777216
102
RTVSPost2010PropOp51
 70
     0
102
RTVSPost2010Prop52
140
1.0
102
RTVSPost2010PropOp52
 70
     0
102
RTVSPost2010Prop53
 90
        2
102
RTVSPost2010PropOp53
 70
     1
102
RTVSPost2010Prop54
  1
strokes_ogs.tif
102
RTVSPost2010PropOp54
 70
     1
102
RTVSPost2010Prop55
280
     0
102
RTVSPost2010PropOp55
 70
     1
102
RTVSPost2010Prop56
140
1.0
102
RTVSPost2010PropOp56
 70
     1
102
RTVSPost2010Prop57
140
1.0
102
RTVSPost2010PropOp57
 70
     1
102
RTVSPropertyOp28
 70
     1
102
RTVSPropertyOp29
 70
     1
102
RTVSPropertyOp30
 70
     1
102
RTVSPropertyOp31
 70
     1
102
RTVSPropertyOp32
 70
     1
102
RTVSPropertyOp33
 70
     1
102
RTVSPropertyOp34
 70
     1
102
RTVSPropertyOp35
 70
     1
102
RTVSPropertyOp36
 70
     1
102
RTVSPropertyOp37
 70
     1
102
RTVSPropertyOp38
 70
     1
102
RTVSPropertyOp39
 70
     1
102
RTVSPropertyOp40
 70
     1
102
RTVSPropertyOp41
 70
     1
102
RTVSPropertyOp42
 70
     1
102
RTVSPropertyOp43
 70
     1
102
RTVSPropertyOp44
 70
     1
102
RTVSPropertyOp45
 70
     1
102
RTVSPropertyOp46
 70
     1
102
RTVSPropertyOp47
 70
     1
102
RTVSPropertyOp48
 70
     1
102
RTVSPropertyOp49
 70
     1
102
RTVSPropertyOp50
 70
     1
102
RTVSPropertyOp51
 70
     0
102
RTVSPropertyOp52
 70
     0
102
RTVSPropertyOp53
 70
     1
102
RTVSPropertyOp54
 70
     1
102
RTVSPropertyOp55
 70
     1
102
RTVSPropertyOp56
 70
     1
102
RTVSPropertyOp57
 70
     1
102
RTVSPropertyOp58
 70
     1
102
RTVSPropertyOp59
 70
     1
102
RTVSPropertyOp60
 70
     1
102
RTVSPropertyOp61
 70
     1
102
RTVSPropertyOp62
 70
     1
102
RTVSPropertyOp0
 70
     0
102
RTVSPropertyOp1
 70
     0
102
RTVSPropertyOp2
 70
     0
102
RTVSPropertyOp3
 70
     0
102
RTVSPropertyOp4
 70
     0
102
RTVSPropertyOp5
 70
     0
102
RTVSPropertyOp6
 70
     0
102
RTVSPropertyOp7
 70
     0
102
RTVSPropertyOp8
 70
     0
102
RTVSPropertyOp9
 70
     0
102
RTVSPropertyOp10
 70
     0
102
RTVSPropertyOp11
 70
     0
102
RTVSPropertyOp12
 70
     0
102
RTVSPropertyOp13
 70
     0
102
RTVSPropertyOp14
 70
     2
102
RTVSPropertyOp15
 70
     0
102
RTVSPropertyOp16
 70
     0
102
RTVSPropertyOp17
 70
     0
102
RTVSPropertyOp18
 70
     0
102
RTVSPropertyOp19
 70
     0
102
RTVSPropertyOp20
 70
     0
102
RTVSPropertyOp21
 70
     0
102
RTVSPropertyOp22
 70
     0
102
RTVSPropertyOp23
 70
     0
102
RTVSPropertyOp24
 70
     0
102
RTVSPropertyOp25
 70
     0
102
RTVSPropertyOp26
 70
     0
102
RTVSPropertyOp27
 70
     0
  0
XRECORD
  5
3186
102
{ACAD_REACTORS
330
3185
102
}
330
3185
100
AcDbXrecord
280
     1
102
RTVSPost2010Prop28
280
     0
102
RTVSPost2010PropOp28
 70
     1
102
RTVSPost2010Prop29
280
     1
102
RTVSPost2010PropOp29
 70
     1
102
RTVSPost2010Prop30
280
     1
102
RTVSPost2010PropOp30
 70
     1
102
RTVSPost2010Prop31
280
     0
102
RTVSPost2010PropOp31
 70
     1
102
RTVSPost2010Prop32
280
     0
102
RTVSPost2010PropOp32
 70
     1
102
RTVSPost2010Prop33
280
     0
102
RTVSPost2010PropOp33
 70
     1
102
RTVSPost2010Prop34
280
     0
102
RTVSPost2010PropOp34
 70
     1
102
RTVSPost2010Prop35
280
     0
102
RTVSPost2010PropOp35
 70
     1
102
RTVSPost2010Prop36
280
     0
102
RTVSPost2010PropOp36
 70
     1
102
RTVSPost2010Prop37
 90
       50
102
RTVSPost2010PropOp37
 70
     1
102
RTVSPost2010Prop38
140
0.0
102
RTVSPost2010PropOp38
 70
     1
102
RTVSPost2010Prop39
140
1.0
102
RTVSPost2010PropOp39
 70
     1
102
RTVSPost2010Prop40
 90
        0
102
RTVSPost2010PropOp40
 70
     1
102
RTVSPost2010Prop41ColorIndex
 90
       18
102
RTVSPost2010Prop41ColorRGB
 90
        0
102
RTVSPost2010PropOp41
 70
     1
102
RTVSPost2010Prop42
 90
       50
102
RTVSPost2010PropOp42
 70
     1
102
RTVSPost2010Prop43
 90
        3
102
RTVSPost2010PropOp43
 70
     1
102
RTVSPost2010Prop44ColorIndex
 90
        5
102
RTVSPost2010Prop44ColorRGB
 90
      255
102
RTVSPost2010PropOp44
 70
     1
102
RTVSPost2010Prop45
280
     0
102
RTVSPost2010PropOp45
 70
     1
102
RTVSPost2010Prop46
 90
       50
102
RTVSPost2010PropOp46
 70
     1
102
RTVSPost2010Prop47
 90
       50
102
RTVSPost2010PropOp47
 70
     1
102
RTVSPost2010Prop48
 90
       50
102
RTVSPost2010PropOp48
 70
     1
102
RTVSPost2010Prop49
280
     0
102
RTVSPost2010PropOp49
 70
     1
102
RTVSPost2010Prop50
 90
       50
102
RTVSPost2010PropOp50
 70
     1
102
RTVSPost2010Prop51ColorIndex
 90
      256
102
RTVSPost2010Prop51ColorRGB
 90
-16777216
102
RTVSPost2010PropOp51
 70
     0
102
RTVSPost2010Prop52
140
1.0
102
RTVSPost2010PropOp52
 70
     0
102
RTVSPost2010Prop53
 90
        2
102
RTVSPost2010PropOp53
 70
     1
102
RTVSPost2010Prop54
  1
strokes_ogs.tif
102
RTVSPost2010PropOp54
 70
     1
102
RTVSPost2010Prop55
280
     0
102
RTVSPost2010PropOp55
 70
     1
102
RTVSPost2010Prop56
140
1.0
102
RTVSPost2010PropOp56
 70
     1
102
RTVSPost2010Prop57
140
1.0
102
RTVSPost2010PropOp57
 70
     1
102
RTVSPropertyOp28
 70
     1
102
RTVSPropertyOp29
 70
     1
102
RTVSPropertyOp30
 70
     1
102
RTVSPropertyOp31
 70
     1
102
RTVSPropertyOp32
 70
     1
102
RTVSPropertyOp33
 70
     1
102
RTVSPropertyOp34
 70
     1
102
RTVSPropertyOp35
 70
     1
102
RTVSPropertyOp36
 70
     1
102
RTVSPropertyOp37
 70
     1
102
RTVSPropertyOp38
 70
     1
102
RTVSPropertyOp39
 70
     1
102
RTVSPropertyOp40
 70
     1
102
RTVSPropertyOp41
 70
     1
102
RTVSPropertyOp42
 70
     1
102
RTVSPropertyOp43
 70
     1
102
RTVSPropertyOp44
 70
     1
102
RTVSPropertyOp45
 70
     1
102
RTVSPropertyOp46
 70
     1
102
RTVSPropertyOp47
 70
     1
102
RTVSPropertyOp48
 70
     1
102
RTVSPropertyOp49
 70
     1
102
RTVSPropertyOp50
 70
     1
102
RTVSPropertyOp51
 70
     0
102
RTVSPropertyOp52
 70
     0
102
RTVSPropertyOp53
 70
     1
102
RTVSPropertyOp54
 70
     1
102
RTVSPropertyOp55
 70
     1
102
RTVSPropertyOp56
 70
     1
102
RTVSPropertyOp57
 70
     1
102
RTVSPropertyOp58
 70
     1
102
RTVSPropertyOp59
 70
     1
102
RTVSPropertyOp60
 70
     1
102
RTVSPropertyOp61
 70
     1
102
RTVSPropertyOp62
 70
     1
102
RTVSPropertyOp0
 70
     1
102
RTVSPropertyOp1
 70
     1
102
RTVSPropertyOp2
 70
     1
102
RTVSPropertyOp3
 70
     1
102
RTVSPropertyOp4
 70
     1
102
RTVSPropertyOp5
 70
     1
102
RTVSPropertyOp6
 70
     1
102
RTVSPropertyOp7
 70
     1
102
RTVSPropertyOp8
 70
     1
102
RTVSPropertyOp9
 70
     1
102
RTVSPropertyOp10
 70
     1
102
RTVSPropertyOp11
 70
     1
102
RTVSPropertyOp12
 70
     1
102
RTVSPropertyOp13
 70
     1
102
RTVSPropertyOp14
 70
     1
102
RTVSPropertyOp15
 70
     1
102
RTVSPropertyOp16
 70
     1
102
RTVSPropertyOp17
 70
     1
102
RTVSPropertyOp18
 70
     1
102
RTVSPropertyOp19
 70
     1
102
RTVSPropertyOp20
 70
     1
102
RTVSPropertyOp21
 70
     1
102
RTVSPropertyOp22
 70
     1
102
RTVSPropertyOp23
 70
     1
102
RTVSPropertyOp24
 70
     1
102
RTVSPropertyOp25
 70
     1
102
RTVSPropertyOp26
 70
     1
102
RTVSPropertyOp27
 70
     1
  0
XRECORD
  5
3198
102
{ACAD_REACTORS
330
3197
102
}
330
3197
100
AcDbXrecord
280
     1
102
RTVSPost2010Prop28
280
     0
102
RTVSPost2010PropOp28
 70
     1
102
RTVSPost2010Prop29
280
     1
102
RTVSPost2010PropOp29
 70
     1
102
RTVSPost2010Prop30
280
     1
102
RTVSPost2010PropOp30
 70
     1
102
RTVSPost2010Prop31
280
     0
102
RTVSPost2010PropOp31
 70
     1
102
RTVSPost2010Prop32
280
     0
102
RTVSPost2010PropOp32
 70
     1
102
RTVSPost2010Prop33
280
     0
102
RTVSPost2010PropOp33
 70
     1
102
RTVSPost2010Prop34
280
     0
102
RTVSPost2010PropOp34
 70
     1
102
RTVSPost2010Prop35
280
     0
102
RTVSPost2010PropOp35
 70
     1
102
RTVSPost2010Prop36
280
     0
102
RTVSPost2010PropOp36
 70
     1
102
RTVSPost2010Prop37
 90
       50
102
RTVSPost2010PropOp37
 70
     1
102
RTVSPost2010Prop38
140
0.0
102
RTVSPost2010PropOp38
 70
     1
102
RTVSPost2010Prop39
140
1.0
102
RTVSPost2010PropOp39
 70
     1
102
RTVSPost2010Prop40
 90
        0
102
RTVSPost2010PropOp40
 70
     1
102
RTVSPost2010Prop41ColorIndex
 90
       18
102
RTVSPost2010Prop41ColorRGB
 90
        0
102
RTVSPost2010PropOp41
 70
     1
102
RTVSPost2010Prop42
 90
       50
102
RTVSPost2010PropOp42
 70
     1
102
RTVSPost2010Prop43
 90
        3
102
RTVSPost2010PropOp43
 70
     1
102
RTVSPost2010Prop44ColorIndex
 90
        5
102
RTVSPost2010Prop44ColorRGB
 90
      255
102
RTVSPost2010PropOp44
 70
     1
102
RTVSPost2010Prop45
280
     0
102
RTVSPost2010PropOp45
 70
     1
102
RTVSPost2010Prop46
 90
       50
102
RTVSPost2010PropOp46
 70
     1
102
RTVSPost2010Prop47
 90
       50
102
RTVSPost2010PropOp47
 70
     1
102
RTVSPost2010Prop48
 90
       50
102
RTVSPost2010PropOp48
 70
     1
102
RTVSPost2010Prop49
280
     0
102
RTVSPost2010PropOp49
 70
     1
102
RTVSPost2010Prop50
 90
       50
102
RTVSPost2010PropOp50
 70
     1
102
RTVSPost2010Prop51ColorIndex
 90
      256
102
RTVSPost2010Prop51ColorRGB
 90
-16777216
102
RTVSPost2010PropOp51
 70
     0
102
RTVSPost2010Prop52
140
1.0
102
RTVSPost2010PropOp52
 70
     0
102
RTVSPost2010Prop53
 90
        2
102
RTVSPost2010PropOp53
 70
     1
102
RTVSPost2010Prop54
  1
strokes_ogs.tif
102
RTVSPost2010PropOp54
 70
     1
102
RTVSPost2010Prop55
280
     0
102
RTVSPost2010PropOp55
 70
     1
102
RTVSPost2010Prop56
140
1.0
102
RTVSPost2010PropOp56
 70
     1
102
RTVSPost2010Prop57
140
1.0
102
RTVSPost2010PropOp57
 70
     1
102
RTVSPropertyOp28
 70
     1
102
RTVSPropertyOp29
 70
     1
102
RTVSPropertyOp30
 70
     1
102
RTVSPropertyOp31
 70
     1
102
RTVSPropertyOp32
 70
     1
102
RTVSPropertyOp33
 70
     1
102
RTVSPropertyOp34
 70
     1
102
RTVSPropertyOp35
 70
     1
102
RTVSPropertyOp36
 70
     1
102
RTVSPropertyOp37
 70
     1
102
RTVSPropertyOp38
 70
     1
102
RTVSPropertyOp39
 70
     1
102
RTVSPropertyOp40
 70
     1
102
RTVSPropertyOp41
 70
     1
102
RTVSPropertyOp42
 70
     1
102
RTVSPropertyOp43
 70
     1
102
RTVSPropertyOp44
 70
     1
102
RTVSPropertyOp45
 70
     1
102
RTVSPropertyOp46
 70
     1
102
RTVSPropertyOp47
 70
     1
102
RTVSPropertyOp48
 70
     1
102
RTVSPropertyOp49
 70
     1
102
RTVSPropertyOp50
 70
     1
102
RTVSPropertyOp51
 70
     0
102
RTVSPropertyOp52
 70
     0
102
RTVSPropertyOp53
 70
     1
102
RTVSPropertyOp54
 70
     1
102
RTVSPropertyOp55
 70
     1
102
RTVSPropertyOp56
 70
     1
102
RTVSPropertyOp57
 70
     1
102
RTVSPropertyOp58
 70
     1
102
RTVSPropertyOp59
 70
     1
102
RTVSPropertyOp60
 70
     1
102
RTVSPropertyOp61
 70
     1
102
RTVSPropertyOp62
 70
     1
102
RTVSPropertyOp0
 70
     0
102
RTVSPropertyOp1
 70
     0
102
RTVSPropertyOp2
 70
     0
102
RTVSPropertyOp3
 70
     0
102
RTVSPropertyOp4
 70
     0
102
RTVSPropertyOp5
 70
     0
102
RTVSPropertyOp6
 70
     0
102
RTVSPropertyOp7
 70
     0
102
RTVSPropertyOp8
 70
     0
102
RTVSPropertyOp9
 70
     0
102
RTVSPropertyOp10
 70
     0
102
RTVSPropertyOp11
 70
     0
102
RTVSPropertyOp12
 70
     0
102
RTVSPropertyOp13
 70
     0
102
RTVSPropertyOp14
 70
     2
102
RTVSPropertyOp15
 70
     0
102
RTVSPropertyOp16
 70
     0
102
RTVSPropertyOp17
 70
     0
102
RTVSPropertyOp18
 70
     0
102
RTVSPropertyOp19
 70
     0
102
RTVSPropertyOp20
 70
     0
102
RTVSPropertyOp21
 70
     0
102
RTVSPropertyOp22
 70
     0
102
RTVSPropertyOp23
 70
     0
102
RTVSPropertyOp24
 70
     0
102
RTVSPropertyOp25
 70
     0
102
RTVSPropertyOp26
 70
     0
102
RTVSPropertyOp27
 70
     0
  0
XRECORD
  5
317E
102
{ACAD_REACTORS
330
317D
102
}
330
317D
100
AcDbXrecord
280
     1
102
RTVSPost2010Prop28
280
     0
102
RTVSPost2010PropOp28
 70
     1
102
RTVSPost2010Prop29
280
     1
102
RTVSPost2010PropOp29
 70
     1
102
RTVSPost2010Prop30
280
     1
102
RTVSPost2010PropOp30
 70
     1
102
RTVSPost2010Prop31
280
     0
102
RTVSPost2010PropOp31
 70
     1
102
RTVSPost2010Prop32
280
     0
102
RTVSPost2010PropOp32
 70
     1
102
RTVSPost2010Prop33
280
     0
102
RTVSPost2010PropOp33
 70
     1
102
RTVSPost2010Prop34
280
     0
102
RTVSPost2010PropOp34
 70
     1
102
RTVSPost2010Prop35
280
     0
102
RTVSPost2010PropOp35
 70
     1
102
RTVSPost2010Prop36
280
     0
102
RTVSPost2010PropOp36
 70
     1
102
RTVSPost2010Prop37
 90
       50
102
RTVSPost2010PropOp37
 70
     1
102
RTVSPost2010Prop38
140
0.0
102
RTVSPost2010PropOp38
 70
     1
102
RTVSPost2010Prop39
140
1.0
102
RTVSPost2010PropOp39
 70
     1
102
RTVSPost2010Prop40
 90
        0
102
RTVSPost2010PropOp40
 70
     1
102
RTVSPost2010Prop41ColorIndex
 90
       18
102
RTVSPost2010Prop41ColorRGB
 90
        0
102
RTVSPost2010PropOp41
 70
     1
102
RTVSPost2010Prop42
 90
       50
102
RTVSPost2010PropOp42
 70
     1
102
RTVSPost2010Prop43
 90
        3
102
RTVSPost2010PropOp43
 70
     1
102
RTVSPost2010Prop44ColorIndex
 90
        5
102
RTVSPost2010Prop44ColorRGB
 90
      255
102
RTVSPost2010PropOp44
 70
     1
102
RTVSPost2010Prop45
280
     0
102
RTVSPost2010PropOp45
 70
     1
102
RTVSPost2010Prop46
 90
       50
102
RTVSPost2010PropOp46
 70
     1
102
RTVSPost2010Prop47
 90
       50
102
RTVSPost2010PropOp47
 70
     1
102
RTVSPost2010Prop48
 90
       50
102
RTVSPost2010PropOp48
 70
     1
102
RTVSPost2010Prop49
280
     0
102
RTVSPost2010PropOp49
 70
     1
102
RTVSPost2010Prop50
 90
       50
102
RTVSPost2010PropOp50
 70
     1
102
RTVSPost2010Prop51ColorIndex
 90
      256
102
RTVSPost2010Prop51ColorRGB
 90
-16777216
102
RTVSPost2010PropOp51
 70
     0
102
RTVSPost2010Prop52
140
1.0
102
RTVSPost2010PropOp52
 70
     0
102
RTVSPost2010Prop53
 90
        2
102
RTVSPost2010PropOp53
 70
     1
102
RTVSPost2010Prop54
  1
strokes_ogs.tif
102
RTVSPost2010PropOp54
 70
     1
102
RTVSPost2010Prop55
280
     0
102
RTVSPost2010PropOp55
 70
     1
102
RTVSPost2010Prop56
140
1.0
102
RTVSPost2010PropOp56
 70
     1
102
RTVSPost2010Prop57
140
1.0
102
RTVSPost2010PropOp57
 70
     1
102
RTVSPropertyOp28
 70
     1
102
RTVSPropertyOp29
 70
     1
102
RTVSPropertyOp30
 70
     1
102
RTVSPropertyOp31
 70
     1
102
RTVSPropertyOp32
 70
     1
102
RTVSPropertyOp33
 70
     1
102
RTVSPropertyOp34
 70
     1
102
RTVSPropertyOp35
 70
     1
102
RTVSPropertyOp36
 70
     1
102
RTVSPropertyOp37
 70
     1
102
RTVSPropertyOp38
 70
     1
102
RTVSPropertyOp39
 70
     1
102
RTVSPropertyOp40
 70
     1
102
RTVSPropertyOp41
 70
     1
102
RTVSPropertyOp42
 70
     1
102
RTVSPropertyOp43
 70
     1
102
RTVSPropertyOp44
 70
     1
102
RTVSPropertyOp45
 70
     1
102
RTVSPropertyOp46
 70
     1
102
RTVSPropertyOp47
 70
     1
102
RTVSPropertyOp48
 70
     1
102
RTVSPropertyOp49
 70
     1
102
RTVSPropertyOp50
 70
     1
102
RTVSPropertyOp51
 70
     0
102
RTVSPropertyOp52
 70
     0
102
RTVSPropertyOp53
 70
     1
102
RTVSPropertyOp54
 70
     1
102
RTVSPropertyOp55
 70
     1
102
RTVSPropertyOp56
 70
     1
102
RTVSPropertyOp57
 70
     1
102
RTVSPropertyOp58
 70
     1
102
RTVSPropertyOp59
 70
     1
102
RTVSPropertyOp60
 70
     1
102
RTVSPropertyOp61
 70
     1
102
RTVSPropertyOp62
 70
     1
102
RTVSPropertyOp0
 70
     1
102
RTVSPropertyOp1
 70
     1
102
RTVSPropertyOp2
 70
     1
102
RTVSPropertyOp3
 70
     1
102
RTVSPropertyOp4
 70
     1
102
RTVSPropertyOp5
 70
     1
102
RTVSPropertyOp6
 70
     1
102
RTVSPropertyOp7
 70
     1
102
RTVSPropertyOp8
 70
     1
102
RTVSPropertyOp9
 70
     1
102
RTVSPropertyOp10
 70
     1
102
RTVSPropertyOp11
 70
     1
102
RTVSPropertyOp12
 70
     1
102
RTVSPropertyOp13
 70
     1
102
RTVSPropertyOp14
 70
     1
102
RTVSPropertyOp15
 70
     1
102
RTVSPropertyOp16
 70
     1
102
RTVSPropertyOp17
 70
     1
102
RTVSPropertyOp18
 70
     1
102
RTVSPropertyOp19
 70
     1
102
RTVSPropertyOp20
 70
     1
102
RTVSPropertyOp21
 70
     1
102
RTVSPropertyOp22
 70
     1
102
RTVSPropertyOp23
 70
     1
102
RTVSPropertyOp24
 70
     1
102
RTVSPropertyOp25
 70
     1
102
RTVSPropertyOp26
 70
     1
102
RTVSPropertyOp27
 70
     1
  0
XRECORD
  5
3194
102
{ACAD_REACTORS
330
3193
102
}
330
3193
100
AcDbXrecord
280
     1
102
RTVSPost2010Prop28
280
     0
102
RTVSPost2010PropOp28
 70
     1
102
RTVSPost2010Prop29
280
     1
102
RTVSPost2010PropOp29
 70
     1
102
RTVSPost2010Prop30
280
     1
102
RTVSPost2010PropOp30
 70
     1
102
RTVSPost2010Prop31
280
     0
102
RTVSPost2010PropOp31
 70
     1
102
RTVSPost2010Prop32
280
     0
102
RTVSPost2010PropOp32
 70
     1
102
RTVSPost2010Prop33
280
     0
102
RTVSPost2010PropOp33
 70
     1
102
RTVSPost2010Prop34
280
     0
102
RTVSPost2010PropOp34
 70
     1
102
RTVSPost2010Prop35
280
     0
102
RTVSPost2010PropOp35
 70
     1
102
RTVSPost2010Prop36
280
     0
102
RTVSPost2010PropOp36
 70
     1
102
RTVSPost2010Prop37
 90
       50
102
RTVSPost2010PropOp37
 70
     1
102
RTVSPost2010Prop38
140
0.0
102
RTVSPost2010PropOp38
 70
     1
102
RTVSPost2010Prop39
140
1.0
102
RTVSPost2010PropOp39
 70
     1
102
RTVSPost2010Prop40
 90
        0
102
RTVSPost2010PropOp40
 70
     1
102
RTVSPost2010Prop41ColorIndex
 90
       18
102
RTVSPost2010Prop41ColorRGB
 90
        0
102
RTVSPost2010PropOp41
 70
     1
102
RTVSPost2010Prop42
 90
       50
102
RTVSPost2010PropOp42
 70
     1
102
RTVSPost2010Prop43
 90
        3
102
RTVSPost2010PropOp43
 70
     1
102
RTVSPost2010Prop44ColorIndex
 90
        5
102
RTVSPost2010Prop44ColorRGB
 90
      255
102
RTVSPost2010PropOp44
 70
     1
102
RTVSPost2010Prop45
280
     0
102
RTVSPost2010PropOp45
 70
     1
102
RTVSPost2010Prop46
 90
       50
102
RTVSPost2010PropOp46
 70
     1
102
RTVSPost2010Prop47
 90
       50
102
RTVSPost2010PropOp47
 70
     1
102
RTVSPost2010Prop48
 90
       50
102
RTVSPost2010PropOp48
 70
     1
102
RTVSPost2010Prop49
280
     0
102
RTVSPost2010PropOp49
 70
     1
102
RTVSPost2010Prop50
 90
       50
102
RTVSPost2010PropOp50
 70
     1
102
RTVSPost2010Prop51ColorIndex
 90
      256
102
RTVSPost2010Prop51ColorRGB
 90
-16777216
102
RTVSPost2010PropOp51
 70
     0
102
RTVSPost2010Prop52
140
1.0
102
RTVSPost2010PropOp52
 70
     0
102
RTVSPost2010Prop53
 90
        2
102
RTVSPost2010PropOp53
 70
     1
102
RTVSPost2010Prop54
  1
strokes_ogs.tif
102
RTVSPost2010PropOp54
 70
     1
102
RTVSPost2010Prop55
280
     0
102
RTVSPost2010PropOp55
 70
     1
102
RTVSPost2010Prop56
140
1.0
102
RTVSPost2010PropOp56
 70
     1
102
RTVSPost2010Prop57
140
1.0
102
RTVSPost2010PropOp57
 70
     1
102
RTVSPropertyOp28
 70
     1
102
RTVSPropertyOp29
 70
     1
102
RTVSPropertyOp30
 70
     1
102
RTVSPropertyOp31
 70
     1
102
RTVSPropertyOp32
 70
     1
102
RTVSPropertyOp33
 70
     1
102
RTVSPropertyOp34
 70
     1
102
RTVSPropertyOp35
 70
     1
102
RTVSPropertyOp36
 70
     1
102
RTVSPropertyOp37
 70
     1
102
RTVSPropertyOp38
 70
     1
102
RTVSPropertyOp39
 70
     1
102
RTVSPropertyOp40
 70
     1
102
RTVSPropertyOp41
 70
     1
102
RTVSPropertyOp42
 70
     1
102
RTVSPropertyOp43
 70
     1
102
RTVSPropertyOp44
 70
     1
102
RTVSPropertyOp45
 70
     1
102
RTVSPropertyOp46
 70
     1
102
RTVSPropertyOp47
 70
     1
102
RTVSPropertyOp48
 70
     1
102
RTVSPropertyOp49
 70
     1
102
RTVSPropertyOp50
 70
     1
102
RTVSPropertyOp51
 70
     0
102
RTVSPropertyOp52
 70
     0
102
RTVSPropertyOp53
 70
     1
102
RTVSPropertyOp54
 70
     1
102
RTVSPropertyOp55
 70
     1
102
RTVSPropertyOp56
 70
     1
102
RTVSPropertyOp57
 70
     1
102
RTVSPropertyOp58
 70
     1
102
RTVSPropertyOp59
 70
     1
102
RTVSPropertyOp60
 70
     1
102
RTVSPropertyOp61
 70
     1
102
RTVSPropertyOp62
 70
     1
102
RTVSPropertyOp0
 70
     1
102
RTVSPropertyOp1
 70
     1
102
RTVSPropertyOp2
 70
     1
102
RTVSPropertyOp3
 70
     1
102
RTVSPropertyOp4
 70
     1
102
RTVSPropertyOp5
 70
     1
102
RTVSPropertyOp6
 70
     1
102
RTVSPropertyOp7
 70
     1
102
RTVSPropertyOp8
 70
     1
102
RTVSPropertyOp9
 70
     1
102
RTVSPropertyOp10
 70
     1
102
RTVSPropertyOp11
 70
     1
102
RTVSPropertyOp12
 70
     1
102
RTVSPropertyOp13
 70
     1
102
RTVSPropertyOp14
 70
     1
102
RTVSPropertyOp15
 70
     1
102
RTVSPropertyOp16
 70
     1
102
RTVSPropertyOp17
 70
     1
102
RTVSPropertyOp18
 70
     1
102
RTVSPropertyOp19
 70
     1
102
RTVSPropertyOp20
 70
     1
102
RTVSPropertyOp21
 70
     1
102
RTVSPropertyOp22
 70
     1
102
RTVSPropertyOp23
 70
     1
102
RTVSPropertyOp24
 70
     1
102
RTVSPropertyOp25
 70
     1
102
RTVSPropertyOp26
 70
     1
102
RTVSPropertyOp27
 70
     1
  0
XRECORD
  5
3192
102
{ACAD_REACTORS
330
3191
102
}
330
3191
100
AcDbXrecord
280
     1
102
RTVSPost2010Prop28
280
     0
102
RTVSPost2010PropOp28
 70
     1
102
RTVSPost2010Prop29
280
     1
102
RTVSPost2010PropOp29
 70
     1
102
RTVSPost2010Prop30
280
     1
102
RTVSPost2010PropOp30
 70
     1
102
RTVSPost2010Prop31
280
     0
102
RTVSPost2010PropOp31
 70
     1
102
RTVSPost2010Prop32
280
     0
102
RTVSPost2010PropOp32
 70
     1
102
RTVSPost2010Prop33
280
     0
102
RTVSPost2010PropOp33
 70
     1
102
RTVSPost2010Prop34
280
     0
102
RTVSPost2010PropOp34
 70
     1
102
RTVSPost2010Prop35
280
     0
102
RTVSPost2010PropOp35
 70
     1
102
RTVSPost2010Prop36
280
     0
102
RTVSPost2010PropOp36
 70
     1
102
RTVSPost2010Prop37
 90
       50
102
RTVSPost2010PropOp37
 70
     1
102
RTVSPost2010Prop38
140
0.0
102
RTVSPost2010PropOp38
 70
     1
102
RTVSPost2010Prop39
140
1.0
102
RTVSPost2010PropOp39
 70
     1
102
RTVSPost2010Prop40
 90
        0
102
RTVSPost2010PropOp40
 70
     1
102
RTVSPost2010Prop41ColorIndex
 90
       18
102
RTVSPost2010Prop41ColorRGB
 90
        0
102
RTVSPost2010PropOp41
 70
     1
102
RTVSPost2010Prop42
 90
       50
102
RTVSPost2010PropOp42
 70
     1
102
RTVSPost2010Prop43
 90
        3
102
RTVSPost2010PropOp43
 70
     1
102
RTVSPost2010Prop44ColorIndex
 90
        5
102
RTVSPost2010Prop44ColorRGB
 90
      255
102
RTVSPost2010PropOp44
 70
     1
102
RTVSPost2010Prop45
280
     0
102
RTVSPost2010PropOp45
 70
     1
102
RTVSPost2010Prop46
 90
       50
102
RTVSPost2010PropOp46
 70
     1
102
RTVSPost2010Prop47
 90
       50
102
RTVSPost2010PropOp47
 70
     1
102
RTVSPost2010Prop48
 90
       50
102
RTVSPost2010PropOp48
 70
     1
102
RTVSPost2010Prop49
280
     0
102
RTVSPost2010PropOp49
 70
     1
102
RTVSPost2010Prop50
 90
       50
102
RTVSPost2010PropOp50
 70
     1
102
RTVSPost2010Prop51ColorIndex
 90
      256
102
RTVSPost2010Prop51ColorRGB
 90
-16777216
102
RTVSPost2010PropOp51
 70
     0
102
RTVSPost2010Prop52
140
1.0
102
RTVSPost2010PropOp52
 70
     0
102
RTVSPost2010Prop53
 90
        2
102
RTVSPost2010PropOp53
 70
     1
102
RTVSPost2010Prop54
  1
strokes_ogs.tif
102
RTVSPost2010PropOp54
 70
     1
102
RTVSPost2010Prop55
280
     0
102
RTVSPost2010PropOp55
 70
     1
102
RTVSPost2010Prop56
140
1.0
102
RTVSPost2010PropOp56
 70
     1
102
RTVSPost2010Prop57
140
1.0
102
RTVSPost2010PropOp57
 70
     1
102
RTVSPropertyOp28
 70
     1
102
RTVSPropertyOp29
 70
     1
102
RTVSPropertyOp30
 70
     1
102
RTVSPropertyOp31
 70
     1
102
RTVSPropertyOp32
 70
     1
102
RTVSPropertyOp33
 70
     1
102
RTVSPropertyOp34
 70
     1
102
RTVSPropertyOp35
 70
     1
102
RTVSPropertyOp36
 70
     1
102
RTVSPropertyOp37
 70
     1
102
RTVSPropertyOp38
 70
     1
102
RTVSPropertyOp39
 70
     1
102
RTVSPropertyOp40
 70
     1
102
RTVSPropertyOp41
 70
     1
102
RTVSPropertyOp42
 70
     1
102
RTVSPropertyOp43
 70
     1
102
RTVSPropertyOp44
 70
     1
102
RTVSPropertyOp45
 70
     1
102
RTVSPropertyOp46
 70
     1
102
RTVSPropertyOp47
 70
     1
102
RTVSPropertyOp48
 70
     1
102
RTVSPropertyOp49
 70
     1
102
RTVSPropertyOp50
 70
     1
102
RTVSPropertyOp51
 70
     0
102
RTVSPropertyOp52
 70
     0
102
RTVSPropertyOp53
 70
     1
102
RTVSPropertyOp54
 70
     1
102
RTVSPropertyOp55
 70
     1
102
RTVSPropertyOp56
 70
     1
102
RTVSPropertyOp57
 70
     1
102
RTVSPropertyOp58
 70
     1
102
RTVSPropertyOp59
 70
     1
102
RTVSPropertyOp60
 70
     1
102
RTVSPropertyOp61
 70
     1
102
RTVSPropertyOp62
 70
     1
102
RTVSPropertyOp0
 70
     1
102
RTVSPropertyOp1
 70
     1
102
RTVSPropertyOp2
 70
     1
102
RTVSPropertyOp3
 70
     1
102
RTVSPropertyOp4
 70
     1
102
RTVSPropertyOp5
 70
     1
102
RTVSPropertyOp6
 70
     1
102
RTVSPropertyOp7
 70
     1
102
RTVSPropertyOp8
 70
     1
102
RTVSPropertyOp9
 70
     1
102
RTVSPropertyOp10
 70
     1
102
RTVSPropertyOp11
 70
     1
102
RTVSPropertyOp12
 70
     1
102
RTVSPropertyOp13
 70
     1
102
RTVSPropertyOp14
 70
     1
102
RTVSPropertyOp15
 70
     1
102
RTVSPropertyOp16
 70
     1
102
RTVSPropertyOp17
 70
     1
102
RTVSPropertyOp18
 70
     1
102
RTVSPropertyOp19
 70
     1
102
RTVSPropertyOp20
 70
     1
102
RTVSPropertyOp21
 70
     1
102
RTVSPropertyOp22
 70
     1
102
RTVSPropertyOp23
 70
     1
102
RTVSPropertyOp24
 70
     1
102
RTVSPropertyOp25
 70
     1
102
RTVSPropertyOp26
 70
     1
102
RTVSPropertyOp27
 70
     1
  0
XRECORD
  5
318C
102
{ACAD_REACTORS
330
318B
102
}
330
318B
100
AcDbXrecord
280
     1
102
RTVSPost2010Prop28
280
     0
102
RTVSPost2010PropOp28
 70
     1
102
RTVSPost2010Prop29
280
     1
102
RTVSPost2010PropOp29
 70
     1
102
RTVSPost2010Prop30
280
     1
102
RTVSPost2010PropOp30
 70
     1
102
RTVSPost2010Prop31
280
     0
102
RTVSPost2010PropOp31
 70
     1
102
RTVSPost2010Prop32
280
     0
102
RTVSPost2010PropOp32
 70
     1
102
RTVSPost2010Prop33
280
     0
102
RTVSPost2010PropOp33
 70
     1
102
RTVSPost2010Prop34
280
     0
102
RTVSPost2010PropOp34
 70
     1
102
RTVSPost2010Prop35
280
     0
102
RTVSPost2010PropOp35
 70
     1
102
RTVSPost2010Prop36
280
     0
102
RTVSPost2010PropOp36
 70
     1
102
RTVSPost2010Prop37
 90
       50
102
RTVSPost2010PropOp37
 70
     1
102
RTVSPost2010Prop38
140
0.0
102
RTVSPost2010PropOp38
 70
     1
102
RTVSPost2010Prop39
140
1.0
102
RTVSPost2010PropOp39
 70
     1
102
RTVSPost2010Prop40
 90
        0
102
RTVSPost2010PropOp40
 70
     1
102
RTVSPost2010Prop41ColorIndex
 90
       18
102
RTVSPost2010Prop41ColorRGB
 90
        0
102
RTVSPost2010PropOp41
 70
     1
102
RTVSPost2010Prop42
 90
       50
102
RTVSPost2010PropOp42
 70
     1
102
RTVSPost2010Prop43
 90
        3
102
RTVSPost2010PropOp43
 70
     1
102
RTVSPost2010Prop44ColorIndex
 90
        5
102
RTVSPost2010Prop44ColorRGB
 90
      255
102
RTVSPost2010PropOp44
 70
     1
102
RTVSPost2010Prop45
280
     0
102
RTVSPost2010PropOp45
 70
     1
102
RTVSPost2010Prop46
 90
       50
102
RTVSPost2010PropOp46
 70
     1
102
RTVSPost2010Prop47
 90
       50
102
RTVSPost2010PropOp47
 70
     1
102
RTVSPost2010Prop48
 90
       50
102
RTVSPost2010PropOp48
 70
     1
102
RTVSPost2010Prop49
280
     0
102
RTVSPost2010PropOp49
 70
     1
102
RTVSPost2010Prop50
 90
       50
102
RTVSPost2010PropOp50
 70
     1
102
RTVSPost2010Prop51ColorIndex
 90
      256
102
RTVSPost2010Prop51ColorRGB
 90
-16777216
102
RTVSPost2010PropOp51
 70
     0
102
RTVSPost2010Prop52
140
1.0
102
RTVSPost2010PropOp52
 70
     0
102
RTVSPost2010Prop53
 90
        2
102
RTVSPost2010PropOp53
 70
     1
102
RTVSPost2010Prop54
  1
strokes_ogs.tif
102
RTVSPost2010PropOp54
 70
     1
102
RTVSPost2010Prop55
280
     0
102
RTVSPost2010PropOp55
 70
     1
102
RTVSPost2010Prop56
140
1.0
102
RTVSPost2010PropOp56
 70
     1
102
RTVSPost2010Prop57
140
1.0
102
RTVSPost2010PropOp57
 70
     1
102
RTVSPropertyOp28
 70
     1
102
RTVSPropertyOp29
 70
     1
102
RTVSPropertyOp30
 70
     1
102
RTVSPropertyOp31
 70
     1
102
RTVSPropertyOp32
 70
     1
102
RTVSPropertyOp33
 70
     1
102
RTVSPropertyOp34
 70
     1
102
RTVSPropertyOp35
 70
     1
102
RTVSPropertyOp36
 70
     1
102
RTVSPropertyOp37
 70
     1
102
RTVSPropertyOp38
 70
     1
102
RTVSPropertyOp39
 70
     1
102
RTVSPropertyOp40
 70
     1
102
RTVSPropertyOp41
 70
     1
102
RTVSPropertyOp42
 70
     1
102
RTVSPropertyOp43
 70
     1
102
RTVSPropertyOp44
 70
     1
102
RTVSPropertyOp45
 70
     1
102
RTVSPropertyOp46
 70
     1
102
RTVSPropertyOp47
 70
     1
102
RTVSPropertyOp48
 70
     1
102
RTVSPropertyOp49
 70
     1
102
RTVSPropertyOp50
 70
     1
102
RTVSPropertyOp51
 70
     0
102
RTVSPropertyOp52
 70
     0
102
RTVSPropertyOp53
 70
     1
102
RTVSPropertyOp54
 70
     1
102
RTVSPropertyOp55
 70
     1
102
RTVSPropertyOp56
 70
     1
102
RTVSPropertyOp57
 70
     1
102
RTVSPropertyOp58
 70
     1
102
RTVSPropertyOp59
 70
     1
102
RTVSPropertyOp60
 70
     1
102
RTVSPropertyOp61
 70
     1
102
RTVSPropertyOp62
 70
     1
102
RTVSPropertyOp0
 70
     1
102
RTVSPropertyOp1
 70
     1
102
RTVSPropertyOp2
 70
     1
102
RTVSPropertyOp3
 70
     1
102
RTVSPropertyOp4
 70
     1
102
RTVSPropertyOp5
 70
     1
102
RTVSPropertyOp6
 70
     1
102
RTVSPropertyOp7
 70
     1
102
RTVSPropertyOp8
 70
     1
102
RTVSPropertyOp9
 70
     1
102
RTVSPropertyOp10
 70
     1
102
RTVSPropertyOp11
 70
     1
102
RTVSPropertyOp12
 70
     1
102
RTVSPropertyOp13
 70
     1
102
RTVSPropertyOp14
 70
     1
102
RTVSPropertyOp15
 70
     1
102
RTVSPropertyOp16
 70
     1
102
RTVSPropertyOp17
 70
     1
102
RTVSPropertyOp18
 70
     1
102
RTVSPropertyOp19
 70
     1
102
RTVSPropertyOp20
 70
     1
102
RTVSPropertyOp21
 70
     1
102
RTVSPropertyOp22
 70
     1
102
RTVSPropertyOp23
 70
     1
102
RTVSPropertyOp24
 70
     1
102
RTVSPropertyOp25
 70
     1
102
RTVSPropertyOp26
 70
     1
102
RTVSPropertyOp27
 70
     1
  0
XRECORD
  5
318E
102
{ACAD_REACTORS
330
318D
102
}
330
318D
100
AcDbXrecord
280
     1
102
RTVSPost2010Prop28
280
     0
102
RTVSPost2010PropOp28
 70
     1
102
RTVSPost2010Prop29
280
     1
102
RTVSPost2010PropOp29
 70
     1
102
RTVSPost2010Prop30
280
     1
102
RTVSPost2010PropOp30
 70
     1
102
RTVSPost2010Prop31
280
     0
102
RTVSPost2010PropOp31
 70
     1
102
RTVSPost2010Prop32
280
     0
102
RTVSPost2010PropOp32
 70
     1
102
RTVSPost2010Prop33
280
     0
102
RTVSPost2010PropOp33
 70
     1
102
RTVSPost2010Prop34
280
     0
102
RTVSPost2010PropOp34
 70
     1
102
RTVSPost2010Prop35
280
     0
102
RTVSPost2010PropOp35
 70
     1
102
RTVSPost2010Prop36
280
     0
102
RTVSPost2010PropOp36
 70
     1
102
RTVSPost2010Prop37
 90
       50
102
RTVSPost2010PropOp37
 70
     1
102
RTVSPost2010Prop38
140
0.0
102
RTVSPost2010PropOp38
 70
     1
102
RTVSPost2010Prop39
140
1.0
102
RTVSPost2010PropOp39
 70
     1
102
RTVSPost2010Prop40
 90
        0
102
RTVSPost2010PropOp40
 70
     1
102
RTVSPost2010Prop41ColorIndex
 90
       18
102
RTVSPost2010Prop41ColorRGB
 90
        0
102
RTVSPost2010PropOp41
 70
     1
102
RTVSPost2010Prop42
 90
       50
102
RTVSPost2010PropOp42
 70
     1
102
RTVSPost2010Prop43
 90
        3
102
RTVSPost2010PropOp43
 70
     1
102
RTVSPost2010Prop44ColorIndex
 90
        5
102
RTVSPost2010Prop44ColorRGB
 90
      255
102
RTVSPost2010PropOp44
 70
     1
102
RTVSPost2010Prop45
280
     0
102
RTVSPost2010PropOp45
 70
     1
102
RTVSPost2010Prop46
 90
       50
102
RTVSPost2010PropOp46
 70
     1
102
RTVSPost2010Prop47
 90
       50
102
RTVSPost2010PropOp47
 70
     1
102
RTVSPost2010Prop48
 90
       50
102
RTVSPost2010PropOp48
 70
     1
102
RTVSPost2010Prop49
280
     0
102
RTVSPost2010PropOp49
 70
     1
102
RTVSPost2010Prop50
 90
       50
102
RTVSPost2010PropOp50
 70
     1
102
RTVSPost2010Prop51ColorIndex
 90
      256
102
RTVSPost2010Prop51ColorRGB
 90
-16777216
102
RTVSPost2010PropOp51
 70
     0
102
RTVSPost2010Prop52
140
1.0
102
RTVSPost2010PropOp52
 70
     0
102
RTVSPost2010Prop53
 90
        2
102
RTVSPost2010PropOp53
 70
     1
102
RTVSPost2010Prop54
  1
strokes_ogs.tif
102
RTVSPost2010PropOp54
 70
     1
102
RTVSPost2010Prop55
280
     0
102
RTVSPost2010PropOp55
 70
     1
102
RTVSPost2010Prop56
140
1.0
102
RTVSPost2010PropOp56
 70
     1
102
RTVSPost2010Prop57
140
1.0
102
RTVSPost2010PropOp57
 70
     1
102
RTVSPropertyOp28
 70
     1
102
RTVSPropertyOp29
 70
     1
102
RTVSPropertyOp30
 70
     1
102
RTVSPropertyOp31
 70
     1
102
RTVSPropertyOp32
 70
     1
102
RTVSPropertyOp33
 70
     1
102
RTVSPropertyOp34
 70
     1
102
RTVSPropertyOp35
 70
     1
102
RTVSPropertyOp36
 70
     1
102
RTVSPropertyOp37
 70
     1
102
RTVSPropertyOp38
 70
     1
102
RTVSPropertyOp39
 70
     1
102
RTVSPropertyOp40
 70
     1
102
RTVSPropertyOp41
 70
     1
102
RTVSPropertyOp42
 70
     1
102
RTVSPropertyOp43
 70
     1
102
RTVSPropertyOp44
 70
     1
102
RTVSPropertyOp45
 70
     1
102
RTVSPropertyOp46
 70
     1
102
RTVSPropertyOp47
 70
     1
102
RTVSPropertyOp48
 70
     1
102
RTVSPropertyOp49
 70
     1
102
RTVSPropertyOp50
 70
     1
102
RTVSPropertyOp51
 70
     0
102
RTVSPropertyOp52
 70
     0
102
RTVSPropertyOp53
 70
     1
102
RTVSPropertyOp54
 70
     1
102
RTVSPropertyOp55
 70
     1
102
RTVSPropertyOp56
 70
     1
102
RTVSPropertyOp57
 70
     1
102
RTVSPropertyOp58
 70
     1
102
RTVSPropertyOp59
 70
     1
102
RTVSPropertyOp60
 70
     1
102
RTVSPropertyOp61
 70
     1
102
RTVSPropertyOp62
 70
     1
102
RTVSPropertyOp0
 70
     1
102
RTVSPropertyOp1
 70
     1
102
RTVSPropertyOp2
 70
     1
102
RTVSPropertyOp3
 70
     1
102
RTVSPropertyOp4
 70
     1
102
RTVSPropertyOp5
 70
     1
102
RTVSPropertyOp6
 70
     1
102
RTVSPropertyOp7
 70
     1
102
RTVSPropertyOp8
 70
     1
102
RTVSPropertyOp9
 70
     1
102
RTVSPropertyOp10
 70
     1
102
RTVSPropertyOp11
 70
     1
102
RTVSPropertyOp12
 70
     1
102
RTVSPropertyOp13
 70
     1
102
RTVSPropertyOp14
 70
     1
102
RTVSPropertyOp15
 70
     1
102
RTVSPropertyOp16
 70
     1
102
RTVSPropertyOp17
 70
     1
102
RTVSPropertyOp18
 70
     1
102
RTVSPropertyOp19
 70
     1
102
RTVSPropertyOp20
 70
     1
102
RTVSPropertyOp21
 70
     1
102
RTVSPropertyOp22
 70
     1
102
RTVSPropertyOp23
 70
     1
102
RTVSPropertyOp24
 70
     1
102
RTVSPropertyOp25
 70
     1
102
RTVSPropertyOp26
 70
     1
102
RTVSPropertyOp27
 70
     1
  0
XRECORD
  5
3184
102
{ACAD_REACTORS
330
3183
102
}
330
3183
100
AcDbXrecord
280
     1
102
RTVSPost2010Prop28
280
     0
102
RTVSPost2010PropOp28
 70
     1
102
RTVSPost2010Prop29
280
     1
102
RTVSPost2010PropOp29
 70
     1
102
RTVSPost2010Prop30
280
     1
102
RTVSPost2010PropOp30
 70
     1
102
RTVSPost2010Prop31
280
     0
102
RTVSPost2010PropOp31
 70
     1
102
RTVSPost2010Prop32
280
     0
102
RTVSPost2010PropOp32
 70
     1
102
RTVSPost2010Prop33
280
     0
102
RTVSPost2010PropOp33
 70
     1
102
RTVSPost2010Prop34
280
     0
102
RTVSPost2010PropOp34
 70
     1
102
RTVSPost2010Prop35
280
     0
102
RTVSPost2010PropOp35
 70
     1
102
RTVSPost2010Prop36
280
     0
102
RTVSPost2010PropOp36
 70
     1
102
RTVSPost2010Prop37
 90
       50
102
RTVSPost2010PropOp37
 70
     1
102
RTVSPost2010Prop38
140
0.0
102
RTVSPost2010PropOp38
 70
     1
102
RTVSPost2010Prop39
140
1.0
102
RTVSPost2010PropOp39
 70
     1
102
RTVSPost2010Prop40
 90
        0
102
RTVSPost2010PropOp40
 70
     1
102
RTVSPost2010Prop41ColorIndex
 90
       18
102
RTVSPost2010Prop41ColorRGB
 90
        0
102
RTVSPost2010PropOp41
 70
     1
102
RTVSPost2010Prop42
 90
       50
102
RTVSPost2010PropOp42
 70
     1
102
RTVSPost2010Prop43
 90
        3
102
RTVSPost2010PropOp43
 70
     1
102
RTVSPost2010Prop44ColorIndex
 90
        5
102
RTVSPost2010Prop44ColorRGB
 90
      255
102
RTVSPost2010PropOp44
 70
     1
102
RTVSPost2010Prop45
280
     0
102
RTVSPost2010PropOp45
 70
     1
102
RTVSPost2010Prop46
 90
       50
102
RTVSPost2010PropOp46
 70
     1
102
RTVSPost2010Prop47
 90
       50
102
RTVSPost2010PropOp47
 70
     1
102
RTVSPost2010Prop48
 90
       50
102
RTVSPost2010PropOp48
 70
     1
102
RTVSPost2010Prop49
280
     0
102
RTVSPost2010PropOp49
 70
     1
102
RTVSPost2010Prop50
 90
       50
102
RTVSPost2010PropOp50
 70
     1
102
RTVSPost2010Prop51ColorIndex
 90
      256
102
RTVSPost2010Prop51ColorRGB
 90
-16777216
102
RTVSPost2010PropOp51
 70
     0
102
RTVSPost2010Prop52
140
1.0
102
RTVSPost2010PropOp52
 70
     0
102
RTVSPost2010Prop53
 90
        2
102
RTVSPost2010PropOp53
 70
     1
102
RTVSPost2010Prop54
  1
strokes_ogs.tif
102
RTVSPost2010PropOp54
 70
     1
102
RTVSPost2010Prop55
280
     0
102
RTVSPost2010PropOp55
 70
     1
102
RTVSPost2010Prop56
140
1.0
102
RTVSPost2010PropOp56
 70
     1
102
RTVSPost2010Prop57
140
1.0
102
RTVSPost2010PropOp57
 70
     1
102
RTVSPropertyOp28
 70
     1
102
RTVSPropertyOp29
 70
     1
102
RTVSPropertyOp30
 70
     1
102
RTVSPropertyOp31
 70
     1
102
RTVSPropertyOp32
 70
     1
102
RTVSPropertyOp33
 70
     1
102
RTVSPropertyOp34
 70
     1
102
RTVSPropertyOp35
 70
     1
102
RTVSPropertyOp36
 70
     1
102
RTVSPropertyOp37
 70
     1
102
RTVSPropertyOp38
 70
     1
102
RTVSPropertyOp39
 70
     1
102
RTVSPropertyOp40
 70
     1
102
RTVSPropertyOp41
 70
     1
102
RTVSPropertyOp42
 70
     1
102
RTVSPropertyOp43
 70
     1
102
RTVSPropertyOp44
 70
     1
102
RTVSPropertyOp45
 70
     1
102
RTVSPropertyOp46
 70
     1
102
RTVSPropertyOp47
 70
     1
102
RTVSPropertyOp48
 70
     1
102
RTVSPropertyOp49
 70
     1
102
RTVSPropertyOp50
 70
     1
102
RTVSPropertyOp51
 70
     0
102
RTVSPropertyOp52
 70
     0
102
RTVSPropertyOp53
 70
     1
102
RTVSPropertyOp54
 70
     1
102
RTVSPropertyOp55
 70
     1
102
RTVSPropertyOp56
 70
     1
102
RTVSPropertyOp57
 70
     1
102
RTVSPropertyOp58
 70
     1
102
RTVSPropertyOp59
 70
     1
102
RTVSPropertyOp60
 70
     1
102
RTVSPropertyOp61
 70
     1
102
RTVSPropertyOp62
 70
     1
102
RTVSPropertyOp0
 70
     1
102
RTVSPropertyOp1
 70
     1
102
RTVSPropertyOp2
 70
     1
102
RTVSPropertyOp3
 70
     1
102
RTVSPropertyOp4
 70
     1
102
RTVSPropertyOp5
 70
     1
102
RTVSPropertyOp6
 70
     1
102
RTVSPropertyOp7
 70
     1
102
RTVSPropertyOp8
 70
     1
102
RTVSPropertyOp9
 70
     1
102
RTVSPropertyOp10
 70
     1
102
RTVSPropertyOp11
 70
     1
102
RTVSPropertyOp12
 70
     1
102
RTVSPropertyOp13
 70
     1
102
RTVSPropertyOp14
 70
     1
102
RTVSPropertyOp15
 70
     1
102
RTVSPropertyOp16
 70
     1
102
RTVSPropertyOp17
 70
     1
102
RTVSPropertyOp18
 70
     1
102
RTVSPropertyOp19
 70
     1
102
RTVSPropertyOp20
 70
     1
102
RTVSPropertyOp21
 70
     1
102
RTVSPropertyOp22
 70
     1
102
RTVSPropertyOp23
 70
     1
102
RTVSPropertyOp24
 70
     1
102
RTVSPropertyOp25
 70
     1
102
RTVSPropertyOp26
 70
     1
102
RTVSPropertyOp27
 70
     1
  0
XRECORD
  5
3178
102
{ACAD_REACTORS
330
3177
102
}
330
3177
100
AcDbXrecord
280
     1
102
RTVSPost2010Prop28
280
     0
102
RTVSPost2010PropOp28
 70
     1
102
RTVSPost2010Prop29
280
     1
102
RTVSPost2010PropOp29
 70
     1
102
RTVSPost2010Prop30
280
     1
102
RTVSPost2010PropOp30
 70
     1
102
RTVSPost2010Prop31
280
     0
102
RTVSPost2010PropOp31
 70
     1
102
RTVSPost2010Prop32
280
     0
102
RTVSPost2010PropOp32
 70
     1
102
RTVSPost2010Prop33
280
     0
102
RTVSPost2010PropOp33
 70
     1
102
RTVSPost2010Prop34
280
     0
102
RTVSPost2010PropOp34
 70
     1
102
RTVSPost2010Prop35
280
     0
102
RTVSPost2010PropOp35
 70
     1
102
RTVSPost2010Prop36
280
     0
102
RTVSPost2010PropOp36
 70
     1
102
RTVSPost2010Prop37
 90
       50
102
RTVSPost2010PropOp37
 70
     1
102
RTVSPost2010Prop38
140
0.0
102
RTVSPost2010PropOp38
 70
     1
102
RTVSPost2010Prop39
140
1.0
102
RTVSPost2010PropOp39
 70
     1
102
RTVSPost2010Prop40
 90
        0
102
RTVSPost2010PropOp40
 70
     1
102
RTVSPost2010Prop41ColorIndex
 90
       18
102
RTVSPost2010Prop41ColorRGB
 90
        0
102
RTVSPost2010PropOp41
 70
     1
102
RTVSPost2010Prop42
 90
       50
102
RTVSPost2010PropOp42
 70
     1
102
RTVSPost2010Prop43
 90
        3
102
RTVSPost2010PropOp43
 70
     1
102
RTVSPost2010Prop44ColorIndex
 90
        5
102
RTVSPost2010Prop44ColorRGB
 90
      255
102
RTVSPost2010PropOp44
 70
     1
102
RTVSPost2010Prop45
280
     0
102
RTVSPost2010PropOp45
 70
     1
102
RTVSPost2010Prop46
 90
       50
102
RTVSPost2010PropOp46
 70
     1
102
RTVSPost2010Prop47
 90
       50
102
RTVSPost2010PropOp47
 70
     1
102
RTVSPost2010Prop48
 90
       50
102
RTVSPost2010PropOp48
 70
     1
102
RTVSPost2010Prop49
280
     0
102
RTVSPost2010PropOp49
 70
     1
102
RTVSPost2010Prop50
 90
       50
102
RTVSPost2010PropOp50
 70
     1
102
RTVSPost2010Prop51ColorIndex
 90
      256
102
RTVSPost2010Prop51ColorRGB
 90
-16777216
102
RTVSPost2010PropOp51
 70
     0
102
RTVSPost2010Prop52
140
1.0
102
RTVSPost2010PropOp52
 70
     0
102
RTVSPost2010Prop53
 90
        2
102
RTVSPost2010PropOp53
 70
     1
102
RTVSPost2010Prop54
  1
strokes_ogs.tif
102
RTVSPost2010PropOp54
 70
     1
102
RTVSPost2010Prop55
280
     0
102
RTVSPost2010PropOp55
 70
     1
102
RTVSPost2010Prop56
140
1.0
102
RTVSPost2010PropOp56
 70
     1
102
RTVSPost2010Prop57
140
1.0
102
RTVSPost2010PropOp57
 70
     1
102
RTVSPropertyOp28
 70
     1
102
RTVSPropertyOp29
 70
     1
102
RTVSPropertyOp30
 70
     1
102
RTVSPropertyOp31
 70
     1
102
RTVSPropertyOp32
 70
     1
102
RTVSPropertyOp33
 70
     1
102
RTVSPropertyOp34
 70
     1
102
RTVSPropertyOp35
 70
     1
102
RTVSPropertyOp36
 70
     1
102
RTVSPropertyOp37
 70
     1
102
RTVSPropertyOp38
 70
     1
102
RTVSPropertyOp39
 70
     1
102
RTVSPropertyOp40
 70
     1
102
RTVSPropertyOp41
 70
     1
102
RTVSPropertyOp42
 70
     1
102
RTVSPropertyOp43
 70
     1
102
RTVSPropertyOp44
 70
     1
102
RTVSPropertyOp45
 70
     1
102
RTVSPropertyOp46
 70
     1
102
RTVSPropertyOp47
 70
     1
102
RTVSPropertyOp48
 70
     1
102
RTVSPropertyOp49
 70
     1
102
RTVSPropertyOp50
 70
     1
102
RTVSPropertyOp51
 70
     0
102
RTVSPropertyOp52
 70
     0
102
RTVSPropertyOp53
 70
     1
102
RTVSPropertyOp54
 70
     1
102
RTVSPropertyOp55
 70
     1
102
RTVSPropertyOp56
 70
     1
102
RTVSPropertyOp57
 70
     1
102
RTVSPropertyOp58
 70
     1
102
RTVSPropertyOp59
 70
     1
102
RTVSPropertyOp60
 70
     1
102
RTVSPropertyOp61
 70
     1
102
RTVSPropertyOp62
 70
     1
102
RTVSPropertyOp0
 70
     1
102
RTVSPropertyOp1
 70
     1
102
RTVSPropertyOp2
 70
     1
102
RTVSPropertyOp3
 70
     1
102
RTVSPropertyOp4
 70
     1
102
RTVSPropertyOp5
 70
     1
102
RTVSPropertyOp6
 70
     1
102
RTVSPropertyOp7
 70
     1
102
RTVSPropertyOp8
 70
     1
102
RTVSPropertyOp9
 70
     1
102
RTVSPropertyOp10
 70
     1
102
RTVSPropertyOp11
 70
     1
102
RTVSPropertyOp12
 70
     1
102
RTVSPropertyOp13
 70
     1
102
RTVSPropertyOp14
 70
     1
102
RTVSPropertyOp15
 70
     1
102
RTVSPropertyOp16
 70
     1
102
RTVSPropertyOp17
 70
     1
102
RTVSPropertyOp18
 70
     1
102
RTVSPropertyOp19
 70
     1
102
RTVSPropertyOp20
 70
     1
102
RTVSPropertyOp21
 70
     1
102
RTVSPropertyOp22
 70
     1
102
RTVSPropertyOp23
 70
     1
102
RTVSPropertyOp24
 70
     1
102
RTVSPropertyOp25
 70
     1
102
RTVSPropertyOp26
 70
     1
102
RTVSPropertyOp27
 70
     1
  0
XRECORD
  5
3190
102
{ACAD_REACTORS
330
318F
102
}
330
318F
100
AcDbXrecord
280
     1
102
RTVSPost2010Prop28
280
     0
102
RTVSPost2010PropOp28
 70
     1
102
RTVSPost2010Prop29
280
     1
102
RTVSPost2010PropOp29
 70
     1
102
RTVSPost2010Prop30
280
     1
102
RTVSPost2010PropOp30
 70
     1
102
RTVSPost2010Prop31
280
     0
102
RTVSPost2010PropOp31
 70
     1
102
RTVSPost2010Prop32
280
     0
102
RTVSPost2010PropOp32
 70
     1
102
RTVSPost2010Prop33
280
     0
102
RTVSPost2010PropOp33
 70
     1
102
RTVSPost2010Prop34
280
     0
102
RTVSPost2010PropOp34
 70
     1
102
RTVSPost2010Prop35
280
     0
102
RTVSPost2010PropOp35
 70
     1
102
RTVSPost2010Prop36
280
     0
102
RTVSPost2010PropOp36
 70
     1
102
RTVSPost2010Prop37
 90
       50
102
RTVSPost2010PropOp37
 70
     1
102
RTVSPost2010Prop38
140
0.0
102
RTVSPost2010PropOp38
 70
     1
102
RTVSPost2010Prop39
140
1.0
102
RTVSPost2010PropOp39
 70
     1
102
RTVSPost2010Prop40
 90
        0
102
RTVSPost2010PropOp40
 70
     1
102
RTVSPost2010Prop41ColorIndex
 90
       18
102
RTVSPost2010Prop41ColorRGB
 90
        0
102
RTVSPost2010PropOp41
 70
     1
102
RTVSPost2010Prop42
 90
       50
102
RTVSPost2010PropOp42
 70
     1
102
RTVSPost2010Prop43
 90
        3
102
RTVSPost2010PropOp43
 70
     1
102
RTVSPost2010Prop44ColorIndex
 90
        5
102
RTVSPost2010Prop44ColorRGB
 90
      255
102
RTVSPost2010PropOp44
 70
     1
102
RTVSPost2010Prop45
280
     0
102
RTVSPost2010PropOp45
 70
     1
102
RTVSPost2010Prop46
 90
       50
102
RTVSPost2010PropOp46
 70
     1
102
RTVSPost2010Prop47
 90
       50
102
RTVSPost2010PropOp47
 70
     1
102
RTVSPost2010Prop48
 90
       50
102
RTVSPost2010PropOp48
 70
     1
102
RTVSPost2010Prop49
280
     0
102
RTVSPost2010PropOp49
 70
     1
102
RTVSPost2010Prop50
 90
       50
102
RTVSPost2010PropOp50
 70
     1
102
RTVSPost2010Prop51ColorIndex
 90
      256
102
RTVSPost2010Prop51ColorRGB
 90
-16777216
102
RTVSPost2010PropOp51
 70
     0
102
RTVSPost2010Prop52
140
1.0
102
RTVSPost2010PropOp52
 70
     0
102
RTVSPost2010Prop53
 90
        2
102
RTVSPost2010PropOp53
 70
     1
102
RTVSPost2010Prop54
  1
strokes_ogs.tif
102
RTVSPost2010PropOp54
 70
     1
102
RTVSPost2010Prop55
280
     0
102
RTVSPost2010PropOp55
 70
     1
102
RTVSPost2010Prop56
140
1.0
102
RTVSPost2010PropOp56
 70
     1
102
RTVSPost2010Prop57
140
1.0
102
RTVSPost2010PropOp57
 70
     1
102
RTVSPropertyOp28
 70
     1
102
RTVSPropertyOp29
 70
     1
102
RTVSPropertyOp30
 70
     1
102
RTVSPropertyOp31
 70
     1
102
RTVSPropertyOp32
 70
     1
102
RTVSPropertyOp33
 70
     1
102
RTVSPropertyOp34
 70
     1
102
RTVSPropertyOp35
 70
     1
102
RTVSPropertyOp36
 70
     1
102
RTVSPropertyOp37
 70
     1
102
RTVSPropertyOp38
 70
     1
102
RTVSPropertyOp39
 70
     1
102
RTVSPropertyOp40
 70
     1
102
RTVSPropertyOp41
 70
     1
102
RTVSPropertyOp42
 70
     1
102
RTVSPropertyOp43
 70
     1
102
RTVSPropertyOp44
 70
     1
102
RTVSPropertyOp45
 70
     1
102
RTVSPropertyOp46
 70
     1
102
RTVSPropertyOp47
 70
     1
102
RTVSPropertyOp48
 70
     1
102
RTVSPropertyOp49
 70
     1
102
RTVSPropertyOp50
 70
     1
102
RTVSPropertyOp51
 70
     0
102
RTVSPropertyOp52
 70
     0
102
RTVSPropertyOp53
 70
     1
102
RTVSPropertyOp54
 70
     1
102
RTVSPropertyOp55
 70
     1
102
RTVSPropertyOp56
 70
     1
102
RTVSPropertyOp57
 70
     1
102
RTVSPropertyOp58
 70
     1
102
RTVSPropertyOp59
 70
     1
102
RTVSPropertyOp60
 70
     1
102
RTVSPropertyOp61
 70
     1
102
RTVSPropertyOp62
 70
     1
102
RTVSPropertyOp0
 70
     1
102
RTVSPropertyOp1
 70
     1
102
RTVSPropertyOp2
 70
     1
102
RTVSPropertyOp3
 70
     1
102
RTVSPropertyOp4
 70
     1
102
RTVSPropertyOp5
 70
     1
102
RTVSPropertyOp6
 70
     1
102
RTVSPropertyOp7
 70
     1
102
RTVSPropertyOp8
 70
     1
102
RTVSPropertyOp9
 70
     1
102
RTVSPropertyOp10
 70
     1
102
RTVSPropertyOp11
 70
     1
102
RTVSPropertyOp12
 70
     1
102
RTVSPropertyOp13
 70
     1
102
RTVSPropertyOp14
 70
     1
102
RTVSPropertyOp15
 70
     1
102
RTVSPropertyOp16
 70
     1
102
RTVSPropertyOp17
 70
     1
102
RTVSPropertyOp18
 70
     1
102
RTVSPropertyOp19
 70
     1
102
RTVSPropertyOp20
 70
     1
102
RTVSPropertyOp21
 70
     1
102
RTVSPropertyOp22
 70
     1
102
RTVSPropertyOp23
 70
     1
102
RTVSPropertyOp24
 70
     1
102
RTVSPropertyOp25
 70
     1
102
RTVSPropertyOp26
 70
     1
102
RTVSPropertyOp27
 70
     1
  0
ENDSEC
  0
EOF
