  0
SECTION
  2
HEADER
  9
$ACADVER
  1
AC1009
  9
$INSBASE
 10
0.0
 20
0.0
 30
0.0
  9
$EXTMIN
 10
-53.880854180293738
 20
-54.999999999999893
 30
0.0
  9
$EXTMAX
 10
185.83333333333309
 20
66.0
 30
0.0
  9
$LIMMIN
 10
0.0
 20
0.0
  9
$LIMMAX
 10
12.0
 20
9.0
  9
$ORTHOMODE
 70
     0
  9
$REGENMODE
 70
     1
  9
$FILLMODE
 70
     1
  9
$QTEXTMODE
 70
     0
  9
$MIRRTEXT
 70
     1
  9
$DRAGMODE
 70
     2
  9
$LTSCALE
 40
1.0
  9
$OSMODE
 70
    37
  9
$ATTMODE
 70
     1
  9
$TEXTSIZE
 40
0.2
  9
$TRACEWID
 40
0.05
  9
$TEXTSTYLE
  7
STANDARD
  9
$CLAYER
  8
0
  9
$CELTYPE
  6
BYLAYER
  9
$CECOLOR
 62
   256
  9
$DIMSCALE
 40
1.0
  9
$DIMASZ
 40
0.18
  9
$DIMEXO
 40
0.0625
  9
$DIMDLI
 40
0.38
  9
$DIMRND
 40
0.0
  9
$DIMDLE
 40
0.0
  9
$DIMEXE
 40
0.18
  9
$DIMTP
 40
0.0
  9
$DIMTM
 40
0.0
  9
$DIMTXT
 40
0.18
  9
$DIMCEN
 40
0.09
  9
$DIMTSZ
 40
0.0
  9
$DIMTOL
 70
     0
  9
$DIMLIM
 70
     0
  9
$DIMTIH
 70
     1
  9
$DIMTOH
 70
     1
  9
$DIMSE1
 70
     0
  9
$DIMSE2
 70
     0
  9
$DIMTAD
 70
     0
  9
$DIMZIN
 70
     0
  9
$DIMBLK
  1

  9
$DIMASO
 70
     1
  9
$DIMSHO
 70
     1
  9
$DIMPOST
  1

  9
$DIMAPOST
  1

  9
$DIMALT
 70
     0
  9
$DIMALTD
 70
     2
  9
$DIMALTF
 40
25.399999999999999
  9
$DIMLFAC
 40
1.0
  9
$DIMTOFL
 70
     0
  9
$DIMTVP
 40
0.0
  9
$DIMTIX
 70
     0
  9
$DIMSOXD
 70
     0
  9
$DIMSAH
 70
     0
  9
$DIMBLK1
  1

  9
$DIMBLK2
  1

  9
$DIMSTYLE
  2
STANDARD
  9
$DIMCLRD
 70
     0
  9
$DIMCLRE
 70
     0
  9
$DIMCLRT
 70
     0
  9
$DIMTFAC
 40
1.0
  9
$DIMGAP
 40
0.09
  9
$LUNITS
 70
     2
  9
$LUPREC
 70
     4
  9
$SKETCHINC
 40
0.1
  9
$FILLETRAD
 40
0.5
  9
$AUNITS
 70
     0
  9
$AUPREC
 70
     0
  9
$MENU
  1
.
  9
$ELEVATION
 40
0.0
  9
$PELEVATION
 40
0.0
  9
$THICKNESS
 40
0.0
  9
$LIMCHECK
 70
     0
  9
$BLIPMODE
 70
     0
  9
$CHAMFERA
 40
0.5
  9
$CHAMFERB
 40
0.5
  9
$SKPOLY
 70
     0
  9
$TDCREATE
 40
2451955.1727028699
  9
$TDUPDATE
 40
2454728.8792672101
  9
$TDINDWG
 40
0.0191109491
  9
$TDUSRTIMER
 40
0.0191107755
  9
$USRTIMER
 70
     1
  9
$ANGBASE
 50
0.0
  9
$ANGDIR
 70
     0
  9
$PDMODE
 70
     0
  9
$PDSIZE
 40
0.0
  9
$PLINEWID
 40
0.0
  9
$COORDS
 70
     1
  9
$SPLFRAME
 70
     0
  9
$SPLINETYPE
 70
     6
  9
$SPLINESEGS
 70
     8
  9
$ATTDIA
 70
     0
  9
$ATTREQ
 70
     1
  9
$HANDLING
 70
 22529
  9
$HANDSEED
  5
D39
  9
$SURFTAB1
 70
     6
  9
$SURFTAB2
 70
     6
  9
$SURFTYPE
 70
     6
  9
$SURFU
 70
     6
  9
$SURFV
 70
     6
  9
$UCSNAME
  2

  9
$UCSORG
 10
0.0
 20
0.0
 30
0.0
  9
$UCSXDIR
 10
1.0
 20
0.0
 30
0.0
  9
$UCSYDIR
 10
0.0
 20
1.0
 30
0.0
  9
$PUCSNAME
  2

  9
$PUCSORG
 10
0.0
 20
0.0
 30
0.0
  9
$PUCSXDIR
 10
1.0
 20
0.0
 30
0.0
  9
$PUCSYDIR
 10
0.0
 20
1.0
 30
0.0
  9
$USERI1
 70
     0
  9
$USERI2
 70
     0
  9
$USERI3
 70
     0
  9
$USERI4
 70
     0
  9
$USERI5
 70
     0
  9
$USERR1
 40
0.0
  9
$USERR2
 40
0.0
  9
$USERR3
 40
0.0
  9
$USERR4
 40
0.0
  9
$USERR5
 40
0.0
  9
$WORLDVIEW
 70
     1
  9
$SHADEDGE
 70
     3
  9
$SHADEDIF
 70
    70
  9
$TILEMODE
 70
     1
  9
$MAXACTVP
 70
    48
  9
$PLIMCHECK
 70
     0
  9
$PEXTMIN
 10
1.049636599258096
 20
0.7996597240971113
 30
-0.0015258207003583
  9
$PEXTMAX
 10
9.4503627310769716
 20
7.2003400826974584
 30
0.0000000349246037
  9
$PLIMMIN
 10
-0.2500002402958907
 20
-0.2499999962453767
  9
$PLIMMAX
 10
10.74999951940821
 20
8.2499997634587316
  9
$UNITMODE
 70
     0
  9
$VISRETAIN
 70
     1
  9
$PLINEGEN
 70
     0
  9
$PSLTSCALE
 70
     1
  0
ENDSEC
  0
SECTION
  2
TABLES
  0
TABLE
  2
VPORT
 70
     2
  0
VPORT
  2
*ACTIVE
 70
     0
 10
0.0
 20
0.0
 11
1.0
 21
1.0
 12
65.977078045517004
 22
5.5000002817251641
 13
0.0
 23
0.0
 14
0.5
 24
0.5
 15
0.5
 25
0.5
 16
0.0
 26
0.0
 36
1.0
 17
0.0
 27
0.0
 37
0.0
 40
160.35790666028501
 41
1.5031210986267161
 42
50.0
 43
0.0
 44
0.0
 50
0.0
 51
0.0
 71
     0
 72
   100
 73
     1
 74
     3
 75
     0
 76
     0
 77
     0
 78
     0
  0
ENDTAB
  0
TABLE
  2
LTYPE
 70
     2
  0
LTYPE
  2
CONTINUOUS
 70
     0
  3
Solid line
 72
    65
 73
     0
 40
0.0
  0
LTYPE
  2
CENTER
 70
     0
  3
__ . __
 72
    65
 73
     4
 40
7.0
 49
4.0
 49
-1.0
 49
1.0
 49
-1.0
  0
ENDTAB
  0
TABLE
  2
LAYER
 70
     1
  0
LAYER
  2
0
 70
     0
 62
     7
  6
CONTINUOUS
  0
ENDTAB
  0
TABLE
  2
STYLE
 70
     1
  0
STYLE
  2
STANDARD
 70
     0
 40
0.0
 41
1.0
 50
0.0
 71
     0
 42
0.2
  3
txt
  4

  0
ENDTAB
  0
TABLE
  2
VIEW
 70
     0
  0
ENDTAB
  0
TABLE
  2
UCS
 70
     0
  0
ENDTAB
  0
TABLE
  2
APPID
 70
    23
  0
APPID
  2
ACAD
 70
     0
  0
APPID
  2
GENIUS_GENODEF_13
 70
     0
  0
APPID
  2
ACAD_DSTYLE_DIMARC_LENGTH_
 70
     0
  0
APPID
  2
ACAD_DSTYLE_DIMJOGGED_JOGA
 70
     0
  0
APPID
  2
GENIUS_GENOBJ-N-FIL_13
 70
     0
  0
APPID
  2
GENIUS_GENOBJ-N-CEN_13
 70
     0
  0
APPID
  2
GENIUS_GENCEN_19
 70
     0
  0
APPID
  2
GENIUS_GENFIL_13
 70
     0
  0
APPID
  2
GENIUS_GENOBJ-N-CHA_13
 70
     0
  0
APPID
  2
ACAD_MLEADERVER
 70
     0
  0
APPID
  2
MCAD_NO_VIS
 70
     0
  0
APPID
  2
ACAD_TEMP_GRAPHIC
 70
     0
  0
APPID
  2
AD_DRAW
 70
     0
  0
APPID
  2
ACATTRIBSERVICES
 70
     0
  0
APPID
  2
DESIGNERASSEMBLIES
 70
     0
  0
APPID
  2
ACADM_DIM_EDIT
 70
     0
  0
APPID
  2
AMDT_DM_ADJ
 70
     0
  0
APPID
  2
GENIUS_GENSCREG_15
 70
     0
  0
APPID
  2
GENIUS_GENOBJ-N-SDF_13
 70
     0
  0
APPID
  2
ACAD_DSTYLE_DIM_LINETYPE
 70
     0
  0
APPID
  2
ACAD_DSTYLE_DIM_EXT1_LINETYPE
 70
     0
  0
APPID
  2
ACAD_DSTYLE_DIM_EXT2_LINETYPE
 70
     0
  0
APPID
  2
ACAD_EXEMPT_FROM_CAD_STANDARDS
 70
     0
  0
ENDTAB
  0
TABLE
  2
DIMSTYLE
 70
     1
  0
DIMSTYLE
  2
STANDARD
 70
     0
  3

  4

  5

  6

  7

 40
1.0
 41
0.18
 42
0.0625
 43
0.38
 44
0.18
 45
0.0
 46
0.0
 47
0.0
 48
0.0
140
0.18
141
0.09
142
0.0
143
25.399999999999999
144
1.0
145
0.0
146
1.0
147
0.09
 71
     0
 72
     0
 73
     1
 74
     1
 75
     0
 76
     0
 77
     0
 78
     0
170
     0
171
     2
172
     0
173
     0
174
     0
175
     0
176
     0
177
     0
178
     0
  0
ENDTAB
  0
ENDSEC
  0
SECTION
  2
BLOCKS
  0
BLOCK
  8
0
  2
$MODEL_SPACE
 70
     0
 10
0.0
 20
0.0
 30
0.0
  3
$MODEL_SPACE
  1

  0
ENDBLK
  5
21
  8
0
  0
BLOCK
 67
     1
  8
0
  2
$PAPER_SPACE
 70
     0
 10
0.0
 20
0.0
 30
0.0
  3
$PAPER_SPACE
  1

  0
ENDBLK
  5
60
 67
     1
  8
0
  0
ENDSEC
  0
SECTION
  2
ENTITIES
  0
TEXT
  5
658
  8
0
 10
99.999999999999787
 20
61.0
 30
0.0
 40
5.0
  1
F-ADAPTER-M 1SX20A
  0
LINE
  5
C6D
  8
0
 10
114.0
 20
50.0
 30
0.0
 11
114.0
 21
-50.0
 31
0.0
  0
LINE
  5
C6E
  8
0
 10
100.0000000000002
 20
-50.0
 30
0.0
 11
99.999999999999787
 21
50.0
 31
0.0
  0
LINE
  5
C6F
  8
0
  6
CENTER
 10
91.0
 20
-37.5
 30
0.0
 11
124.0
 21
-37.5
 31
0.0
  0
LINE
  5
C72
  8
0
 10
114.0
 20
-50.0
 30
0.0
 11
100.0000000000002
 21
-50.0
 31
0.0
  0
LINE
  5
C73
  8
0
  6
CENTER
 10
91.0
 20
37.5
 30
0.0
 11
124.0
 21
37.5
 31
0.0
  0
LINE
  5
C74
  8
0
 10
99.999999999999787
 20
50.0
 30
0.0
 11
114.0
 21
50.0
 31
0.0
  0
LINE
  5
C77
  8
0
 10
114.0
 20
12.69999999999993
 30
0.0
 11
130.49999999999989
 21
12.700000000000159
 31
0.0
  0
LINE
  5
C78
  8
0
 10
114.0
 20
-12.700000000000269
 30
0.0
 11
130.49999999999969
 21
-12.699999999999809
 31
0.0
  0
LINE
  5
C79
  8
0
  6
CENTER
 10
77.123644513102704
 20
0.0
 30
0.0
 11
154.24728902620541
 21
0.0
 31
0.0
  0
LINE
  5
C7A
  8
0
  6
CENTER
 10
0.0
 20
54.999999999999773
 30
0.0
 11
0.0
 21
-54.999999999999893
 31
0.0
  0
LINE
  5
C7B
  8
0
  6
CENTER
 10
53.880854180293738
 20
0.0000000000000012
 30
0.0
 11
-53.880854180293738
 21
-0.0000000000001125
 31
0.0
  0
LINE
  5
C7D
  8
0
  6
CENTER
 10
-14.14213562373083
 20
-14.14213562373118
 30
0.0
 11
-38.890872965260087
 21
-38.890872965260421
 31
0.0
  0
LINE
  5
C7F
  8
0
  6
CENTER
 10
-14.14213562373083
 20
14.14213562373072
 30
0.0
 11
-38.890872965260087
 21
38.890872965259739
 31
0.0
  0
LINE
  5
C82
  8
0
  6
CENTER
 10
14.14213562373083
 20
-14.14213562373118
 30
0.0
 11
38.890872965260087
 21
-38.890872965260421
 31
0.0
  0
LINE
  5
C84
  8
0
  6
CENTER
 10
14.14213562373083
 20
14.14213562373072
 30
0.0
 11
38.890872965260087
 21
38.890872965259739
 31
0.0
  0
ARC
  5
C87
  8
0
 10
130.49999999999989
 20
15.700000000000159
 30
0.0
 40
3.0
 50
270.0
 51
359.9999999999996
  0
LINE
  5
C88
  8
0
 10
144.60289321881339
 20
18.465000000000039
 30
0.0
 11
133.49999999999989
 21
18.465000000000138
 31
0.0
  0
LINE
  5
C89
  8
0
 10
133.49999999999989
 20
16.725000000000161
 30
0.0
 11
146.5499999999999
 21
16.725000000000051
 31
0.0
  0
LINE
  5
C8A
  8
0
 10
133.4999999999996
 20
-16.72499999999987
 30
0.0
 11
146.54999999999961
 21
-16.724999999999991
 31
0.0
  0
LINE
  5
C8B
  8
0
 10
144.60289321881311
 20
-18.46499999999995
 30
0.0
 11
133.4999999999996
 21
-18.464999999999851
 31
0.0
  0
ARC
  5
C8C
  8
0
 10
144.60289321881311
 20
-17.96499999999995
 30
0.0
 40
0.5
 50
270.0
 51
315.00000000000028
  0
LINE
  5
C8D
  8
0
 10
149.99999999999969
 20
-14.600000000000019
 30
0.0
 11
146.99999999999969
 21
-14.6
 31
0.0
  0
LINE
  5
C8E
  8
0
 10
146.85355339059299
 20
-16.421446609406669
 30
0.0
 11
144.95644660940641
 21
-18.31855339059323
 31
0.0
  0
ARC
  5
C8F
  8
0
 10
146.49999999999969
 20
-16.067893218813389
 30
0.0
 40
0.5
 50
315.00000000000028
 51
359.9999999999996
  0
LINE
  5
C90
  8
0
 10
146.99999999999969
 20
-16.067893218813399
 30
0.0
 11
147.0
 21
16.067893218813449
 31
0.0
  0
ARC
  5
C91
  8
0
 10
146.5
 20
16.067893218813449
 30
0.0
 40
0.5
 50
359.9999999999996
 51
44.999999999999417
  0
LINE
  5
C92
  8
0
 10
149.99999999999989
 20
14.600000000000019
 30
0.0
 11
146.99999999999989
 21
14.600000000000049
 31
0.0
  0
LINE
  5
C93
  8
0
 10
149.99999999999969
 20
-14.600000000000019
 30
0.0
 11
149.99999999999989
 21
14.600000000000019
 31
0.0
  0
LINE
  5
C94
  8
0
 10
146.85355339059331
 20
16.421446609406718
 30
0.0
 11
144.9564466094067
 21
18.318553390593319
 31
0.0
  0
ARC
  5
C95
  8
0
 10
144.60289321881339
 20
17.965000000000039
 30
0.0
 40
0.5
 50
44.999999999999417
 51
90.0
  0
ARC
  5
C96
  8
0
 10
130.49999999999969
 20
-15.699999999999809
 30
0.0
 40
3.0
 50
359.9999999999996
 51
90.0
  0
LINE
  5
C97
  8
0
 10
133.49999999999989
 20
18.465000000000138
 30
0.0
 11
133.4999999999996
 21
-18.464999999999851
 31
0.0
  0
CIRCLE
  5
CC2
  8
0
 10
-26.516504294495459
 20
-26.5165042944958
 30
0.0
 40
7.5
  0
CIRCLE
  5
CC3
  8
0
 10
-26.516504294495459
 20
26.516504294495348
 30
0.0
 40
7.5
  0
CIRCLE
  5
CC4
  8
0
 10
26.516504294495459
 20
-26.5165042944958
 30
0.0
 40
7.5
  0
CIRCLE
  5
CC5
  8
0
 10
26.516504294495459
 20
26.516504294495348
 30
0.0
 40
7.5
  0
CIRCLE
  5
CC6
  8
0
  6
CENTER
 10
0.0
 20
-0.0000000000000568
 30
0.0
 40
37.5
  0
VIEWPORT
  5
79
 67
     1
  8
0
 10
5.2499996395561617
 20
3.9999998836066761
 30
0.0
 40
15.015580297613511
 41
8.5939224089826052
 68
     1
 69
     1
1001
ACAD
1000
MVIEW
1002
{
1070
    16
1010
0.0
1020
0.0
1030
0.0
1010
0.0
1020
0.0
1030
1.0
1040
0.0
1040
8.5939224089826052
1040
5.2499996395561617
1040
3.9999998836066761
1040
50.0
1040
0.0
1040
0.0
1070
     0
1070
   100
1070
     1
1070
     1
1070
     0
1070
     0
1070
     0
1070
     0
1040
0.0
1040
0.0
1040
0.0
1040
10.0
1040
10.0
1040
10.0
1040
10.0
1070
     0
1002
{
1002
}
1002
}
1001
GENIUS_GENOBJ-N-SDF_13
1002
{
1000
OWNER
1000
GEN
1002
}
1001
GENIUS_GENODEF_13
1002
{
1000
HIER
1070
     0
1002
}
1002
{
1000
MANEDIT
1070
     0
1002
}
1002
{
1000
NOSEL
1070
     0
1002
}
1002
{
1000
BEHIND
1070
     0
1002
}
1002
{
1000
OTHER
1070
     0
1002
}
1002
{
1000
REACTOR
1002
}
1001
GENIUS_GENSCREG_15
1000
PF
1040
1.0
1000
DF
1040
1.0
1000
MIN
1011
-2.2577905092505972
1021
0.0
1031
0.0
1021
-0.2969613208846251
1031
0.0
1000
MAX
1011
12.757789788362921
1021
0.0
1031
0.0
1021
8.2969610880979801
1031
0.0
1000
FLAGS
1070
     4
  0
VIEWPORT
  5
7B
 67
     1
  8
0
 10
5.24999976158142
 20
3.99999976158142
 30
0.0
 40
8.3999996185302717
 41
6.3999996185302717
 68
     2
 69
     2
1001
ACAD
1000
MVIEW
1002
{
1070
    16
1010
0.0
1020
0.0
1030
0.0
1010
0.0
1020
0.0
1030
1.0
1040
0.0
1040
9.2590797717467002
1040
6.0
1040
4.5
1040
50.0
1040
0.0
1040
0.0
1070
     0
1070
   100
1070
     1
1070
     3
1070
     0
1070
     0
1070
     0
1070
     0
1040
0.0
1040
0.0
1040
0.0
1040
0.5
1040
0.5
1040
0.5
1040
0.5
1070
     0
1002
{
1002
}
1002
}
1001
GENIUS_GENODEF_13
1002
{
1000
HIER
1070
     0
1002
}
1002
{
1000
MANEDIT
1070
     0
1002
}
1002
{
1000
NOSEL
1070
     0
1002
}
1002
{
1000
BEHIND
1070
     0
1002
}
1002
{
1000
OTHER
1070
     0
1002
}
1002
{
1000
REACTOR
1002
}
1001
GENIUS_GENOBJ-N-SDF_13
1002
{
1000
OWNER
1000
GEN
1002
}
1001
GENIUS_GENSCREG_15
1000
PF
1040
0.0
1000
DF
1040
0.0
1000
MIN
1011
1.049999952316284
1021
0.0
1031
0.0
1021
0.7999999523162842
1031
0.0
1000
MAX
1011
9.4499995708465558
1021
0.0
1031
0.0
1021
7.1999995708465558
1031
0.0
1000
FLAGS
1070
     4
  0
ENDSEC
  0
EOF
