  0
SECTION
  2
HEADER
  9
$ACADVER
  1
AC1009
  9
$INSBASE
 10
0.0
 20
0.0
 30
0.0
  9
$EXTMIN
 10
-56.659477992500399
 20
-78.400000000000546
 30
0.0
  9
$EXTMAX
 10
76.387248605907416
 20
78.400000000000546
 30
0.0
  9
$LIMMIN
 10
0.0
 20
0.0
  9
$LIMMAX
 10
12.0
 20
9.0
  9
$ORTHOMODE
 70
     0
  9
$REGENMODE
 70
     1
  9
$FILLMODE
 70
     1
  9
$QTEXTMODE
 70
     0
  9
$MIRRTEXT
 70
     1
  9
$DRAGMODE
 70
     2
  9
$LTSCALE
 40
1.0
  9
$OSMODE
 70
    37
  9
$ATTMODE
 70
     1
  9
$TEXTSIZE
 40
0.2
  9
$TRACEWID
 40
0.05
  9
$TEXTSTYLE
  7
STANDARD
  9
$CLAYER
  8
0
  9
$CELTYPE
  6
BYLAYER
  9
$CECOLOR
 62
   256
  9
$DIMSCALE
 40
1.0
  9
$DIMASZ
 40
0.18
  9
$DIMEXO
 40
0.0625
  9
$DIMDLI
 40
0.38
  9
$DIMRND
 40
0.0
  9
$DIMDLE
 40
0.0
  9
$DIMEXE
 40
0.18
  9
$DIMTP
 40
0.0
  9
$DIMTM
 40
0.0
  9
$DIMTXT
 40
0.18
  9
$DIMCEN
 40
0.09
  9
$DIMTSZ
 40
0.0
  9
$DIMTOL
 70
     0
  9
$DIMLIM
 70
     0
  9
$DIMTIH
 70
     1
  9
$DIMTOH
 70
     1
  9
$DIMSE1
 70
     0
  9
$DIMSE2
 70
     0
  9
$DIMTAD
 70
     0
  9
$DIMZIN
 70
     0
  9
$DIMBLK
  1

  9
$DIMASO
 70
     1
  9
$DIMSHO
 70
     1
  9
$DIMPOST
  1

  9
$DIMAPOST
  1

  9
$DIMALT
 70
     0
  9
$DIMALTD
 70
     2
  9
$DIMALTF
 40
25.399999999999999
  9
$DIMLFAC
 40
1.0
  9
$DIMTOFL
 70
     0
  9
$DIMTVP
 40
0.0
  9
$DIMTIX
 70
     0
  9
$DIMSOXD
 70
     0
  9
$DIMSAH
 70
     0
  9
$DIMBLK1
  1

  9
$DIMBLK2
  1

  9
$DIMSTYLE
  2
STANDARD
  9
$DIMCLRD
 70
     0
  9
$DIMCLRE
 70
     0
  9
$DIMCLRT
 70
     0
  9
$DIMTFAC
 40
1.0
  9
$DIMGAP
 40
0.09
  9
$LUNITS
 70
     2
  9
$LUPREC
 70
     4
  9
$SKETCHINC
 40
0.1
  9
$FILLETRAD
 40
0.5
  9
$AUNITS
 70
     0
  9
$AUPREC
 70
     0
  9
$MENU
  1
.
  9
$ELEVATION
 40
0.0
  9
$PELEVATION
 40
0.0
  9
$THICKNESS
 40
0.0
  9
$LIMCHECK
 70
     0
  9
$BLIPMODE
 70
     0
  9
$CHAMFERA
 40
0.5
  9
$CHAMFERB
 40
0.5
  9
$SKPOLY
 70
     0
  9
$TDCREATE
 40
2451955.1727028699
  9
$TDUPDATE
 40
2454727.811210393
  9
$TDINDWG
 40
0.0116474884
  9
$TDUSRTIMER
 40
0.0116473148
  9
$USRTIMER
 70
     1
  9
$ANGBASE
 50
0.0
  9
$ANGDIR
 70
     0
  9
$PDMODE
 70
     0
  9
$PDSIZE
 40
0.0
  9
$PLINEWID
 40
0.0
  9
$COORDS
 70
     1
  9
$SPLFRAME
 70
     0
  9
$SPLINETYPE
 70
     6
  9
$SPLINESEGS
 70
     8
  9
$ATTDIA
 70
     0
  9
$ATTREQ
 70
     1
  9
$HANDLING
 70
 22529
  9
$HANDSEED
  5
6E0
  9
$SURFTAB1
 70
     6
  9
$SURFTAB2
 70
     6
  9
$SURFTYPE
 70
     6
  9
$SURFU
 70
     6
  9
$SURFV
 70
     6
  9
$UCSNAME
  2

  9
$UCSORG
 10
0.0
 20
0.0
 30
0.0
  9
$UCSXDIR
 10
1.0
 20
0.0
 30
0.0
  9
$UCSYDIR
 10
0.0
 20
1.0
 30
0.0
  9
$PUCSNAME
  2

  9
$PUCSORG
 10
0.0
 20
0.0
 30
0.0
  9
$PUCSXDIR
 10
1.0
 20
0.0
 30
0.0
  9
$PUCSYDIR
 10
0.0
 20
1.0
 30
0.0
  9
$USERI1
 70
     0
  9
$USERI2
 70
     0
  9
$USERI3
 70
     0
  9
$USERI4
 70
     0
  9
$USERI5
 70
     0
  9
$USERR1
 40
0.0
  9
$USERR2
 40
0.0
  9
$USERR3
 40
0.0
  9
$USERR4
 40
0.0
  9
$USERR5
 40
0.0
  9
$WORLDVIEW
 70
     1
  9
$SHADEDGE
 70
     3
  9
$SHADEDIF
 70
    70
  9
$TILEMODE
 70
     1
  9
$MAXACTVP
 70
    48
  9
$PLIMCHECK
 70
     0
  9
$PEXTMIN
 10
1.049636599258096
 20
0.7996597240971113
 30
-0.0015258207003583
  9
$PEXTMAX
 10
9.4503627310769716
 20
7.2003400826974584
 30
0.0000000349246037
  9
$PLIMMIN
 10
-0.2500002402958907
 20
-0.2499999962453767
  9
$PLIMMAX
 10
10.74999951940821
 20
8.2499997634587316
  9
$UNITMODE
 70
     0
  9
$VISRETAIN
 70
     1
  9
$PLINEGEN
 70
     0
  9
$PSLTSCALE
 70
     1
  0
ENDSEC
  0
SECTION
  2
TABLES
  0
TABLE
  2
VPORT
 70
     2
  0
VPORT
  2
*ACTIVE
 70
     0
 10
0.0
 20
0.0
 11
1.0
 21
1.0
 12
9.8638859262694751
 22
0.0000007301792664
 13
0.0
 23
0.0
 14
0.5
 24
0.5
 15
0.5
 25
0.5
 16
0.0
 26
0.0
 36
1.0
 17
0.0
 27
0.0
 37
0.0
 40
158.0829081168643
 41
1.5031210986267161
 42
50.0
 43
0.0
 44
0.0
 50
0.0
 51
0.0
 71
     0
 72
   100
 73
     1
 74
     3
 75
     0
 76
     0
 77
     0
 78
     0
  0
ENDTAB
  0
TABLE
  2
LTYPE
 70
     2
  0
LTYPE
  2
CONTINUOUS
 70
     0
  3
Solid line
 72
    65
 73
     0
 40
0.0
  0
LTYPE
  2
CENTER
 70
     0
  3
__ . __
 72
    65
 73
     4
 40
7.0
 49
4.0
 49
-1.0
 49
1.0
 49
-1.0
  0
ENDTAB
  0
TABLE
  2
LAYER
 70
     1
  0
LAYER
  2
0
 70
     0
 62
     7
  6
CONTINUOUS
  0
ENDTAB
  0
TABLE
  2
STYLE
 70
     1
  0
STYLE
  2
STANDARD
 70
     0
 40
0.0
 41
1.0
 50
0.0
 71
     0
 42
0.2
  3
txt
  4

  0
ENDTAB
  0
TABLE
  2
VIEW
 70
     0
  0
ENDTAB
  0
TABLE
  2
UCS
 70
     0
  0
ENDTAB
  0
TABLE
  2
APPID
 70
     5
  0
APPID
  2
ACAD
 70
     0
  0
APPID
  2
GENIUS_GENODEF_13
 70
     0
  0
APPID
  2
ACAD_DSTYLE_DIMARC_LENGTH_
 70
     0
  0
APPID
  2
ACAD_DSTYLE_DIMJOGGED_JOGA
 70
     0
  0
APPID
  2
GENIUS_GENOBJ-N-FIL_13
 70
     0
  0
ENDTAB
  0
TABLE
  2
DIMSTYLE
 70
     1
  0
DIMSTYLE
  2
STANDARD
 70
     0
  3

  4

  5

  6

  7

 40
1.0
 41
0.18
 42
0.0625
 43
0.38
 44
0.18
 45
0.0
 46
0.0
 47
0.0
 48
0.0
140
0.18
141
0.09
142
0.0
143
25.399999999999999
144
1.0
145
0.0
146
1.0
147
0.09
 71
     0
 72
     0
 73
     1
 74
     1
 75
     0
 76
     0
 77
     0
 78
     0
170
     0
171
     2
172
     0
173
     0
174
     0
175
     0
176
     0
177
     0
178
     0
  0
ENDTAB
  0
ENDSEC
  0
SECTION
  2
BLOCKS
  0
BLOCK
  8
0
  2
$MODEL_SPACE
 70
     0
 10
0.0
 20
0.0
 30
0.0
  3
$MODEL_SPACE
  1

  0
ENDBLK
  5
21
  8
0
  0
BLOCK
 67
     1
  8
0
  2
$PAPER_SPACE
 70
     0
 10
0.0
 20
0.0
 30
0.0
  3
$PAPER_SPACE
  1

  0
ENDBLK
  5
60
 67
     1
  8
0
  0
ENDSEC
  0
SECTION
  2
ENTITIES
  0
TEXT
  5
10C
  8
0
 10
-56.659477992500399
 20
0.0000000000000005
 30
0.0
 40
5.0
  1
SF-L(L) 5S
  0
LINE
  5
632
  8
0
 10
9.9999999999786269
 20
-78.400000000000546
 30
0.0
 11
9.9999999999786269
 21
0.0
 31
0.0
  0
LINE
  5
633
  8
0
 10
18.09999999998001
 20
-69.900000000000091
 30
0.0
 11
18.09999999998001
 21
0.0
 31
0.0
  0
LINE
  5
634
  8
0
 10
15.999999999980099
 20
-72.0
 30
0.0
 11
18.09999999998001
 21
-69.900000000000091
 31
0.0
  0
LINE
  5
635
  8
0
 10
0.0000000000214868
 20
-78.40000000000029
 30
0.0
 11
9.9999999999786269
 21
-78.400000000000546
 31
0.0
  0
ARC
  5
636
  8
0
 10
11.799999999979709
 20
-72.799999999999955
 30
0.0
 40
0.8
 50
90.0
 51
180.0
  0
LINE
  5
637
  8
0
 10
11.799999999979709
 20
-72.0
 30
0.0
 11
15.999999999980099
 21
-72.0
 31
0.0
  0
LINE
  5
638
  8
0
 10
18.09999999998001
 20
-69.900000000000091
 30
0.0
 11
69.999999999980446
 21
-69.900000000000091
 31
0.0
  0
LINE
  5
639
  8
0
 10
9.9999999999786269
 20
-78.400000000000546
 30
0.0
 11
10.999999999978851
 21
-77.400000000000546
 31
0.0
  0
LINE
  5
63A
  8
0
 10
10.999999999978851
 20
-77.400000000000546
 30
0.0
 11
10.9999999999942
 21
0.0
 31
0.0
  0
LINE
  5
63B
  8
0
 10
15.999999999980099
 20
-72.0
 30
0.0
 11
15.999999999999879
 21
-0.0000000000043201
 31
0.0
  0
LINE
  5
63C
  8
0
 10
15.999999999980099
 20
72.0
 30
0.0
 11
18.09999999998001
 21
69.900000000000091
 31
0.0
  0
LINE
  5
63D
  8
0
 10
-0.0000000000216005
 20
78.400000000000304
 30
0.0
 11
9.9999999999786269
 21
78.400000000000546
 31
0.0
  0
LINE
  5
63E
  8
0
 10
-0.0000000000204636
 20
74.400000000000091
 30
0.0
 11
5.9999999999853344
 21
74.400000000000148
 31
0.0
  0
ARC
  5
63F
  8
0
 10
3.7999999999858569
 20
71.099999999999682
 30
0.0
 40
0.8
 50
90.0
 51
180.0
  0
LINE
  5
640
  8
0
 10
3.7999999999858569
 20
71.899999999999636
 30
0.0
 11
5.999999999985107
 21
71.89999999999992
 31
0.0
  0
ARC
  5
641
  8
0
 10
11.799999999979709
 20
72.799999999999955
 30
0.0
 40
0.8
 50
180.00000000001299
 51
270.0
  0
LINE
  5
642
  8
0
 10
11.799999999979709
 20
72.0
 30
0.0
 11
15.999999999980099
 21
72.0
 31
0.0
  0
LINE
  5
643
  8
0
 10
18.09999999998001
 20
69.900000000000091
 30
0.0
 11
69.999999999980446
 21
69.900000000000091
 31
0.0
  0
LINE
  5
644
  8
0
 10
2.9999999999857891
 20
66.900000000000091
 30
0.0
 11
69.999999999981128
 21
66.900000000000091
 31
0.0
  0
LINE
  5
645
  8
0
  6
CENTER
 10
-5.0846719256840061
 20
0.0
 30
0.0
 11
76.387248605907416
 21
0.0
 31
0.0
  0
LINE
  5
646
  8
0
 10
5.9999999999852198
 20
74.400000000000091
 30
0.0
 11
5.999999999985107
 21
71.899999999999963
 31
0.0
  0
LINE
  5
647
  8
0
 10
2.9999999999859019
 20
71.099999999999682
 30
0.0
 11
2.9999999999859019
 21
0.0
 31
0.0
  0
LINE
  5
648
  8
0
 10
9.9999999999786269
 20
78.400000000000546
 30
0.0
 11
10.999999999978851
 21
77.400000000000546
 31
0.0
  0
LINE
  5
649
  8
0
 10
10.999999999978851
 20
77.400000000000546
 30
0.0
 11
10.99999999997976
 21
72.799999999999713
 31
0.0
  0
LINE
  5
64A
  8
0
 10
69.999999999980446
 20
69.900000000000091
 30
0.0
 11
70.000000000014097
 21
-69.900000000000091
 31
0.0
  0
LINE
  5
64B
  8
0
 10
-0.0000000000216005
 20
78.400000000000304
 30
0.0
 11
0.0000000000214868
 21
-78.40000000000029
 31
0.0
  0
VIEWPORT
  5
79
 67
     1
  8
0
 10
5.2499996395561617
 20
3.9999998836066761
 30
0.0
 40
15.015580297613511
 41
8.5939224089826052
 68
     1
 69
     1
1001
ACAD
1000
MVIEW
1002
{
1070
    16
1010
0.0
1020
0.0
1030
0.0
1010
0.0
1020
0.0
1030
1.0
1040
0.0
1040
8.5939224089826052
1040
5.2499996395561617
1040
3.9999998836066761
1040
50.0
1040
0.0
1040
0.0
1070
     0
1070
   100
1070
     1
1070
     1
1070
     0
1070
     0
1070
     0
1070
     0
1040
0.0
1040
0.0
1040
0.0
1040
10.0
1040
10.0
1040
10.0
1040
10.0
1070
     0
1002
{
1002
}
1002
}
  0
VIEWPORT
  5
7B
 67
     1
  8
0
 10
5.24999976158142
 20
3.99999976158142
 30
0.0
 40
8.3999996185302717
 41
6.3999996185302717
 68
     2
 69
     2
1001
ACAD
1000
MVIEW
1002
{
1070
    16
1010
0.0
1020
0.0
1030
0.0
1010
0.0
1020
0.0
1030
1.0
1040
0.0
1040
9.2590797717467002
1040
6.0
1040
4.5
1040
50.0
1040
0.0
1040
0.0
1070
     0
1070
   100
1070
     1
1070
     3
1070
     0
1070
     0
1070
     0
1070
     0
1040
0.0
1040
0.0
1040
0.0
1040
0.5
1040
0.5
1040
0.5
1040
0.5
1070
     0
1002
{
1002
}
1002
}
  0
ENDSEC
  0
EOF
