  0
SECTION
  2
HEADER
  9
$ACADVER
  1
AC1009
  9
$INSBASE
 10
0.0
 20
0.0
 30
0.0
  9
$EXTMIN
 10
-123.80370297846819
 20
-125.00000000000109
 30
0.0
  9
$EXTMAX
 10
177.0
 20
136.11895348016699
 30
0.0
  9
$LIMMIN
 10
0.0
 20
0.0
  9
$LIMMAX
 10
12.0
 20
9.0
  9
$ORTHOMODE
 70
     0
  9
$REGENMODE
 70
     1
  9
$FILLMODE
 70
     1
  9
$QTEXTMODE
 70
     0
  9
$MIRRTEXT
 70
     1
  9
$DRAGMODE
 70
     2
  9
$LTSCALE
 40
1.0
  9
$OSMODE
 70
    37
  9
$ATTMODE
 70
     1
  9
$TEXTSIZE
 40
0.2
  9
$TRACEWID
 40
0.05
  9
$TEXTSTYLE
  7
STANDARD
  9
$CLAYER
  8
0
  9
$CELTYPE
  6
BYLAYER
  9
$CECOLOR
 62
   256
  9
$DIMSCALE
 40
1.0
  9
$DIMASZ
 40
0.18
  9
$DIMEXO
 40
0.0625
  9
$DIMDLI
 40
0.38
  9
$DIMRND
 40
0.0
  9
$DIMDLE
 40
0.0
  9
$DIMEXE
 40
0.18
  9
$DIMTP
 40
0.0
  9
$DIMTM
 40
0.0
  9
$DIMTXT
 40
0.18
  9
$DIMCEN
 40
0.09
  9
$DIMTSZ
 40
0.0
  9
$DIMTOL
 70
     0
  9
$DIMLIM
 70
     0
  9
$DIMTIH
 70
     1
  9
$DIMTOH
 70
     1
  9
$DIMSE1
 70
     0
  9
$DIMSE2
 70
     0
  9
$DIMTAD
 70
     0
  9
$DIMZIN
 70
     0
  9
$DIMBLK
  1

  9
$DIMASO
 70
     1
  9
$DIMSHO
 70
     1
  9
$DIMPOST
  1

  9
$DIMAPOST
  1

  9
$DIMALT
 70
     0
  9
$DIMALTD
 70
     2
  9
$DIMALTF
 40
25.399999999999999
  9
$DIMLFAC
 40
1.0
  9
$DIMTOFL
 70
     0
  9
$DIMTVP
 40
0.0
  9
$DIMTIX
 70
     0
  9
$DIMSOXD
 70
     0
  9
$DIMSAH
 70
     0
  9
$DIMBLK1
  1

  9
$DIMBLK2
  1

  9
$DIMSTYLE
  2
STANDARD
  9
$DIMCLRD
 70
     0
  9
$DIMCLRE
 70
     0
  9
$DIMCLRT
 70
     0
  9
$DIMTFAC
 40
1.0
  9
$DIMGAP
 40
0.09
  9
$LUNITS
 70
     2
  9
$LUPREC
 70
     4
  9
$SKETCHINC
 40
0.1
  9
$FILLETRAD
 40
0.5
  9
$AUNITS
 70
     0
  9
$AUPREC
 70
     0
  9
$MENU
  1
.
  9
$ELEVATION
 40
0.0
  9
$PELEVATION
 40
0.0
  9
$THICKNESS
 40
0.0
  9
$LIMCHECK
 70
     0
  9
$BLIPMODE
 70
     0
  9
$CHAMFERA
 40
0.5
  9
$CHAMFERB
 40
0.5
  9
$SKPOLY
 70
     0
  9
$TDCREATE
 40
2451955.1727028699
  9
$TDUPDATE
 40
2454727.5613002661
  9
$TDINDWG
 40
0.0123110069
  9
$TDUSRTIMER
 40
0.0123108333
  9
$USRTIMER
 70
     1
  9
$ANGBASE
 50
0.0
  9
$ANGDIR
 70
     0
  9
$PDMODE
 70
     0
  9
$PDSIZE
 40
0.0
  9
$PLINEWID
 40
0.0
  9
$COORDS
 70
     1
  9
$SPLFRAME
 70
     0
  9
$SPLINETYPE
 70
     6
  9
$SPLINESEGS
 70
     8
  9
$ATTDIA
 70
     0
  9
$ATTREQ
 70
     1
  9
$HANDLING
 70
 22529
  9
$HANDSEED
  5
77F
  9
$SURFTAB1
 70
     6
  9
$SURFTAB2
 70
     6
  9
$SURFTYPE
 70
     6
  9
$SURFU
 70
     6
  9
$SURFV
 70
     6
  9
$UCSNAME
  2

  9
$UCSORG
 10
0.0
 20
0.0
 30
0.0
  9
$UCSXDIR
 10
1.0
 20
0.0
 30
0.0
  9
$UCSYDIR
 10
0.0
 20
1.0
 30
0.0
  9
$PUCSNAME
  2

  9
$PUCSORG
 10
0.0
 20
0.0
 30
0.0
  9
$PUCSXDIR
 10
1.0
 20
0.0
 30
0.0
  9
$PUCSYDIR
 10
0.0
 20
1.0
 30
0.0
  9
$USERI1
 70
     0
  9
$USERI2
 70
     0
  9
$USERI3
 70
     0
  9
$USERI4
 70
     0
  9
$USERI5
 70
     0
  9
$USERR1
 40
0.0
  9
$USERR2
 40
0.0
  9
$USERR3
 40
0.0
  9
$USERR4
 40
0.0
  9
$USERR5
 40
0.0
  9
$WORLDVIEW
 70
     1
  9
$SHADEDGE
 70
     3
  9
$SHADEDIF
 70
    70
  9
$TILEMODE
 70
     1
  9
$MAXACTVP
 70
    48
  9
$PLIMCHECK
 70
     0
  9
$PEXTMIN
 10
1.049636599258096
 20
0.7996597240971113
 30
-0.0015258207003583
  9
$PEXTMAX
 10
9.4503627310769716
 20
7.2003400826974584
 30
0.0000000349246037
  9
$PLIMMIN
 10
-0.2500002402958907
 20
-0.2499999962453767
  9
$PLIMMAX
 10
10.74999951940821
 20
8.2499997634587316
  9
$UNITMODE
 70
     0
  9
$VISRETAIN
 70
     1
  9
$PLINEGEN
 70
     0
  9
$PSLTSCALE
 70
     1
  0
ENDSEC
  0
SECTION
  2
TABLES
  0
TABLE
  2
VPORT
 70
     2
  0
VPORT
  2
*ACTIVE
 70
     0
 10
0.0
 20
0.0
 11
1.0
 21
1.0
 12
26.598149911534989
 22
5.5594779560500021
 13
0.0
 23
0.0
 14
0.5
 24
0.5
 15
0.5
 25
0.5
 16
0.0
 26
0.0
 36
1.0
 17
0.0
 27
0.0
 37
0.0
 40
263.10457617800728
 41
1.5031210986267161
 42
50.0
 43
0.0
 44
0.0
 50
0.0
 51
0.0
 71
     0
 72
   100
 73
     1
 74
     3
 75
     0
 76
     0
 77
     0
 78
     0
  0
ENDTAB
  0
TABLE
  2
LTYPE
 70
     2
  0
LTYPE
  2
CONTINUOUS
 70
     0
  3
Solid line
 72
    65
 73
     0
 40
0.0
  0
LTYPE
  2
CENTER
 70
     0
  3
__ . __
 72
    65
 73
     4
 40
7.0
 49
4.0
 49
-1.0
 49
1.0
 49
-1.0
  0
ENDTAB
  0
TABLE
  2
LAYER
 70
     1
  0
LAYER
  2
0
 70
     0
 62
     7
  6
CONTINUOUS
  0
ENDTAB
  0
TABLE
  2
STYLE
 70
     1
  0
STYLE
  2
STANDARD
 70
     0
 40
0.0
 41
1.0
 50
0.0
 71
     0
 42
0.2
  3
txt
  4

  0
ENDTAB
  0
TABLE
  2
VIEW
 70
     0
  0
ENDTAB
  0
TABLE
  2
UCS
 70
     0
  0
ENDTAB
  0
TABLE
  2
APPID
 70
     8
  0
APPID
  2
ACAD
 70
     0
  0
APPID
  2
GENIUS_GENODEF_13
 70
     0
  0
APPID
  2
ACAD_DSTYLE_DIMARC_LENGTH_
 70
     0
  0
APPID
  2
ACAD_DSTYLE_DIMJOGGED_JOGA
 70
     0
  0
APPID
  2
GENIUS_GENOBJ-N-FIL_13
 70
     0
  0
APPID
  2
ACAD_DSTYLE_DIM_LINETYPE
 70
     0
  0
APPID
  2
ACAD_DSTYLE_DIM_EXT1_LINETYPE
 70
     0
  0
APPID
  2
ACAD_DSTYLE_DIM_EXT2_LINETYPE
 70
     0
  0
ENDTAB
  0
TABLE
  2
DIMSTYLE
 70
     1
  0
DIMSTYLE
  2
STANDARD
 70
     0
  3

  4

  5

  6

  7

 40
1.0
 41
0.18
 42
0.0625
 43
0.38
 44
0.18
 45
0.0
 46
0.0
 47
0.0
 48
0.0
140
0.18
141
0.09
142
0.0
143
25.399999999999999
144
1.0
145
0.0
146
1.0
147
0.09
 71
     0
 72
     0
 73
     1
 74
     1
 75
     0
 76
     0
 77
     0
 78
     0
170
     0
171
     2
172
     0
173
     0
174
     0
175
     0
176
     0
177
     0
178
     0
  0
ENDTAB
  0
ENDSEC
  0
SECTION
  2
BLOCKS
  0
BLOCK
  8
0
  2
$MODEL_SPACE
 70
     0
 10
0.0
 20
0.0
 30
0.0
  3
$MODEL_SPACE
  1

  0
ENDBLK
  5
21
  8
0
  0
BLOCK
 67
     1
  8
0
  2
$PAPER_SPACE
 70
     0
 10
0.0
 20
0.0
 30
0.0
  3
$PAPER_SPACE
  1

  0
ENDBLK
  5
60
 67
     1
  8
0
  0
BLOCK
  8
0
  2
CRSCEN
 70
     0
 10
0.0
 20
0.0
 30
0.0
  3
CRSCEN
  1

  0
LINE
  5
607
  8
0
  6
CENTER
 62
     0
 10
0.0
 20
-0.5
 30
0.0
 11
0.0
 21
0.5
 31
0.0
  0
LINE
  5
608
  8
0
  6
CENTER
 62
     0
 10
-0.5
 20
0.0
 30
0.0
 11
0.5
 21
0.0
 31
0.0
  0
ENDBLK
  5
60A
  8
0
  0
ENDSEC
  0
SECTION
  2
ENTITIES
  0
TEXT
  5
10C
  8
0
 10
0.4557784935322129
 20
131.11895348016699
 30
0.0
 40
5.0
  1
13MVHM-LW 6S
  0
LINE
  5
67D
  8
0
 10
3.9999999999999849
 20
-118.4999999999999
 30
0.0
 11
3.9999999999999849
 21
-87.158261226346198
 31
0.0
  0
LINE
  5
67E
  8
0
 10
19.0
 20
-118.4999999999999
 30
0.0
 11
19.0
 21
-96.39534480461181
 31
0.0
  0
LINE
  5
67F
  8
0
 10
19.0
 20
-118.4999999999999
 30
0.0
 11
3.9999999999999849
 21
-118.4999999999999
 31
0.0
  0
LINE
  5
680
  8
0
 10
-19.000000000000011
 20
-118.4999999999999
 30
0.0
 11
-19.000000000000011
 21
-96.395344804611796
 31
0.0
  0
LINE
  5
681
  8
0
 10
-19.000000000000011
 20
-118.4999999999999
 30
0.0
 11
-4.0000000000000142
 21
-118.4999999999999
 31
0.0
  0
LINE
  5
682
  8
0
 10
-4.0000000000000142
 20
-118.4999999999999
 30
0.0
 11
-4.0000000000000142
 21
-87.158261226346198
 31
0.0
  0
LINE
  5
683
  8
0
 10
-4.0000000000000142
 20
-113.9999999999999
 30
0.0
 11
3.9999999999999849
 21
-113.9999999999999
 31
0.0
  0
LINE
  5
684
  8
0
 10
-4.0000000000000142
 20
-103.9999999999999
 30
0.0
 11
3.9999999999999849
 21
-103.9999999999999
 31
0.0
  0
LINE
  5
685
  8
0
 10
19.0
 20
118.5
 30
0.0
 11
19.0
 21
96.395344804611796
 31
0.0
  0
LINE
  5
686
  8
0
 10
19.0
 20
118.5
 30
0.0
 11
4.0000000000000142
 21
118.5
 31
0.0
  0
LINE
  5
687
  8
0
 10
-18.999999999999979
 20
118.5
 30
0.0
 11
-18.999999999999979
 21
96.395344804611796
 31
0.0
  0
LINE
  5
688
  8
0
 10
-18.999999999999979
 20
118.5
 30
0.0
 11
-3.9999999999999849
 21
118.5
 31
0.0
  0
LINE
  5
689
  8
0
 10
4.0000000000000142
 20
118.5
 30
0.0
 11
4.0000000000000142
 21
87.158261226346156
 31
0.0
  0
LINE
  5
68A
  8
0
 10
-3.9999999999999849
 20
114.0
 30
0.0
 11
4.0000000000000142
 21
114.0
 31
0.0
  0
LINE
  5
68B
  8
0
 10
-3.9999999999999849
 20
118.5
 30
0.0
 11
-3.9999999999999281
 21
87.158261226346156
 31
0.0
  0
LINE
  5
68C
  8
0
 10
-3.9999999999999849
 20
104.0
 30
0.0
 11
4.0000000000000142
 21
104.0
 31
0.0
  0
LINE
  5
68D
  8
0
  6
CENTER
 10
-35.838687999999969
 20
109.0
 30
0.0
 11
37.048434999999976
 21
109.0
 31
0.0
  0
LINE
  5
68E
  8
0
  6
CENTER
 10
-35.838687999999998
 20
-108.9999999999999
 30
0.0
 11
37.048434999999976
 21
-108.9999999999999
 31
0.0
  0
LINE
  5
68F
  8
0
 10
26.0
 20
-104.7499999999999
 30
0.0
 11
26.0
 21
-113.2499999999999
 31
0.0
  0
LINE
  5
690
  8
0
 10
25.096474000000001
 20
-117.4999999999999
 30
0.0
 11
19.0
 21
-117.4999999999999
 31
0.0
  0
LINE
  5
691
  8
0
 10
25.096474000000001
 20
-100.4999999999999
 30
0.0
 11
19.0
 21
-100.4999999999999
 31
0.0
  0
LINE
  5
692
  8
0
 10
-31.000000000000011
 20
-113.9999999999999
 30
0.0
 11
-29.000000000000011
 21
-113.9999999999999
 31
0.0
  0
LINE
  5
693
  8
0
 10
-31.000000000000011
 20
-103.9999999999999
 30
0.0
 11
-29.000000000000011
 21
-103.9999999999999
 31
0.0
  0
LINE
  5
694
  8
0
 10
-29.000000000000011
 20
-103.4999999999999
 30
0.0
 11
-29.000000000000011
 21
-114.4999999999999
 31
0.0
  0
LINE
  5
695
  8
0
 10
-28.000000000000011
 20
-102.4999999999999
 30
0.0
 11
-27.000000000000011
 21
-102.4999999999999
 31
0.0
  0
LINE
  5
696
  8
0
 10
-28.000000000000011
 20
-115.4999999999999
 30
0.0
 11
-27.000000000000011
 21
-115.4999999999999
 31
0.0
  0
LINE
  5
697
  8
0
 10
-31.000000000000011
 20
-103.9999999999999
 30
0.0
 11
-31.000000000000011
 21
-113.9999999999999
 31
0.0
  0
LINE
  5
698
  8
0
 10
-27.000000000000011
 20
-117.4999999999999
 30
0.0
 11
-27.000000000000011
 21
-100.4999999999999
 31
0.0
  0
LINE
  5
699
  8
0
 10
-27.000000000000011
 20
-100.4999999999999
 30
0.0
 11
-19.000000000000011
 21
-100.4999999999999
 31
0.0
  0
LINE
  5
69A
  8
0
 10
-27.000000000000011
 20
-117.4999999999999
 30
0.0
 11
-19.000000000000011
 21
-117.4999999999999
 31
0.0
  0
LINE
  5
69B
  8
0
 10
26.0
 20
104.75
 30
0.0
 11
26.0
 21
113.25
 31
0.0
  0
LINE
  5
69C
  8
0
 10
25.096474000000001
 20
117.5
 30
0.0
 11
19.0
 21
117.5
 31
0.0
  0
LINE
  5
69D
  8
0
 10
25.096474000000001
 20
100.5
 30
0.0
 11
19.0
 21
100.5
 31
0.0
  0
LINE
  5
69E
  8
0
 10
-30.999999999999979
 20
114.0
 30
0.0
 11
-28.999999999999979
 21
114.0
 31
0.0
  0
LINE
  5
69F
  8
0
 10
-30.999999999999979
 20
104.0
 30
0.0
 11
-28.999999999999979
 21
104.0
 31
0.0
  0
LINE
  5
6A0
  8
0
 10
-28.999999999999979
 20
103.4999999999999
 30
0.0
 11
-28.999999999999979
 21
114.5
 31
0.0
  0
LINE
  5
6A1
  8
0
 10
-27.999999999999979
 20
102.4999999999999
 30
0.0
 11
-26.999999999999979
 21
102.4999999999999
 31
0.0
  0
LINE
  5
6A2
  8
0
 10
-27.999999999999979
 20
115.5
 30
0.0
 11
-26.999999999999979
 21
115.5
 31
0.0
  0
LINE
  5
6A3
  8
0
 10
-30.999999999999979
 20
104.0
 30
0.0
 11
-30.999999999999979
 21
114.0
 31
0.0
  0
LINE
  5
6A4
  8
0
 10
-26.999999999999979
 20
117.5
 30
0.0
 11
-26.999999999999979
 21
100.5
 31
0.0
  0
LINE
  5
6A5
  8
0
 10
-26.999999999999979
 20
100.5
 30
0.0
 11
-18.999999999999979
 21
100.5
 31
0.0
  0
LINE
  5
6A6
  8
0
 10
-26.999999999999979
 20
117.5
 30
0.0
 11
-18.999999999999979
 21
117.5
 31
0.0
  0
ARC
  5
6A7
  8
0
 10
15.552683999999999
 20
-104.7499999999999
 30
0.0
 40
10.447316000000001
 50
335.99583999999902
 51
24.004160000000969
  0
ARC
  5
6A8
  8
0
 10
15.552683999999999
 20
-113.2499999999999
 30
0.0
 40
10.447316000000001
 50
335.99583999999902
 51
24.004160000000969
  0
ARC
  5
6A9
  8
0
 10
-28.000000000000011
 20
-103.4999999999999
 30
0.0
 40
1.0
 50
90.0
 51
180.00000500895609
  0
ARC
  5
6AA
  8
0
 10
-28.000000000000011
 20
-114.4999999999999
 30
0.0
 40
1.0
 50
179.99998999999971
 51
270.0000030000009
  0
ARC
  5
6AB
  8
0
 10
-16.552683000000009
 20
-113.2499999999999
 30
0.0
 40
10.447316000000001
 50
155.99583000000081
 51
204.00416200000089
  0
ARC
  5
6AC
  8
0
 10
-16.552683000000009
 20
-104.7499999999999
 30
0.0
 40
10.447316000000001
 50
155.99583000000081
 51
204.00416200000089
  0
ARC
  5
6AD
  8
0
 10
-29.447317000000009
 20
-113.2499999999999
 30
0.0
 40
10.447316000000001
 50
335.99583999999902
 51
24.004160000000969
  0
ARC
  5
6AE
  8
0
 10
-29.447317000000009
 20
-104.7499999999999
 30
0.0
 40
10.447316000000001
 50
335.99583999999902
 51
24.004160000000969
  0
ARC
  5
6AF
  8
0
 10
15.552683999999999
 20
104.75
 30
0.0
 40
10.447316000000001
 50
335.99583999999902
 51
24.004160000000969
  0
ARC
  5
6B0
  8
0
 10
15.552683999999999
 20
113.25
 30
0.0
 40
10.447316000000001
 50
335.99583999999902
 51
24.004160000000969
  0
ARC
  5
6B1
  8
0
 10
-27.999999999999979
 20
103.4999999999999
 30
0.0
 40
1.0
 50
179.99998999999971
 51
269.99999600000092
  0
ARC
  5
6B2
  8
0
 10
-27.999999999999979
 20
114.5
 30
0.0
 40
1.0
 50
90.0
 51
180.0000086514213
  0
ARC
  5
6B3
  8
0
 10
-16.55268299999998
 20
113.25
 30
0.0
 40
10.447316000000001
 50
155.99583999999899
 51
204.0041649999998
  0
ARC
  5
6B4
  8
0
 10
-16.55268299999998
 20
104.75
 30
0.0
 40
10.447316000000001
 50
155.99583999999899
 51
204.0041649999998
  0
ARC
  5
6B5
  8
0
 10
-29.44731699999998
 20
113.25
 30
0.0
 40
10.447316000000001
 50
335.99583999999902
 51
24.004160000000969
  0
ARC
  5
6B6
  8
0
 10
-29.44731699999998
 20
104.75
 30
0.0
 40
10.447316000000001
 50
335.99583999999902
 51
24.004160000000969
  0
ARC
  5
6B7
  8
0
 10
0.0
 20
0.0
 30
0.0
 40
98.250000000000014
 50
272.33329747940689
 51
87.666702520591386
  0
ARC
  5
6B8
  8
0
 10
0.0
 20
0.0
 30
0.0
 40
98.250000000000014
 50
92.333297479406994
 51
267.66670252059288
  0
ARC
  5
6B9
  8
0
 10
0.0
 20
0.0
 30
0.0
 40
87.249999999999986
 50
272.62766162182669
 51
87.372338378173154
  0
ARC
  5
6BA
  8
0
 10
0.0
 20
0.0
 30
0.0
 40
89.25
 50
272.62766162182669
 51
87.431261488690254
  0
ARC
  5
6BB
  8
0
 10
0.0
 20
0.0
 30
0.0
 40
87.249999999999986
 50
92.627661621826846
 51
267.3723383781732
  0
ARC
  5
6BC
  8
0
 10
0.0
 20
0.0
 30
0.0
 40
89.25
 50
92.627661621826846
 51
267.3723383781732
  0
LINE
  5
6BD
  8
0
 10
-26.096472163841369
 20
109.0
 30
0.0
 11
-19.903527472639919
 21
108.9999991836832
 31
0.0
  0
LINE
  5
6BE
  8
0
 10
19.0
 20
109.0
 30
0.0
 11
25.096473527360072
 21
108.9999991836832
 31
0.0
  0
LINE
  5
6BF
  8
0
 10
19.0
 20
-108.9999999999999
 30
0.0
 11
25.09647352736005
 21
-109.0000008163167
 31
0.0
  0
LINE
  5
6C0
  8
0
 10
-26.096472379007079
 20
-108.9999995168244
 30
0.0
 11
-19.903527836158641
 21
-108.9999995168244
 31
0.0
  0
LINE
  5
6C1
  8
0
 10
-19.000000000000011
 20
-100.4999999999999
 30
0.0
 11
-19.000000000000011
 21
-117.4999999999999
 31
0.0
  0
LINE
  5
6C2
  8
0
 10
19.0
 20
-100.4999999999999
 30
0.0
 11
19.0
 21
-117.4999999999999
 31
0.0
  0
LINE
  5
6C3
  8
0
 10
19.0
 20
117.5
 30
0.0
 11
19.0
 21
100.5
 31
0.0
  0
LINE
  5
6C4
  8
0
 10
-18.999999999999979
 20
117.5
 30
0.0
 11
-18.999999999999979
 21
100.5
 31
0.0
  0
INSERT
  5
6C5
  8
0
  2
CRSCEN
 10
0.0
 20
0.0
 30
0.0
 41
0.0393700787401628
 42
0.0393700787401628
 43
0.0393700787401575
  0
INSERT
  5
6C6
  8
0
  2
CRSCEN
 10
0.0
 20
0.0
 30
0.0
 41
0.0393700787401628
 42
0.0393700787401628
 43
0.0393700787401575
  0
LINE
  5
6C7
  8
0
  6
CENTER
 10
-0.3334675027005858
 20
-123.47023547576759
 30
0.0
 11
-0.3334675027005858
 21
123.47023547576769
 31
0.0
  0
LINE
  5
6C8
  8
0
  6
CENTER
 10
-123.80370297846819
 20
0.0
 30
0.0
 11
123.13676797306699
 21
0.0
 31
0.0
  0
LINE
  5
6C9
  8
0
 10
156.0925197
 20
-117.50000000000109
 30
0.0
 11
151.18504129999991
 21
-109.00000000000109
 31
0.0
  0
LINE
  5
6CA
  8
0
 10
151.18504519999999
 20
-109.00000000000109
 30
0.0
 11
156.09252359999991
 21
-100.50000000000099
 31
0.0
  0
LINE
  5
6CB
  8
0
 10
165.90747829999989
 20
-100.50000000000099
 30
0.0
 11
156.09252169999999
 21
-100.50000000000099
 31
0.0
  0
LINE
  5
6CC
  8
0
 10
170.81495150000001
 20
-109.00000000000109
 30
0.0
 11
165.9074731
 21
-100.50000000000099
 31
0.0
  0
LINE
  5
6CD
  8
0
 10
165.90747699999989
 20
-117.50000000000109
 30
0.0
 11
170.8149554
 21
-109.00000000000109
 31
0.0
  0
LINE
  5
6CE
  8
0
 10
156.09252169999999
 20
-117.50000000000109
 30
0.0
 11
165.90747829999989
 21
-117.50000000000109
 31
0.0
  0
LINE
  5
6CF
  8
0
 10
165.90747640000001
 20
100.49999999999891
 30
0.0
 11
170.81495480000001
 21
108.99999999999881
 31
0.0
  0
LINE
  5
6D0
  8
0
 10
170.81495870000001
 20
108.99999999999881
 30
0.0
 11
165.90748029999989
 21
117.49999999999881
 31
0.0
  0
LINE
  5
6D1
  8
0
 10
156.09252169999999
 20
117.49999999999881
 30
0.0
 11
165.90747829999989
 21
117.49999999999881
 31
0.0
  0
LINE
  5
6D2
  8
0
 10
151.1850446
 20
108.99999999999881
 30
0.0
 11
156.092523
 21
117.49999999999881
 31
0.0
  0
LINE
  5
6D3
  8
0
 10
156.09252689999991
 20
100.49999999999891
 30
0.0
 11
151.18504849999999
 21
108.99999999999881
 31
0.0
  0
LINE
  5
6D4
  8
0
 10
165.90747829999989
 20
100.49999999999891
 30
0.0
 11
156.09252169999999
 21
100.49999999999891
 31
0.0
  0
LINE
  5
6D5
  8
0
  6
CENTER
 10
145.0
 20
-109.00000000000109
 30
0.0
 11
177.0
 21
-109.00000000000109
 31
0.0
  0
LINE
  5
6D6
  8
0
  6
CENTER
 10
161.0
 20
-125.00000000000109
 30
0.0
 11
161.0
 21
-93.000000000001094
 31
0.0
  0
LINE
  5
6D7
  8
0
  6
CENTER
 10
145.0
 20
108.99999999999881
 30
0.0
 11
177.0
 21
108.99999999999881
 31
0.0
  0
LINE
  5
6D8
  8
0
  6
CENTER
 10
145.0
 20
-0.0000000000011084
 30
0.0
 11
177.0
 21
-0.0000000000011084
 31
0.0
  0
LINE
  5
6D9
  8
0
  6
CENTER
 10
161.0
 20
92.999999999998877
 30
0.0
 11
161.0
 21
124.99999999999881
 31
0.0
  0
LINE
  5
6DA
  8
0
 10
173.74999999999989
 20
-89.156158331822596
 30
0.0
 11
173.75
 21
89.156158331820166
 31
0.0
  0
LINE
  5
6DB
  8
0
 10
148.24999999999989
 20
-89.156158331822326
 30
0.0
 11
148.24999999999989
 21
89.156158331820166
 31
0.0
  0
ARC
  5
6DC
  8
0
 10
161.0
 20
108.99999999999881
 30
0.0
 40
11.0
 50
329.46231957576998
 51
210.5376804242299
  0
ARC
  5
6DD
  8
0
 10
161.0
 20
-109.00000000000109
 30
0.0
 40
11.0
 50
149.46231957577001
 51
30.537680424229951
  0
LINE
  5
6DE
  8
0
 10
151.5257528789831
 20
96.395344804610687
 30
0.0
 11
170.4742471210169
 21
96.395344804610716
 31
0.0
  0
LINE
  5
6DF
  8
0
 10
148.24999999999989
 20
89.160319088705634
 30
0.0
 11
148.24999999999989
 21
-89.160319088707837
 31
0.0
  0
LINE
  5
6E0
  8
0
 10
148.24999999999989
 20
89.160319088705634
 30
0.0
 11
151.5257528789831
 21
98.168541295059413
 31
0.0
  0
LINE
  5
6E1
  8
0
 10
170.4742471210169
 20
-103.4108460846126
 30
0.0
 11
170.4742471210169
 21
103.4108460846103
 31
0.0
  0
LINE
  5
6E2
  8
0
 10
173.75
 20
89.160319088705634
 30
0.0
 11
170.4742471210169
 21
98.168541295059413
 31
0.0
  0
LINE
  5
6E3
  8
0
 10
151.5257528789831
 20
-96.395344804612904
 30
0.0
 11
170.4742471210169
 21
-96.395344804612932
 31
0.0
  0
LINE
  5
6E4
  8
0
 10
151.5257528789831
 20
103.4108460846103
 30
0.0
 11
151.5257528789831
 21
-103.4108460846125
 31
0.0
  0
LINE
  5
6E5
  8
0
 10
148.24999999999989
 20
-89.160319088707837
 30
0.0
 11
151.5257528789831
 21
-98.168541295061615
 31
0.0
  0
LINE
  5
6E6
  8
0
 10
173.75
 20
-89.160319088707837
 30
0.0
 11
170.4742471210169
 21
-98.168541295061615
 31
0.0
  0
VIEWPORT
  5
79
 67
     1
  8
0
 10
5.2499996395561617
 20
3.9999998836066761
 30
0.0
 40
15.015580297613511
 41
8.5939224089826052
 68
     1
 69
     1
1001
ACAD
1000
MVIEW
1002
{
1070
    16
1010
0.0
1020
0.0
1030
0.0
1010
0.0
1020
0.0
1030
1.0
1040
0.0
1040
8.5939224089826052
1040
5.2499996395561617
1040
3.9999998836066761
1040
50.0
1040
0.0
1040
0.0
1070
     0
1070
   100
1070
     1
1070
     1
1070
     0
1070
     0
1070
     0
1070
     0
1040
0.0
1040
0.0
1040
0.0
1040
10.0
1040
10.0
1040
10.0
1040
10.0
1070
     0
1002
{
1002
}
1002
}
  0
VIEWPORT
  5
7B
 67
     1
  8
0
 10
5.24999976158142
 20
3.99999976158142
 30
0.0
 40
8.3999996185302717
 41
6.3999996185302717
 68
     2
 69
     2
1001
ACAD
1000
MVIEW
1002
{
1070
    16
1010
0.0
1020
0.0
1030
0.0
1010
0.0
1020
0.0
1030
1.0
1040
0.0
1040
9.2590797717467002
1040
6.0
1040
4.5
1040
50.0
1040
0.0
1040
0.0
1070
     0
1070
   100
1070
     1
1070
     3
1070
     0
1070
     0
1070
     0
1070
     0
1040
0.0
1040
0.0
1040
0.0
1040
0.5
1040
0.5
1040
0.5
1040
0.5
1070
     0
1002
{
1002
}
1002
}
  0
ENDSEC
  0
EOF
