  0
SECTION
  2
HEADER
  9
$ACADVER
  1
AC1009
  9
$INSBASE
 10
0.0
 20
0.0
 30
0.0
  9
$EXTMIN
 10
-84.879302653422684
 20
-85.00000883572838
 30
0.0
  9
$EXTMAX
 10
136.75000047683699
 20
97.508335618452051
 30
0.0
  9
$LIMMIN
 10
0.0
 20
0.0
  9
$LIMMAX
 10
12.0
 20
9.0
  9
$ORTHOMODE
 70
     0
  9
$REGENMODE
 70
     1
  9
$FILLMODE
 70
     1
  9
$QTEXTMODE
 70
     0
  9
$MIRRTEXT
 70
     1
  9
$DRAGMODE
 70
     2
  9
$LTSCALE
 40
1.0
  9
$OSMODE
 70
    37
  9
$ATTMODE
 70
     1
  9
$TEXTSIZE
 40
0.2
  9
$TRACEWID
 40
0.05
  9
$TEXTSTYLE
  7
STANDARD
  9
$CLAYER
  8
0
  9
$CELTYPE
  6
BYLAYER
  9
$CECOLOR
 62
   256
  9
$DIMSCALE
 40
1.0
  9
$DIMASZ
 40
0.18
  9
$DIMEXO
 40
0.0625
  9
$DIMDLI
 40
0.38
  9
$DIMRND
 40
0.0
  9
$DIMDLE
 40
0.0
  9
$DIMEXE
 40
0.18
  9
$DIMTP
 40
0.0
  9
$DIMTM
 40
0.0
  9
$DIMTXT
 40
0.18
  9
$DIMCEN
 40
0.09
  9
$DIMTSZ
 40
0.0
  9
$DIMTOL
 70
     0
  9
$DIMLIM
 70
     0
  9
$DIMTIH
 70
     1
  9
$DIMTOH
 70
     1
  9
$DIMSE1
 70
     0
  9
$DIMSE2
 70
     0
  9
$DIMTAD
 70
     0
  9
$DIMZIN
 70
     0
  9
$DIMBLK
  1

  9
$DIMASO
 70
     1
  9
$DIMSHO
 70
     1
  9
$DIMPOST
  1

  9
$DIMAPOST
  1

  9
$DIMALT
 70
     0
  9
$DIMALTD
 70
     2
  9
$DIMALTF
 40
25.399999999999999
  9
$DIMLFAC
 40
1.0
  9
$DIMTOFL
 70
     0
  9
$DIMTVP
 40
0.0
  9
$DIMTIX
 70
     0
  9
$DIMSOXD
 70
     0
  9
$DIMSAH
 70
     0
  9
$DIMBLK1
  1

  9
$DIMBLK2
  1

  9
$DIMSTYLE
  2
STANDARD
  9
$DIMCLRD
 70
     0
  9
$DIMCLRE
 70
     0
  9
$DIMCLRT
 70
     0
  9
$DIMTFAC
 40
1.0
  9
$DIMGAP
 40
0.09
  9
$LUNITS
 70
     2
  9
$LUPREC
 70
     4
  9
$SKETCHINC
 40
0.1
  9
$FILLETRAD
 40
0.5
  9
$AUNITS
 70
     0
  9
$AUPREC
 70
     0
  9
$MENU
  1
.
  9
$ELEVATION
 40
0.0
  9
$PELEVATION
 40
0.0
  9
$THICKNESS
 40
0.0
  9
$LIMCHECK
 70
     0
  9
$BLIPMODE
 70
     0
  9
$CHAMFERA
 40
0.5
  9
$CHAMFERB
 40
0.5
  9
$SKPOLY
 70
     0
  9
$TDCREATE
 40
2451955.1727028699
  9
$TDUPDATE
 40
2454727.5613671872
  9
$TDINDWG
 40
0.0126954861
  9
$TDUSRTIMER
 40
0.0126953125
  9
$USRTIMER
 70
     1
  9
$ANGBASE
 50
0.0
  9
$ANGDIR
 70
     0
  9
$PDMODE
 70
     0
  9
$PDSIZE
 40
0.0
  9
$PLINEWID
 40
0.0
  9
$COORDS
 70
     1
  9
$SPLFRAME
 70
     0
  9
$SPLINETYPE
 70
     6
  9
$SPLINESEGS
 70
     8
  9
$ATTDIA
 70
     0
  9
$ATTREQ
 70
     1
  9
$HANDLING
 70
 22529
  9
$HANDSEED
  5
8D9
  9
$SURFTAB1
 70
     6
  9
$SURFTAB2
 70
     6
  9
$SURFTYPE
 70
     6
  9
$SURFU
 70
     6
  9
$SURFV
 70
     6
  9
$UCSNAME
  2

  9
$UCSORG
 10
0.0
 20
0.0
 30
0.0
  9
$UCSXDIR
 10
1.0
 20
0.0
 30
0.0
  9
$UCSYDIR
 10
0.0
 20
1.0
 30
0.0
  9
$PUCSNAME
  2

  9
$PUCSORG
 10
0.0
 20
0.0
 30
0.0
  9
$PUCSXDIR
 10
1.0
 20
0.0
 30
0.0
  9
$PUCSYDIR
 10
0.0
 20
1.0
 30
0.0
  9
$USERI1
 70
     0
  9
$USERI2
 70
     0
  9
$USERI3
 70
     0
  9
$USERI4
 70
     0
  9
$USERI5
 70
     0
  9
$USERR1
 40
0.0
  9
$USERR2
 40
0.0
  9
$USERR3
 40
0.0
  9
$USERR4
 40
0.0
  9
$USERR5
 40
0.0
  9
$WORLDVIEW
 70
     1
  9
$SHADEDGE
 70
     3
  9
$SHADEDIF
 70
    70
  9
$TILEMODE
 70
     1
  9
$MAXACTVP
 70
    48
  9
$PLIMCHECK
 70
     0
  9
$PEXTMIN
 10
1.049636599258096
 20
0.7996597240971113
 30
-0.0015258207003583
  9
$PEXTMAX
 10
9.4503627310769716
 20
7.2003400826974584
 30
0.0000000349246037
  9
$PLIMMIN
 10
-0.2500002402958907
 20
-0.2499999962453767
  9
$PLIMMAX
 10
10.74999951940821
 20
8.2499997634587316
  9
$UNITMODE
 70
     0
  9
$VISRETAIN
 70
     1
  9
$PLINEGEN
 70
     0
  9
$PSLTSCALE
 70
     1
  0
ENDSEC
  0
SECTION
  2
TABLES
  0
TABLE
  2
VPORT
 70
     2
  0
VPORT
  2
*ACTIVE
 70
     0
 10
0.0
 20
0.0
 11
1.0
 21
1.0
 12
25.935349427728148
 22
6.2541638162971651
 13
0.0
 23
0.0
 14
0.5
 24
0.5
 15
0.5
 25
0.5
 16
0.0
 26
0.0
 36
1.0
 17
0.0
 27
0.0
 37
0.0
 40
183.89559853974541
 41
1.5031210986267161
 42
50.0
 43
0.0
 44
0.0
 50
0.0
 51
0.0
 71
     0
 72
   100
 73
     1
 74
     3
 75
     0
 76
     0
 77
     0
 78
     0
  0
ENDTAB
  0
TABLE
  2
LTYPE
 70
     2
  0
LTYPE
  2
CONTINUOUS
 70
     0
  3
Solid line
 72
    65
 73
     0
 40
0.0
  0
LTYPE
  2
CENTER
 70
     0
  3
__ . __
 72
    65
 73
     4
 40
7.0
 49
4.0
 49
-1.0
 49
1.0
 49
-1.0
  0
ENDTAB
  0
TABLE
  2
LAYER
 70
     1
  0
LAYER
  2
0
 70
     0
 62
     7
  6
CONTINUOUS
  0
ENDTAB
  0
TABLE
  2
STYLE
 70
     1
  0
STYLE
  2
STANDARD
 70
     0
 40
0.0
 41
1.0
 50
0.0
 71
     0
 42
0.2
  3
txt
  4

  0
ENDTAB
  0
TABLE
  2
VIEW
 70
     0
  0
ENDTAB
  0
TABLE
  2
UCS
 70
     0
  0
ENDTAB
  0
TABLE
  2
APPID
 70
    19
  0
APPID
  2
ACAD
 70
     0
  0
APPID
  2
GENIUS_GENODEF_13
 70
     0
  0
APPID
  2
ACAD_DSTYLE_DIMARC_LENGTH_
 70
     0
  0
APPID
  2
ACAD_DSTYLE_DIMJOGGED_JOGA
 70
     0
  0
APPID
  2
GENIUS_GENOBJ-N-FIL_13
 70
     0
  0
APPID
  2
ACAD_MLEADERVER
 70
     0
  0
APPID
  2
MCAD_NO_VIS
 70
     0
  0
APPID
  2
ACAD_TEMP_GRAPHIC
 70
     0
  0
APPID
  2
AD_DRAW
 70
     0
  0
APPID
  2
ACATTRIBSERVICES
 70
     0
  0
APPID
  2
DESIGNERASSEMBLIES
 70
     0
  0
APPID
  2
ACADM_DIM_EDIT
 70
     0
  0
APPID
  2
AMDT_DM_ADJ
 70
     0
  0
APPID
  2
GENIUS_GENSCREG_15
 70
     0
  0
APPID
  2
GENIUS_GENOBJ-N-SDF_13
 70
     0
  0
APPID
  2
ACAD_EXEMPT_FROM_CAD_STANDARDS
 70
     0
  0
APPID
  2
ACAD_DSTYLE_DIM_LINETYPE
 70
     0
  0
APPID
  2
ACAD_DSTYLE_DIM_EXT1_LINETYPE
 70
     0
  0
APPID
  2
ACAD_DSTYLE_DIM_EXT2_LINETYPE
 70
     0
  0
ENDTAB
  0
TABLE
  2
DIMSTYLE
 70
     1
  0
DIMSTYLE
  2
STANDARD
 70
     0
  3

  4

  5

  6

  7

 40
1.0
 41
0.18
 42
0.0625
 43
0.38
 44
0.18
 45
0.0
 46
0.0
 47
0.0
 48
0.0
140
0.18
141
0.09
142
0.0
143
25.399999999999999
144
1.0
145
0.0
146
1.0
147
0.09
 71
     0
 72
     0
 73
     1
 74
     1
 75
     0
 76
     0
 77
     0
 78
     0
170
     0
171
     2
172
     0
173
     0
174
     0
175
     0
176
     0
177
     0
178
     0
  0
ENDTAB
  0
ENDSEC
  0
SECTION
  2
BLOCKS
  0
BLOCK
  8
0
  2
$MODEL_SPACE
 70
     0
 10
0.0
 20
0.0
 30
0.0
  3
$MODEL_SPACE
  1

  0
ENDBLK
  5
21
  8
0
  0
BLOCK
 67
     1
  8
0
  2
$PAPER_SPACE
 70
     0
 10
0.0
 20
0.0
 30
0.0
  3
$PAPER_SPACE
  1

  0
ENDBLK
  5
60
 67
     1
  8
0
  0
ENDSEC
  0
SECTION
  2
ENTITIES
  0
TEXT
  5
10C
  8
0
 10
0.7892459962327987
 20
92.508335618452008
 30
0.0
 40
5.0
  1
13MVHM-LW 4S
  0
LINE
  5
7D5
  8
0
 10
2.9999999999999849
 20
-82.0
 30
0.0
 11
3.0
 21
-56.420299999999997
 31
0.0
  0
LINE
  5
7D6
  8
0
 10
14.99999999999998
 20
-82.0
 30
0.0
 11
14.99999999999998
 21
-65.812232999999992
 31
0.0
  0
LINE
  5
7D7
  8
0
 10
14.99999999999998
 20
-82.0
 30
0.0
 11
2.9999999999999849
 21
-82.0
 31
0.0
  0
LINE
  5
7D8
  8
0
 10
-15.000000000000011
 20
-82.0
 30
0.0
 11
-15.000000000000011
 21
-65.812232999999992
 31
0.0
  0
LINE
  5
7D9
  8
0
 10
-15.000000000000011
 20
-82.0
 30
0.0
 11
-3.0000000000000142
 21
-82.0
 31
0.0
  0
LINE
  5
7DA
  8
0
 10
-3.0000000000000142
 20
-82.0
 30
0.0
 11
-3.0
 21
-56.420299999999997
 31
0.0
  0
LINE
  5
7DB
  8
0
 10
-3.0000000000000142
 20
-79.0
 30
0.0
 11
2.9999999999999849
 21
-79.0
 31
0.0
  0
LINE
  5
7DC
  8
0
 10
-3.0000000000000142
 20
-71.0
 30
0.0
 11
2.9999999999999849
 21
-71.0
 31
0.0
  0
LINE
  5
7DD
  8
0
 10
15.000000000000011
 20
82.0
 30
0.0
 11
3.0000000000000142
 21
82.0
 31
0.0
  0
LINE
  5
7DE
  8
0
 10
-14.99999999999998
 20
82.0
 30
0.0
 11
-14.99999999999998
 21
65.812232999999992
 31
0.0
  0
LINE
  5
7DF
  8
0
 10
-14.99999999999998
 20
82.0
 30
0.0
 11
-2.9999999999999849
 21
82.0
 31
0.0
  0
LINE
  5
7E0
  8
0
 10
3.0000000000000142
 20
82.0
 30
0.0
 11
3.0
 21
56.420299999999997
 31
0.0
  0
LINE
  5
7E1
  8
0
 10
-2.9999999999999849
 20
79.0
 30
0.0
 11
3.0000000000000142
 21
79.0
 31
0.0
  0
LINE
  5
7E2
  8
0
 10
-2.9999999999999849
 20
82.0
 30
0.0
 11
-3.0
 21
56.420299999999997
 31
0.0
  0
LINE
  5
7E3
  8
0
 10
-2.9999999999999849
 20
71.0
 30
0.0
 11
3.0000000000000142
 21
71.0
 31
0.0
  0
LINE
  5
7E4
  8
0
 10
-28.999999999999989
 20
71.0
 30
0.0
 11
-23.499999999999989
 21
71.0
 31
0.0
  0
LINE
  5
7E5
  8
0
 10
-23.499999999999989
 20
70.0
 30
0.0
 11
-23.499999999999979
 21
80.0
 31
0.0
  0
LINE
  5
7E6
  8
0
 10
-28.999999999999989
 20
71.0
 30
0.0
 11
-28.999999999999979
 21
79.0
 31
0.0
  0
LINE
  5
7E7
  8
0
 10
-22.499999999999989
 20
69.0
 30
0.0
 11
-21.499999999999989
 21
69.0
 31
0.0
  0
LINE
  5
7E8
  8
0
 10
-22.499999999999979
 20
81.0
 30
0.0
 11
-21.499999999999979
 21
81.0
 31
0.0
  0
LINE
  5
7E9
  8
0
 10
-20.775105999999969
 20
75.0
 30
0.0
 11
-15.72489399999999
 21
75.0
 31
0.0
  0
LINE
  5
7EA
  8
0
 10
-21.499999999999979
 20
81.5
 30
0.0
 11
-21.499999999999989
 21
68.5
 31
0.0
  0
LINE
  5
7EB
  8
0
 10
-21.499999999999979
 20
81.5
 30
0.0
 11
-14.99999999999998
 21
81.5
 31
0.0
  0
LINE
  5
7EC
  8
0
 10
-21.499999999999989
 20
68.5
 30
0.0
 11
-14.99999999999998
 21
68.5
 31
0.0
  0
LINE
  5
7ED
  8
0
 10
-28.999999999999979
 20
79.0
 30
0.0
 11
-23.499999999999979
 21
79.0
 31
0.0
  0
LINE
  5
7EE
  8
0
  6
CENTER
 10
-30.651335
 20
75.0
 30
0.0
 11
26.474014000000022
 21
75.0
 31
0.0
  0
LINE
  5
7EF
  8
0
 10
-29.0
 20
-71.0
 30
0.0
 11
-23.5
 21
-71.0
 31
0.0
  0
LINE
  5
7F0
  8
0
 10
-23.5
 20
-70.0
 30
0.0
 11
-23.500000000000011
 21
-80.0
 31
0.0
  0
LINE
  5
7F1
  8
0
 10
-29.0
 20
-71.0
 30
0.0
 11
-29.000000000000011
 21
-79.0
 31
0.0
  0
LINE
  5
7F2
  8
0
 10
-22.5
 20
-69.0
 30
0.0
 11
-21.5
 21
-69.0
 31
0.0
  0
LINE
  5
7F3
  8
0
 10
-22.500000000000011
 20
-81.0
 30
0.0
 11
-21.500000000000011
 21
-81.0
 31
0.0
  0
LINE
  5
7F4
  8
0
 10
-20.775106000000001
 20
-75.0
 30
0.0
 11
-15.72489400000002
 21
-75.0
 31
0.0
  0
LINE
  5
7F5
  8
0
 10
-21.500000000000011
 20
-81.5
 30
0.0
 11
-21.5
 21
-68.5
 31
0.0
  0
LINE
  5
7F6
  8
0
 10
-21.500000000000011
 20
-81.5
 30
0.0
 11
-15.000000000000011
 21
-81.5
 31
0.0
  0
LINE
  5
7F7
  8
0
 10
-21.5
 20
-68.5
 30
0.0
 11
-15.000000000000011
 21
-68.5
 31
0.0
  0
LINE
  5
7F8
  8
0
 10
-29.000000000000011
 20
-79.0
 30
0.0
 11
-23.500000000000011
 21
-79.0
 31
0.0
  0
LINE
  5
7F9
  8
0
  6
CENTER
 10
-30.651335000000032
 20
-75.0
 30
0.0
 11
26.26473199999996
 21
-75.0
 31
0.0
  0
LINE
  5
7FA
  8
0
 10
19.775105999999969
 20
-75.0
 30
0.0
 11
14.99999999999998
 21
-75.0
 31
0.0
  0
LINE
  5
7FB
  8
0
 10
20.5
 20
-71.75
 30
0.0
 11
20.499999999999979
 21
-78.25
 31
0.0
  0
LINE
  5
7FC
  8
0
 10
19.77510599999999
 20
-68.5
 30
0.0
 11
14.99999999999998
 21
-68.5
 31
0.0
  0
LINE
  5
7FD
  8
0
 10
19.775105999999969
 20
-81.5
 30
0.0
 11
14.99999999999998
 21
-81.5
 31
0.0
  0
LINE
  5
7FE
  8
0
 10
19.775106000000001
 20
75.0
 30
0.0
 11
15.000000000000011
 21
75.0
 31
0.0
  0
LINE
  5
7FF
  8
0
 10
20.5
 20
71.75
 30
0.0
 11
20.500000000000011
 21
78.25
 31
0.0
  0
LINE
  5
800
  8
0
 10
19.77510599999999
 20
68.5
 30
0.0
 11
15.000000000000011
 21
68.5
 31
0.0
  0
LINE
  5
801
  8
0
 10
19.775106000000001
 20
81.5
 30
0.0
 11
15.000000000000011
 21
81.5
 31
0.0
  0
LINE
  5
802
  8
0
 10
15.000000000000011
 20
65.812232999999992
 30
0.0
 11
15.000000000000011
 21
82.0
 31
0.0
  0
ARC
  5
803
  8
0
 10
0.0
 20
0.0
 30
0.0
 40
67.5
 50
272.54730500000039
 51
90.0
  0
ARC
  5
804
  8
0
 10
0.0
 20
0.0
 30
0.0
 40
56.5
 50
273.04369600000109
 51
86.956310000000116
  0
ARC
  5
805
  8
0
 10
0.0
 20
0.0
 30
0.0
 40
58.5
 50
273.04369600000109
 51
90.0
  0
ARC
  5
806
  8
0
 10
0.0
 20
0.0
 30
0.0
 40
56.5
 50
93.043689999999884
 51
266.956312999999
  0
ARC
  5
807
  8
0
 10
0.0
 20
0.0
 30
0.0
 40
58.5
 50
93.043689999999884
 51
266.956312999999
  0
ARC
  5
808
  8
0
 10
0.0
 20
0.0
 30
0.0
 40
67.5
 50
92.547319999998663
 51
267.45268299999958
  0
ARC
  5
809
  8
0
 10
-22.499999999999989
 20
70.0
 30
0.0
 40
1.0
 50
179.99998999999889
 51
269.99999600000092
  0
ARC
  5
80A
  8
0
 10
-22.499999999999979
 20
80.0
 30
0.0
 40
1.0
 50
90.0
 51
180.00000500895359
  0
ARC
  5
80B
  8
0
 10
-13.852005
 20
78.25
 30
0.0
 40
7.647994999999999
 50
154.8526299999981
 51
205.14737500000061
  0
ARC
  5
80C
  8
0
 10
-13.852005
 20
71.75
 30
0.0
 40
7.647994999999999
 50
154.8526299999981
 51
205.1473680000002
  0
ARC
  5
80D
  8
0
 10
-22.647994999999959
 20
78.25
 30
0.0
 40
7.647994999999999
 50
334.85262999999958
 51
25.147370000001889
  0
ARC
  5
80E
  8
0
 10
-22.64799499999997
 20
71.75
 30
0.0
 40
7.647994999999999
 50
334.85262999999958
 51
25.147370000001889
  0
ARC
  5
80F
  8
0
 10
-22.5
 20
-70.0
 30
0.0
 40
1.0
 50
90.0
 51
180.00000500895359
  0
ARC
  5
810
  8
0
 10
-22.500000000000011
 20
-80.0
 30
0.0
 40
1.0
 50
179.99998999999889
 51
269.99999600000092
  0
ARC
  5
811
  8
0
 10
-13.85200500000003
 20
-78.25
 30
0.0
 40
7.647994999999999
 50
154.85262000000051
 51
205.1473720000003
  0
ARC
  5
812
  8
0
 10
-13.85200500000003
 20
-71.75
 30
0.0
 40
7.647994999999999
 50
154.8526299999981
 51
205.1473720000003
  0
ARC
  5
813
  8
0
 10
-22.647994999999991
 20
-78.25
 30
0.0
 40
7.647994999999999
 50
334.85262999999958
 51
25.147370000001889
  0
ARC
  5
814
  8
0
 10
-22.64799499999998
 20
-71.75
 30
0.0
 40
7.647994999999999
 50
334.85262999999958
 51
25.147370000001889
  0
ARC
  5
815
  8
0
 10
12.852005
 20
-71.75
 30
0.0
 40
7.6479945000000011
 50
334.85262999999958
 51
25.147370000001889
  0
ARC
  5
816
  8
0
 10
12.852005
 20
-78.25
 30
0.0
 40
7.6479945000000011
 50
334.85262999999958
 51
25.147370000001889
  0
ARC
  5
817
  8
0
 10
12.85200500000003
 20
71.75
 30
0.0
 40
7.6479945000000011
 50
334.85262999999958
 51
25.147370000001889
  0
ARC
  5
818
  8
0
 10
12.85200500000003
 20
78.25
 30
0.0
 40
7.6479945000000011
 50
334.85262999999958
 51
25.147370000001889
  0
LINE
  5
819
  8
0
 10
122.9972216768371
 20
81.49999116427162
 30
0.0
 11
130.50277587683709
 21
81.49999116427162
 31
0.0
  0
LINE
  5
81A
  8
0
 10
130.50277687683709
 20
81.499990164271622
 30
0.0
 11
134.255554076837
 21
74.999990164271622
 31
0.0
  0
LINE
  5
81B
  8
0
 10
130.50277707683711
 20
68.499990164271622
 30
0.0
 11
134.25555427683699
 21
74.999990164271622
 31
0.0
  0
LINE
  5
81C
  8
0
 10
122.9972216768371
 20
68.49999116427162
 30
0.0
 11
130.50277587683709
 21
68.49999116427162
 31
0.0
  0
LINE
  5
81D
  8
0
 10
119.24444677683699
 20
74.99998999106657
 30
0.0
 11
122.997223876837
 21
68.499990164271622
 31
0.0
  0
LINE
  5
81E
  8
0
 10
122.997224076837
 20
81.499990164271622
 30
0.0
 11
119.24444677683699
 21
74.99998999106657
 31
0.0
  0
LINE
  5
81F
  8
0
 10
122.997223876837
 20
-68.500007835728383
 30
0.0
 11
119.244446676837
 21
-75.000007835728383
 31
0.0
  0
LINE
  5
820
  8
0
 10
122.997224076837
 20
-81.500007835728383
 30
0.0
 11
119.244446876837
 21
-75.000007835728383
 31
0.0
  0
LINE
  5
821
  8
0
 10
130.502776876837
 20
-81.500007835728383
 30
0.0
 11
134.255554076837
 21
-75.000007835728383
 31
0.0
  0
LINE
  5
822
  8
0
 10
134.25555427683699
 20
-75.000007835728383
 30
0.0
 11
130.50277707683711
 21
-68.500007835728383
 31
0.0
  0
LINE
  5
823
  8
0
 10
130.502779276837
 20
-68.50000883572838
 30
0.0
 11
122.997225076837
 21
-68.50000883572838
 31
0.0
  0
LINE
  5
824
  8
0
 10
130.502779276837
 20
-81.50000883572838
 30
0.0
 11
122.997225076837
 21
-81.50000883572838
 31
0.0
  0
LINE
  5
825
  8
0
  6
CENTER
 10
116.7500004768371
 20
-75.00000883572838
 30
0.0
 11
136.75000047683699
 21
-75.00000883572838
 31
0.0
  0
LINE
  5
826
  8
0
  6
CENTER
 10
126.7500009536742
 20
-85.00000883572838
 30
0.0
 11
126.7500009536742
 21
-65.00000883572838
 31
0.0
  0
LINE
  5
827
  8
0
  6
CENTER
 10
116.7499994768371
 20
74.999991164271606
 30
0.0
 11
136.7499994768371
 21
74.999991164271606
 31
0.0
  0
LINE
  5
828
  8
0
  6
CENTER
 10
116.7499994768371
 20
-0.0000088357283801
 30
0.0
 11
136.7499994768371
 21
-0.0000088357283801
 31
0.0
  0
LINE
  5
829
  8
0
  6
CENTER
 10
126.7499999999994
 20
64.999991164271606
 30
0.0
 11
126.7499999999994
 21
84.999991164271606
 31
0.0
  0
LINE
  5
82A
  8
0
 10
135.9999999999994
 20
-58.423043953908049
 30
0.0
 11
135.9999999999994
 21
58.42302628245136
 31
0.0
  0
LINE
  5
82B
  8
0
 10
117.4999999999994
 20
-58.423043953908127
 30
0.0
 11
117.4999999999994
 21
58.42302628245136
 31
0.0
  0
LINE
  5
82C
  8
0
  6
CENTER
 10
0.0
 20
-84.879302653422684
 30
0.0
 11
0.0
 21
84.879302653422712
 31
0.0
  0
LINE
  5
82D
  8
0
  6
CENTER
 10
-84.879302653422684
 20
0.0
 30
0.0
 11
84.879302653422712
 21
0.0
 31
0.0
  0
LINE
  5
82E
  8
0
 10
120.7757321083952
 20
-71.351977940797426
 30
0.0
 11
120.7757321083952
 21
71.351960269340665
 31
0.0
  0
LINE
  5
82F
  8
0
 10
117.4999999999994
 20
58.42302628245136
 30
0.0
 11
120.7757321083952
 21
67.433300378967033
 31
0.0
  0
ARC
  5
830
  8
0
 10
126.7499994768371
 20
74.999991164271606
 30
0.0
 40
7.0
 50
328.59077677935181
 51
211.40923965417051
  0
LINE
  5
831
  8
0
 10
135.9999999999994
 20
58.42302628245136
 30
0.0
 11
132.72426789160349
 21
67.433300378967147
 31
0.0
  0
LINE
  5
832
  8
0
 10
120.7757321083952
 20
65.812232999999992
 30
0.0
 11
132.72426789160349
 21
65.812232999999992
 31
0.0
  0
LINE
  5
833
  8
0
 10
117.4999999999994
 20
-58.423043953908127
 30
0.0
 11
120.7757321083952
 21
-67.433318050423793
 31
0.0
  0
ARC
  5
834
  8
0
 10
126.7499994768371
 20
-75.000008835728394
 30
0.0
 40
7.0
 50
148.59076034582941
 51
31.409223220648119
  0
LINE
  5
835
  8
0
 10
132.72426789160349
 20
71.351961982874684
 30
0.0
 11
132.72426789160349
 21
-71.351979654331444
 31
0.0
  0
LINE
  5
836
  8
0
 10
135.9999999999994
 20
-58.423043953908049
 30
0.0
 11
132.72426789160349
 21
-67.433318050423907
 31
0.0
  0
LINE
  5
837
  8
0
 10
120.7757321083952
 20
-65.812250671456766
 30
0.0
 11
132.72426789160349
 21
-65.812250671456766
 31
0.0
  0
VIEWPORT
  5
79
 67
     1
  8
0
 10
5.2499996395561617
 20
3.9999998836066761
 30
0.0
 40
15.015580297613511
 41
8.5939224089826052
 68
     1
 69
     1
1001
ACAD
1000
MVIEW
1002
{
1070
    16
1010
0.0
1020
0.0
1030
0.0
1010
0.0
1020
0.0
1030
1.0
1040
0.0
1040
8.5939224089826052
1040
5.2499996395561617
1040
3.9999998836066761
1040
50.0
1040
0.0
1040
0.0
1070
     0
1070
   100
1070
     1
1070
     1
1070
     0
1070
     0
1070
     0
1070
     0
1040
0.0
1040
0.0
1040
0.0
1040
10.0
1040
10.0
1040
10.0
1040
10.0
1070
     0
1002
{
1002
}
1002
}
1001
GENIUS_GENSCREG_15
1000
PF
1040
1.0
1000
DF
1040
1.0
1000
MIN
1011
-2.2577905092505972
1021
2.7194265238550134E+185
1031
0.0
1021
-0.2969613208846251
1031
0.0
1000
MAX
1011
12.757789788362921
1021
2.7194265238550134E+185
1031
0.0
1021
8.2969610880979801
1031
0.0
1000
FLAGS
1070
     4
1001
GENIUS_GENODEF_13
1002
{
1000
HIER
1070
     0
1002
}
1002
{
1000
MANEDIT
1070
     0
1002
}
1002
{
1000
NOSEL
1070
     0
1002
}
1002
{
1000
BEHIND
1070
     0
1002
}
1002
{
1000
OTHER
1070
     0
1002
}
1002
{
1000
REACTOR
1002
}
1001
GENIUS_GENOBJ-N-SDF_13
1002
{
1000
OWNER
1000
GEN
1002
}
  0
VIEWPORT
  5
7B
 67
     1
  8
0
 10
5.24999976158142
 20
3.99999976158142
 30
0.0
 40
8.3999996185302717
 41
6.3999996185302717
 68
     2
 69
     2
1001
ACAD
1000
MVIEW
1002
{
1070
    16
1010
0.0
1020
0.0
1030
0.0
1010
0.0
1020
0.0
1030
1.0
1040
0.0
1040
9.2590797717467002
1040
6.0
1040
4.5
1040
50.0
1040
0.0
1040
0.0
1070
     0
1070
   100
1070
     1
1070
     3
1070
     0
1070
     0
1070
     0
1070
     0
1040
0.0
1040
0.0
1040
0.0
1040
0.5
1040
0.5
1040
0.5
1040
0.5
1070
     0
1002
{
1002
}
1002
}
1001
GENIUS_GENSCREG_15
1000
PF
1040
0.0
1000
DF
1040
0.0
1000
MIN
1011
1.049999952316284
1021
2.7194265238550134E+185
1031
0.0
1021
0.7999999523162842
1031
0.0
1000
MAX
1011
9.4499995708465558
1021
2.7194265238550134E+185
1031
0.0
1021
7.1999995708465558
1031
0.0
1000
FLAGS
1070
     4
1001
GENIUS_GENODEF_13
1002
{
1000
HIER
1070
     0
1002
}
1002
{
1000
MANEDIT
1070
     0
1002
}
1002
{
1000
NOSEL
1070
     0
1002
}
1002
{
1000
BEHIND
1070
     0
1002
}
1002
{
1000
OTHER
1070
     0
1002
}
1002
{
1000
REACTOR
1002
}
1001
GENIUS_GENOBJ-N-SDF_13
1002
{
1000
OWNER
1000
GEN
1002
}
  0
ENDSEC
  0
EOF
