  0
SECTION
  2
HEADER
  9
$ACADVER
  1
AC1009
  9
$INSBASE
 10
0.0
 20
0.0
 30
0.0
  9
$EXTMIN
 10
-79.816611778443232
 20
-79.816611778443232
 30
0.0
  9
$EXTMAX
 10
129.25000047683761
 20
92.445644743472599
 30
0.0
  9
$LIMMIN
 10
0.0
 20
0.0
  9
$LIMMAX
 10
12.0
 20
9.0
  9
$ORTHOMODE
 70
     0
  9
$REGENMODE
 70
     1
  9
$FILLMODE
 70
     1
  9
$QTEXTMODE
 70
     0
  9
$MIRRTEXT
 70
     1
  9
$DRAGMODE
 70
     2
  9
$LTSCALE
 40
1.0
  9
$OSMODE
 70
    37
  9
$ATTMODE
 70
     1
  9
$TEXTSIZE
 40
0.2
  9
$TRACEWID
 40
0.05
  9
$TEXTSTYLE
  7
STANDARD
  9
$CLAYER
  8
0
  9
$CELTYPE
  6
BYLAYER
  9
$CECOLOR
 62
   256
  9
$DIMSCALE
 40
1.0
  9
$DIMASZ
 40
0.18
  9
$DIMEXO
 40
0.0625
  9
$DIMDLI
 40
0.38
  9
$DIMRND
 40
0.0
  9
$DIMDLE
 40
0.0
  9
$DIMEXE
 40
0.18
  9
$DIMTP
 40
0.0
  9
$DIMTM
 40
0.0
  9
$DIMTXT
 40
0.18
  9
$DIMCEN
 40
0.09
  9
$DIMTSZ
 40
0.0
  9
$DIMTOL
 70
     0
  9
$DIMLIM
 70
     0
  9
$DIMTIH
 70
     1
  9
$DIMTOH
 70
     1
  9
$DIMSE1
 70
     0
  9
$DIMSE2
 70
     0
  9
$DIMTAD
 70
     0
  9
$DIMZIN
 70
     0
  9
$DIMBLK
  1

  9
$DIMASO
 70
     1
  9
$DIMSHO
 70
     1
  9
$DIMPOST
  1

  9
$DIMAPOST
  1

  9
$DIMALT
 70
     0
  9
$DIMALTD
 70
     2
  9
$DIMALTF
 40
25.399999999999999
  9
$DIMLFAC
 40
1.0
  9
$DIMTOFL
 70
     0
  9
$DIMTVP
 40
0.0
  9
$DIMTIX
 70
     0
  9
$DIMSOXD
 70
     0
  9
$DIMSAH
 70
     0
  9
$DIMBLK1
  1

  9
$DIMBLK2
  1

  9
$DIMSTYLE
  2
STANDARD
  9
$DIMCLRD
 70
     0
  9
$DIMCLRE
 70
     0
  9
$DIMCLRT
 70
     0
  9
$DIMTFAC
 40
1.0
  9
$DIMGAP
 40
0.09
  9
$LUNITS
 70
     2
  9
$LUPREC
 70
     4
  9
$SKETCHINC
 40
0.1
  9
$FILLETRAD
 40
0.5
  9
$AUNITS
 70
     0
  9
$AUPREC
 70
     0
  9
$MENU
  1
.
  9
$ELEVATION
 40
0.0
  9
$PELEVATION
 40
0.0
  9
$THICKNESS
 40
0.0
  9
$LIMCHECK
 70
     0
  9
$BLIPMODE
 70
     0
  9
$CHAMFERA
 40
0.5
  9
$CHAMFERB
 40
0.5
  9
$SKPOLY
 70
     0
  9
$TDCREATE
 40
2451955.1727028699
  9
$TDUPDATE
 40
2454727.5613803822
  9
$TDINDWG
 40
0.0131157755
  9
$TDUSRTIMER
 40
0.0131156019
  9
$USRTIMER
 70
     1
  9
$ANGBASE
 50
0.0
  9
$ANGDIR
 70
     0
  9
$PDMODE
 70
     0
  9
$PDSIZE
 40
0.0
  9
$PLINEWID
 40
0.0
  9
$COORDS
 70
     1
  9
$SPLFRAME
 70
     0
  9
$SPLINETYPE
 70
     6
  9
$SPLINESEGS
 70
     8
  9
$ATTDIA
 70
     0
  9
$ATTREQ
 70
     1
  9
$HANDLING
 70
 22529
  9
$HANDSEED
  5
872
  9
$SURFTAB1
 70
     6
  9
$SURFTAB2
 70
     6
  9
$SURFTYPE
 70
     6
  9
$SURFU
 70
     6
  9
$SURFV
 70
     6
  9
$UCSNAME
  2

  9
$UCSORG
 10
0.0
 20
0.0
 30
0.0
  9
$UCSXDIR
 10
1.0
 20
0.0
 30
0.0
  9
$UCSYDIR
 10
0.0
 20
1.0
 30
0.0
  9
$PUCSNAME
  2

  9
$PUCSORG
 10
0.0
 20
0.0
 30
0.0
  9
$PUCSXDIR
 10
1.0
 20
0.0
 30
0.0
  9
$PUCSYDIR
 10
0.0
 20
1.0
 30
0.0
  9
$USERI1
 70
     0
  9
$USERI2
 70
     0
  9
$USERI3
 70
     0
  9
$USERI4
 70
     0
  9
$USERI5
 70
     0
  9
$USERR1
 40
0.0
  9
$USERR2
 40
0.0
  9
$USERR3
 40
0.0
  9
$USERR4
 40
0.0
  9
$USERR5
 40
0.0
  9
$WORLDVIEW
 70
     1
  9
$SHADEDGE
 70
     3
  9
$SHADEDIF
 70
    70
  9
$TILEMODE
 70
     1
  9
$MAXACTVP
 70
    48
  9
$PLIMCHECK
 70
     0
  9
$PEXTMIN
 10
1.049636599258096
 20
0.7996597240971113
 30
-0.0015258207003583
  9
$PEXTMAX
 10
9.4503627310769716
 20
7.2003400826974584
 30
0.0000000349246037
  9
$PLIMMIN
 10
-0.2500002402958907
 20
-0.2499999962453767
  9
$PLIMMAX
 10
10.74999951940821
 20
8.2499997634587316
  9
$UNITMODE
 70
     0
  9
$VISRETAIN
 70
     1
  9
$PLINEGEN
 70
     0
  9
$PSLTSCALE
 70
     1
  0
ENDSEC
  0
SECTION
  2
TABLES
  0
TABLE
  2
VPORT
 70
     2
  0
VPORT
  2
*ACTIVE
 70
     0
 10
0.0
 20
0.0
 11
1.0
 21
1.0
 12
24.716694835968379
 22
6.3145168835939671
 13
0.0
 23
0.0
 14
0.5
 24
0.5
 15
0.5
 25
0.5
 16
0.0
 26
0.0
 36
1.0
 17
0.0
 27
0.0
 37
0.0
 40
173.66107448344209
 41
1.5031210986267161
 42
50.0
 43
0.0
 44
0.0
 50
0.0
 51
0.0
 71
     0
 72
   100
 73
     1
 74
     3
 75
     0
 76
     0
 77
     0
 78
     0
  0
ENDTAB
  0
TABLE
  2
LTYPE
 70
     2
  0
LTYPE
  2
CONTINUOUS
 70
     0
  3
Solid line
 72
    65
 73
     0
 40
0.0
  0
LTYPE
  2
CENTER
 70
     0
  3
__ . __
 72
    65
 73
     4
 40
7.0
 49
4.0
 49
-1.0
 49
1.0
 49
-1.0
  0
ENDTAB
  0
TABLE
  2
LAYER
 70
     1
  0
LAYER
  2
0
 70
     0
 62
     7
  6
CONTINUOUS
  0
ENDTAB
  0
TABLE
  2
STYLE
 70
     1
  0
STYLE
  2
STANDARD
 70
     0
 40
0.0
 41
1.0
 50
0.0
 71
     0
 42
0.2
  3
txt
  4

  0
ENDTAB
  0
TABLE
  2
VIEW
 70
     0
  0
ENDTAB
  0
TABLE
  2
UCS
 70
     0
  0
ENDTAB
  0
TABLE
  2
APPID
 70
    19
  0
APPID
  2
ACAD
 70
     0
  0
APPID
  2
GENIUS_GENODEF_13
 70
     0
  0
APPID
  2
ACAD_DSTYLE_DIMARC_LENGTH_
 70
     0
  0
APPID
  2
ACAD_DSTYLE_DIMJOGGED_JOGA
 70
     0
  0
APPID
  2
GENIUS_GENOBJ-N-FIL_13
 70
     0
  0
APPID
  2
ACAD_MLEADERVER
 70
     0
  0
APPID
  2
MCAD_NO_VIS
 70
     0
  0
APPID
  2
ACAD_TEMP_GRAPHIC
 70
     0
  0
APPID
  2
AD_DRAW
 70
     0
  0
APPID
  2
ACATTRIBSERVICES
 70
     0
  0
APPID
  2
DESIGNERASSEMBLIES
 70
     0
  0
APPID
  2
ACADM_DIM_EDIT
 70
     0
  0
APPID
  2
AMDT_DM_ADJ
 70
     0
  0
APPID
  2
GENIUS_GENSCREG_15
 70
     0
  0
APPID
  2
GENIUS_GENOBJ-N-SDF_13
 70
     0
  0
APPID
  2
ACAD_EXEMPT_FROM_CAD_STANDARDS
 70
     0
  0
APPID
  2
ACAD_DSTYLE_DIM_LINETYPE
 70
     0
  0
APPID
  2
ACAD_DSTYLE_DIM_EXT1_LINETYPE
 70
     0
  0
APPID
  2
ACAD_DSTYLE_DIM_EXT2_LINETYPE
 70
     0
  0
ENDTAB
  0
TABLE
  2
DIMSTYLE
 70
     1
  0
DIMSTYLE
  2
STANDARD
 70
     0
  3

  4

  5

  6

  7

 40
1.0
 41
0.18
 42
0.0625
 43
0.38
 44
0.18
 45
0.0
 46
0.0
 47
0.0
 48
0.0
140
0.18
141
0.09
142
0.0
143
25.399999999999999
144
1.0
145
0.0
146
1.0
147
0.09
 71
     0
 72
     0
 73
     1
 74
     1
 75
     0
 76
     0
 77
     0
 78
     0
170
     0
171
     2
172
     0
173
     0
174
     0
175
     0
176
     0
177
     0
178
     0
  0
ENDTAB
  0
ENDSEC
  0
SECTION
  2
BLOCKS
  0
BLOCK
  8
0
  2
$MODEL_SPACE
 70
     0
 10
0.0
 20
0.0
 30
0.0
  3
$MODEL_SPACE
  1

  0
ENDBLK
  5
21
  8
0
  0
BLOCK
 67
     1
  8
0
  2
$PAPER_SPACE
 70
     0
 10
0.0
 20
0.0
 30
0.0
  3
$PAPER_SPACE
  1

  0
ENDBLK
  5
60
 67
     1
  8
0
  0
ENDSEC
  0
SECTION
  2
ENTITIES
  0
TEXT
  5
10C
  8
0
 10
0.7892459962327916
 20
87.445644743472556
 30
0.0
 40
5.0
  1
13MVHM-LW 3.5S
  0
LINE
  5
766
  8
0
 10
2.9999999999999849
 20
-75.0
 30
0.0
 11
3.0
 21
-49.90992
 31
0.0
  0
LINE
  5
767
  8
0
 10
14.99999999999998
 20
-75.0
 30
0.0
 11
15.0
 21
-58.61100800000002
 31
0.0
  0
LINE
  5
768
  8
0
 10
2.9999999999999849
 20
-75.0
 30
0.0
 11
14.99999999999998
 21
-75.0
 31
0.0
  0
LINE
  5
769
  8
0
 10
-15.000000000000011
 20
-75.0
 30
0.0
 11
-15.0
 21
-58.61100800000002
 31
0.0
  0
LINE
  5
76A
  8
0
 10
-3.0000000000000142
 20
-75.0
 30
0.0
 11
-15.000000000000011
 21
-75.0
 31
0.0
  0
LINE
  5
76B
  8
0
 10
-3.0000000000000142
 20
-75.0
 30
0.0
 11
-3.0
 21
-49.90992
 31
0.0
  0
LINE
  5
76C
  8
0
 10
-3.0000000000000142
 20
-72.0
 30
0.0
 11
2.9999999999999849
 21
-72.0
 31
0.0
  0
LINE
  5
76D
  8
0
 10
-3.0000000000000142
 20
-64.0
 30
0.0
 11
2.9999999999999849
 21
-64.0
 31
0.0
  0
LINE
  5
76E
  8
0
 10
15.000000000000011
 20
75.0
 30
0.0
 11
15.0
 21
58.611007999999991
 31
0.0
  0
LINE
  5
76F
  8
0
 10
3.0000000000000142
 20
75.0
 30
0.0
 11
15.000000000000011
 21
75.0
 31
0.0
  0
LINE
  5
770
  8
0
 10
-14.99999999999998
 20
75.0
 30
0.0
 11
-15.0
 21
58.611007999999991
 31
0.0
  0
LINE
  5
771
  8
0
 10
-2.9999999999999849
 20
75.0
 30
0.0
 11
-14.99999999999998
 21
75.0
 31
0.0
  0
LINE
  5
772
  8
0
 10
3.0000000000000142
 20
75.0
 30
0.0
 11
3.0
 21
49.90992
 31
0.0
  0
LINE
  5
773
  8
0
 10
-2.9999999999999849
 20
75.0
 30
0.0
 11
-3.0
 21
49.90992
 31
0.0
  0
LINE
  5
774
  8
0
 10
-2.9999999999999849
 20
72.0
 30
0.0
 11
3.0000000000000142
 21
72.0
 31
0.0
  0
LINE
  5
775
  8
0
 10
-2.9999999999999849
 20
64.0
 30
0.0
 11
3.0000000000000142
 21
64.0
 31
0.0
  0
LINE
  5
776
  8
0
 10
-28.999999999999989
 20
64.0
 30
0.0
 11
-23.499999999999989
 21
64.0
 31
0.0
  0
LINE
  5
777
  8
0
 10
-23.499999999999989
 20
63.0
 30
0.0
 11
-23.499999999999979
 21
73.0
 31
0.0
  0
LINE
  5
778
  8
0
 10
-28.999999999999989
 20
64.0
 30
0.0
 11
-28.999999999999989
 21
72.0
 31
0.0
  0
LINE
  5
779
  8
0
 10
-22.499999999999989
 20
62.0
 30
0.0
 11
-21.499999999999989
 21
62.0
 31
0.0
  0
LINE
  5
77A
  8
0
 10
-22.499999999999979
 20
74.0
 30
0.0
 11
-21.499999999999979
 21
74.0
 31
0.0
  0
LINE
  5
77B
  8
0
 10
-20.77510599999998
 20
68.0
 30
0.0
 11
-15.72489399999999
 21
68.0
 31
0.0
  0
LINE
  5
77C
  8
0
 10
-21.499999999999979
 20
74.5
 30
0.0
 11
-21.499999999999989
 21
61.5
 31
0.0
  0
LINE
  5
77D
  8
0
 10
-21.499999999999979
 20
74.5
 30
0.0
 11
-14.99999999999998
 21
74.5
 31
0.0
  0
LINE
  5
77E
  8
0
 10
-21.499999999999989
 20
61.5
 30
0.0
 11
-15.0
 21
61.5
 31
0.0
  0
LINE
  5
77F
  8
0
 10
-28.999999999999989
 20
72.0
 30
0.0
 11
-23.499999999999989
 21
72.0
 31
0.0
  0
LINE
  5
780
  8
0
  6
CENTER
 10
-30.65133500000001
 20
68.0
 30
0.0
 11
26.893851999999981
 21
68.0
 31
0.0
  0
LINE
  5
781
  8
0
 10
19.77510599999999
 20
68.0
 30
0.0
 11
15.000000000000011
 21
68.0
 31
0.0
  0
LINE
  5
782
  8
0
 10
20.5
 20
64.75
 30
0.0
 11
20.5
 21
71.25
 31
0.0
  0
LINE
  5
783
  8
0
 10
19.77510599999999
 20
61.5
 30
0.0
 11
15.0
 21
61.5
 31
0.0
  0
LINE
  5
784
  8
0
 10
19.775106000000001
 20
74.5
 30
0.0
 11
15.000000000000011
 21
74.5
 31
0.0
  0
LINE
  5
785
  8
0
 10
19.77510599999999
 20
-68.0
 30
0.0
 11
14.99999999999998
 21
-68.0
 31
0.0
  0
LINE
  5
786
  8
0
 10
20.5
 20
-64.75
 30
0.0
 11
20.5
 21
-71.25
 31
0.0
  0
LINE
  5
787
  8
0
 10
19.77510599999999
 20
-61.5
 30
0.0
 11
15.0
 21
-61.5
 31
0.0
  0
LINE
  5
788
  8
0
 10
19.775105999999969
 20
-74.5
 30
0.0
 11
14.99999999999998
 21
-74.5
 31
0.0
  0
LINE
  5
789
  8
0
 10
-29.0
 20
-64.0
 30
0.0
 11
-23.5
 21
-64.0
 31
0.0
  0
LINE
  5
78A
  8
0
 10
-23.5
 20
-63.0
 30
0.0
 11
-23.500000000000011
 21
-73.0
 31
0.0
  0
LINE
  5
78B
  8
0
 10
-29.0
 20
-64.0
 30
0.0
 11
-29.0
 21
-72.0
 31
0.0
  0
LINE
  5
78C
  8
0
 10
-22.5
 20
-62.0
 30
0.0
 11
-21.5
 21
-62.0
 31
0.0
  0
LINE
  5
78D
  8
0
 10
-22.500000000000011
 20
-74.0
 30
0.0
 11
-21.500000000000011
 21
-74.0
 31
0.0
  0
LINE
  5
78E
  8
0
 10
-20.775106000000001
 20
-68.0
 30
0.0
 11
-15.72489400000002
 21
-68.0
 31
0.0
  0
LINE
  5
78F
  8
0
 10
-21.500000000000011
 20
-74.5
 30
0.0
 11
-21.5
 21
-61.5
 31
0.0
  0
LINE
  5
790
  8
0
 10
-21.500000000000011
 20
-74.5
 30
0.0
 11
-15.000000000000011
 21
-74.5
 31
0.0
  0
LINE
  5
791
  8
0
 10
-21.5
 20
-61.5
 30
0.0
 11
-15.0
 21
-61.5
 31
0.0
  0
LINE
  5
792
  8
0
 10
-29.0
 20
-72.0
 30
0.0
 11
-23.5
 21
-72.0
 31
0.0
  0
LINE
  5
793
  8
0
  6
CENTER
 10
-30.651335000000021
 20
-68.0
 30
0.0
 11
28.23375900000002
 21
-68.0
 31
0.0
  0
ARC
  5
794
  8
0
 10
0.0
 20
0.0
 30
0.0
 40
60.5
 50
272.8422869999996
 51
87.157721365057895
  0
ARC
  5
795
  8
0
 10
0.0
 20
0.0
 30
0.0
 40
50.0
 50
273.43981899999932
 51
86.560179999998752
  0
ARC
  5
796
  8
0
 10
0.0
 20
0.0
 30
0.0
 40
52.0
 50
273.43981899999932
 51
86.692637820329224
  0
ARC
  5
797
  8
0
 10
0.0
 20
0.0
 30
0.0
 40
50.0
 50
93.439810000001088
 51
266.56018900000021
  0
ARC
  5
798
  8
0
 10
0.0
 20
0.0
 30
0.0
 40
52.0
 50
93.439810000001088
 51
266.56018900000021
  0
ARC
  5
799
  8
0
 10
0.0
 20
0.0
 30
0.0
 40
60.5
 50
92.842279999999477
 51
267.15772200000151
  0
ARC
  5
79A
  8
0
 10
-22.499999999999989
 20
63.0
 30
0.0
 40
1.0
 50
179.99999000000059
 51
269.99999600000092
  0
ARC
  5
79B
  8
0
 10
-22.499999999999979
 20
73.0
 30
0.0
 40
1.0
 50
90.0
 51
180.0000050089553
  0
ARC
  5
79C
  8
0
 10
-13.852005
 20
71.25
 30
0.0
 40
7.647994999999999
 50
154.85262999999949
 51
205.14737499999879
  0
ARC
  5
79D
  8
0
 10
-13.85200500000002
 20
64.75
 30
0.0
 40
7.647994999999999
 50
154.85262999999949
 51
205.1473680000019
  0
ARC
  5
79E
  8
0
 10
-22.64799499999997
 20
71.25
 30
0.0
 40
7.647994999999999
 50
334.85262999999958
 51
25.147370000000411
  0
ARC
  5
79F
  8
0
 10
-22.64799499999997
 20
64.75
 30
0.0
 40
7.647994999999999
 50
334.85262999999958
 51
25.147370000000411
  0
ARC
  5
7A0
  8
0
 10
12.852005000000011
 20
64.75
 30
0.0
 40
7.6479945000000011
 50
334.85262999999958
 51
25.147370000000411
  0
ARC
  5
7A1
  8
0
 10
12.85200500000003
 20
71.25
 30
0.0
 40
7.6479945000000011
 50
334.85262999999958
 51
25.147370000000411
  0
ARC
  5
7A2
  8
0
 10
12.852005000000011
 20
-64.75
 30
0.0
 40
7.6479945000000011
 50
334.85262999999958
 51
25.147370000000411
  0
ARC
  5
7A3
  8
0
 10
12.852005
 20
-71.25
 30
0.0
 40
7.6479945000000011
 50
334.85262999999958
 51
25.147370000000411
  0
ARC
  5
7A4
  8
0
 10
-22.5
 20
-63.0
 30
0.0
 40
1.0
 50
90.0
 51
180.00000500895689
  0
ARC
  5
7A5
  8
0
 10
-22.500000000000011
 20
-73.0
 30
0.0
 40
1.0
 50
179.99999000000059
 51
269.99999600000092
  0
ARC
  5
7A6
  8
0
 10
-13.85200500000003
 20
-71.25
 30
0.0
 40
7.647994999999999
 50
154.85262000000051
 51
205.14737199999951
  0
ARC
  5
7A7
  8
0
 10
-13.85200500000002
 20
-64.75
 30
0.0
 40
7.647994999999999
 50
154.85262999999949
 51
205.14737199999951
  0
ARC
  5
7A8
  8
0
 10
-22.64799499999998
 20
-71.25
 30
0.0
 40
7.647994999999999
 50
334.85262999999958
 51
25.147370000000411
  0
ARC
  5
7A9
  8
0
 10
-22.64799499999998
 20
-64.75
 30
0.0
 40
7.647994999999999
 50
334.85262999999958
 51
25.147370000000411
  0
LINE
  5
7AA
  8
0
  6
CENTER
 10
0.0
 20
-79.816611778443232
 30
0.0
 11
0.0
 21
79.816611778443246
 31
0.0
  0
LINE
  5
7AB
  8
0
  6
CENTER
 10
-79.816611778443232
 20
0.0
 30
0.0
 11
79.816611778443246
 21
0.0
 31
0.0
  0
LINE
  5
7AC
  8
0
 10
115.49722197683759
 20
74.5
 30
0.0
 11
123.0027761768376
 21
74.5
 31
0.0
  0
LINE
  5
7AD
  8
0
 10
123.0027725768376
 20
74.499999000000003
 30
0.0
 11
126.7555497768376
 21
67.999999000000003
 31
0.0
  0
LINE
  5
7AE
  8
0
 10
123.0027744768376
 20
61.499997999999998
 30
0.0
 11
126.7555516768376
 21
67.999999000000003
 31
0.0
  0
LINE
  5
7AF
  8
0
 10
115.49722197683759
 20
61.5
 30
0.0
 11
123.0027761768376
 21
61.5
 31
0.0
  0
LINE
  5
7B0
  8
0
 10
111.7444473768376
 20
68.000001999999995
 30
0.0
 11
115.4972245768375
 21
61.500002000000002
 31
0.0
  0
LINE
  5
7B1
  8
0
 10
115.4972230768376
 20
74.499998000000005
 30
0.0
 11
111.7444459768375
 21
67.999996999999993
 31
0.0
  0
LINE
  5
7B2
  8
0
 10
115.4972264768376
 20
-61.499997999999998
 30
0.0
 11
111.7444492768375
 21
-67.999999000000003
 31
0.0
  0
LINE
  5
7B3
  8
0
 10
115.4972283768376
 20
-74.499999000000003
 30
0.0
 11
111.7444511768376
 21
-67.999999000000003
 31
0.0
  0
LINE
  5
7B4
  8
0
 10
123.0027789768376
 20
-74.5
 30
0.0
 11
115.4972247768375
 21
-74.5
 31
0.0
  0
LINE
  5
7B5
  8
0
 10
123.0027789768376
 20
-61.5
 30
0.0
 11
115.4972247768375
 21
-61.5
 31
0.0
  0
LINE
  5
7B6
  8
0
 10
126.7555535768376
 20
-68.000001999999995
 30
0.0
 11
123.0027763768376
 21
-61.500002000000002
 31
0.0
  0
LINE
  5
7B7
  8
0
 10
123.0027778768376
 20
-74.499998000000005
 30
0.0
 11
126.7555549768376
 21
-67.999996999999993
 31
0.0
  0
LINE
  5
7B8
  8
0
  6
CENTER
 10
109.2500004768376
 20
-68.0
 30
0.0
 11
129.25000047683761
 21
-68.0
 31
0.0
  0
LINE
  5
7B9
  8
0
  6
CENTER
 10
119.2500009536747
 20
-78.0
 30
0.0
 11
119.2500009536747
 21
-58.0
 31
0.0
  0
LINE
  5
7BA
  8
0
  6
CENTER
 10
109.2499994768376
 20
68.0
 30
0.0
 11
129.24999947683759
 21
68.0
 31
0.0
  0
LINE
  5
7BB
  8
0
  6
CENTER
 10
109.2499994768376
 20
0.0
 30
0.0
 11
129.24999947683759
 21
0.0
 31
0.0
  0
LINE
  5
7BC
  8
0
  6
CENTER
 10
119.25
 20
58.0
 30
0.0
 11
119.25
 21
78.0
 31
0.0
  0
LINE
  5
7BD
  8
0
 10
110.4999999999999
 20
-51.913389409669598
 30
0.0
 11
110.4999999999999
 21
51.913389409669612
 31
0.0
  0
LINE
  5
7BE
  8
0
  6
CENTER
 10
119.25
 20
58.0
 30
0.0
 11
119.25
 21
78.0
 31
0.0
  0
LINE
  5
7BF
  8
0
 10
110.4999999999999
 20
51.913389409669612
 30
0.0
 11
113.59374699126271
 21
60.42557405602372
 31
0.0
  0
ARC
  5
7C0
  8
0
 10
119.2499994768376
 20
68.0
 30
0.0
 40
7.0
 50
323.9045060359183
 51
216.09550850118239
  0
LINE
  5
7C1
  8
0
 10
124.90625300873749
 20
-63.876070322753691
 30
0.0
 11
124.9062530087372
 21
63.876070322753691
 31
0.0
  0
LINE
  5
7C2
  8
0
 10
128.0
 20
51.913389409669612
 30
0.0
 11
124.9062530087372
 21
60.42557405602372
 31
0.0
  0
LINE
  5
7C3
  8
0
 10
113.59374699126271
 20
58.611007999999991
 30
0.0
 11
124.9062530087372
 21
58.611007999999991
 31
0.0
  0
LINE
  5
7C4
  8
0
 10
128.0
 20
51.913389409669612
 30
0.0
 11
128.0
 21
-51.913389409669612
 31
0.0
  0
LINE
  5
7C5
  8
0
 10
113.59374699126271
 20
63.876068887647619
 30
0.0
 11
113.59374699126271
 21
-63.876068887647619
 31
0.0
  0
LINE
  5
7C6
  8
0
 10
110.4999999999999
 20
-51.913389409669598
 30
0.0
 11
113.59374699126271
 21
-60.425574056023699
 31
0.0
  0
ARC
  5
7C7
  8
0
 10
119.2499994768376
 20
-68.0
 30
0.0
 40
7.0
 50
143.90449149881749
 51
36.095493964081669
  0
LINE
  5
7C8
  8
0
 10
128.0
 20
-51.913389409669612
 30
0.0
 11
124.9062530087372
 21
-60.425574056023699
 31
0.0
  0
LINE
  5
7C9
  8
0
 10
113.59374699126271
 20
-58.611007999999991
 30
0.0
 11
124.9062530087372
 21
-58.611007999999991
 31
0.0
  0
VIEWPORT
  5
79
 67
     1
  8
0
 10
5.2499996395561617
 20
3.9999998836066761
 30
0.0
 40
15.015580297613511
 41
8.5939224089826052
 68
     1
 69
     1
1001
ACAD
1000
MVIEW
1002
{
1070
    16
1010
0.0
1020
0.0
1030
0.0
1010
0.0
1020
0.0
1030
1.0
1040
0.0
1040
8.5939224089826052
1040
5.2499996395561617
1040
3.9999998836066761
1040
50.0
1040
0.0
1040
0.0
1070
     0
1070
   100
1070
     1
1070
     1
1070
     0
1070
     0
1070
     0
1070
     0
1040
0.0
1040
0.0
1040
0.0
1040
10.0
1040
10.0
1040
10.0
1040
10.0
1070
     0
1002
{
1002
}
1002
}
1001
GENIUS_GENSCREG_15
1000
PF
1040
1.0
1000
DF
1040
1.0
1000
MIN
1011
-2.2577905092505972
1021
0.0
1031
-2.4258395946508164E+229
1021
-0.2969613208846251
1031
0.0
1000
MAX
1011
12.757789788362921
1021
0.0
1031
-2.4258395946508164E+229
1021
8.2969610880979801
1031
0.0
1000
FLAGS
1070
     4
1001
GENIUS_GENOBJ-N-SDF_13
1002
{
1000
OWNER
1000
GEN
1002
}
1001
GENIUS_GENODEF_13
1002
{
1000
HIER
1070
     0
1002
}
1002
{
1000
MANEDIT
1070
     0
1002
}
1002
{
1000
NOSEL
1070
     0
1002
}
1002
{
1000
BEHIND
1070
     0
1002
}
1002
{
1000
OTHER
1070
     0
1002
}
1002
{
1000
REACTOR
1002
}
  0
VIEWPORT
  5
7B
 67
     1
  8
0
 10
5.24999976158142
 20
3.99999976158142
 30
0.0
 40
8.3999996185302717
 41
6.3999996185302717
 68
     2
 69
     2
1001
ACAD
1000
MVIEW
1002
{
1070
    16
1010
0.0
1020
0.0
1030
0.0
1010
0.0
1020
0.0
1030
1.0
1040
0.0
1040
9.2590797717467002
1040
6.0
1040
4.5
1040
50.0
1040
0.0
1040
0.0
1070
     0
1070
   100
1070
     1
1070
     3
1070
     0
1070
     0
1070
     0
1070
     0
1040
0.0
1040
0.0
1040
0.0
1040
0.5
1040
0.5
1040
0.5
1040
0.5
1070
     0
1002
{
1002
}
1002
}
1001
GENIUS_GENSCREG_15
1000
PF
1040
0.0
1000
DF
1040
0.0
1000
MIN
1011
1.049999952316284
1021
0.0
1031
-2.4258395946508164E+229
1021
0.7999999523162842
1031
0.0
1000
MAX
1011
9.4499995708465558
1021
0.0
1031
-2.4258395946508164E+229
1021
7.1999995708465558
1031
0.0
1000
FLAGS
1070
     4
1001
GENIUS_GENODEF_13
1002
{
1000
HIER
1070
     0
1002
}
1002
{
1000
MANEDIT
1070
     0
1002
}
1002
{
1000
NOSEL
1070
     0
1002
}
1002
{
1000
BEHIND
1070
     0
1002
}
1002
{
1000
OTHER
1070
     0
1002
}
1002
{
1000
REACTOR
1002
}
1001
GENIUS_GENOBJ-N-SDF_13
1002
{
1000
OWNER
1000
GEN
1002
}
  0
ENDSEC
  0
EOF
