  0
SECTION
  2
HEADER
  9
$ACADVER
  1
AC1009
  9
$INSBASE
 10
0.0
 20
0.0
 30
0.0
  9
$EXTMIN
 10
-68.279877331806873
 20
-70.0
 30
0.0
  9
$EXTMAX
 10
121.0000004768375
 20
80.908910296836197
 30
0.0
  9
$LIMMIN
 10
0.0
 20
0.0
  9
$LIMMAX
 10
12.0
 20
9.0
  9
$ORTHOMODE
 70
     0
  9
$REGENMODE
 70
     1
  9
$FILLMODE
 70
     1
  9
$QTEXTMODE
 70
     0
  9
$MIRRTEXT
 70
     1
  9
$DRAGMODE
 70
     2
  9
$LTSCALE
 40
1.0
  9
$OSMODE
 70
    37
  9
$ATTMODE
 70
     1
  9
$TEXTSIZE
 40
0.2
  9
$TRACEWID
 40
0.05
  9
$TEXTSTYLE
  7
STANDARD
  9
$CLAYER
  8
0
  9
$CELTYPE
  6
BYLAYER
  9
$CECOLOR
 62
   256
  9
$DIMSCALE
 40
1.0
  9
$DIMASZ
 40
0.18
  9
$DIMEXO
 40
0.0625
  9
$DIMDLI
 40
0.38
  9
$DIMRND
 40
0.0
  9
$DIMDLE
 40
0.0
  9
$DIMEXE
 40
0.18
  9
$DIMTP
 40
0.0
  9
$DIMTM
 40
0.0
  9
$DIMTXT
 40
0.18
  9
$DIMCEN
 40
0.09
  9
$DIMTSZ
 40
0.0
  9
$DIMTOL
 70
     0
  9
$DIMLIM
 70
     0
  9
$DIMTIH
 70
     1
  9
$DIMTOH
 70
     1
  9
$DIMSE1
 70
     0
  9
$DIMSE2
 70
     0
  9
$DIMTAD
 70
     0
  9
$DIMZIN
 70
     0
  9
$DIMBLK
  1

  9
$DIMASO
 70
     1
  9
$DIMSHO
 70
     1
  9
$DIMPOST
  1

  9
$DIMAPOST
  1

  9
$DIMALT
 70
     0
  9
$DIMALTD
 70
     2
  9
$DIMALTF
 40
25.399999999999999
  9
$DIMLFAC
 40
1.0
  9
$DIMTOFL
 70
     0
  9
$DIMTVP
 40
0.0
  9
$DIMTIX
 70
     0
  9
$DIMSOXD
 70
     0
  9
$DIMSAH
 70
     0
  9
$DIMBLK1
  1

  9
$DIMBLK2
  1

  9
$DIMSTYLE
  2
STANDARD
  9
$DIMCLRD
 70
     0
  9
$DIMCLRE
 70
     0
  9
$DIMCLRT
 70
     0
  9
$DIMTFAC
 40
1.0
  9
$DIMGAP
 40
0.09
  9
$LUNITS
 70
     2
  9
$LUPREC
 70
     4
  9
$SKETCHINC
 40
0.1
  9
$FILLETRAD
 40
0.5
  9
$AUNITS
 70
     0
  9
$AUPREC
 70
     0
  9
$MENU
  1
.
  9
$ELEVATION
 40
0.0
  9
$PELEVATION
 40
0.0
  9
$THICKNESS
 40
0.0
  9
$LIMCHECK
 70
     0
  9
$BLIPMODE
 70
     0
  9
$CHAMFERA
 40
0.5
  9
$CHAMFERB
 40
0.5
  9
$SKPOLY
 70
     0
  9
$TDCREATE
 40
2451955.1727028699
  9
$TDUPDATE
 40
2454727.5613923138
  9
$TDINDWG
 40
0.0125280324
  9
$TDUSRTIMER
 40
0.0125278588
  9
$USRTIMER
 70
     1
  9
$ANGBASE
 50
0.0
  9
$ANGDIR
 70
     0
  9
$PDMODE
 70
     0
  9
$PDSIZE
 40
0.0
  9
$PLINEWID
 40
0.0
  9
$COORDS
 70
     1
  9
$SPLFRAME
 70
     0
  9
$SPLINETYPE
 70
     6
  9
$SPLINESEGS
 70
     8
  9
$ATTDIA
 70
     0
  9
$ATTREQ
 70
     1
  9
$HANDLING
 70
 22529
  9
$HANDSEED
  5
880
  9
$SURFTAB1
 70
     6
  9
$SURFTAB2
 70
     6
  9
$SURFTYPE
 70
     6
  9
$SURFU
 70
     6
  9
$SURFV
 70
     6
  9
$UCSNAME
  2

  9
$UCSORG
 10
0.0
 20
0.0
 30
0.0
  9
$UCSXDIR
 10
1.0
 20
0.0
 30
0.0
  9
$UCSYDIR
 10
0.0
 20
1.0
 30
0.0
  9
$PUCSNAME
  2

  9
$PUCSORG
 10
0.0
 20
0.0
 30
0.0
  9
$PUCSXDIR
 10
1.0
 20
0.0
 30
0.0
  9
$PUCSYDIR
 10
0.0
 20
1.0
 30
0.0
  9
$USERI1
 70
     0
  9
$USERI2
 70
     0
  9
$USERI3
 70
     0
  9
$USERI4
 70
     0
  9
$USERI5
 70
     0
  9
$USERR1
 40
0.0
  9
$USERR2
 40
0.0
  9
$USERR3
 40
0.0
  9
$USERR4
 40
0.0
  9
$USERR5
 40
0.0
  9
$WORLDVIEW
 70
     1
  9
$SHADEDGE
 70
     3
  9
$SHADEDIF
 70
    70
  9
$TILEMODE
 70
     1
  9
$MAXACTVP
 70
    48
  9
$PLIMCHECK
 70
     0
  9
$PEXTMIN
 10
1.049636599258096
 20
0.7996597240971113
 30
-0.0015258207003583
  9
$PEXTMAX
 10
9.4503627310769716
 20
7.2003400826974584
 30
0.0000000349246037
  9
$PLIMMIN
 10
-0.2500002402958907
 20
-0.2499999962453767
  9
$PLIMMAX
 10
10.74999951940821
 20
8.2499997634587316
  9
$UNITMODE
 70
     0
  9
$VISRETAIN
 70
     1
  9
$PLINEGEN
 70
     0
  9
$PSLTSCALE
 70
     1
  0
ENDSEC
  0
SECTION
  2
TABLES
  0
TABLE
  2
VPORT
 70
     2
  0
VPORT
  2
*ACTIVE
 70
     0
 10
0.0
 20
0.0
 11
1.0
 21
1.0
 12
26.36006201321689
 22
5.4544554997803232
 13
0.0
 23
0.0
 14
0.5
 24
0.5
 15
0.5
 25
0.5
 16
0.0
 26
0.0
 36
1.0
 17
0.0
 27
0.0
 37
0.0
 40
152.1210099634043
 41
1.5031210986267161
 42
50.0
 43
0.0
 44
0.0
 50
0.0
 51
0.0
 71
     0
 72
   100
 73
     1
 74
     3
 75
     0
 76
     0
 77
     0
 78
     0
  0
ENDTAB
  0
TABLE
  2
LTYPE
 70
     2
  0
LTYPE
  2
CONTINUOUS
 70
     0
  3
Solid line
 72
    65
 73
     0
 40
0.0
  0
LTYPE
  2
CENTER
 70
     0
  3
__ . __
 72
    65
 73
     4
 40
7.0
 49
4.0
 49
-1.0
 49
1.0
 49
-1.0
  0
ENDTAB
  0
TABLE
  2
LAYER
 70
     1
  0
LAYER
  2
0
 70
     0
 62
     7
  6
CONTINUOUS
  0
ENDTAB
  0
TABLE
  2
STYLE
 70
     1
  0
STYLE
  2
STANDARD
 70
     0
 40
0.0
 41
1.0
 50
0.0
 71
     0
 42
0.2
  3
txt
  4

  0
ENDTAB
  0
TABLE
  2
VIEW
 70
     0
  0
ENDTAB
  0
TABLE
  2
UCS
 70
     0
  0
ENDTAB
  0
TABLE
  2
APPID
 70
    19
  0
APPID
  2
ACAD
 70
     0
  0
APPID
  2
GENIUS_GENODEF_13
 70
     0
  0
APPID
  2
ACAD_DSTYLE_DIMARC_LENGTH_
 70
     0
  0
APPID
  2
ACAD_DSTYLE_DIMJOGGED_JOGA
 70
     0
  0
APPID
  2
GENIUS_GENOBJ-N-FIL_13
 70
     0
  0
APPID
  2
ACAD_MLEADERVER
 70
     0
  0
APPID
  2
MCAD_NO_VIS
 70
     0
  0
APPID
  2
ACAD_TEMP_GRAPHIC
 70
     0
  0
APPID
  2
AD_DRAW
 70
     0
  0
APPID
  2
ACATTRIBSERVICES
 70
     0
  0
APPID
  2
DESIGNERASSEMBLIES
 70
     0
  0
APPID
  2
ACADM_DIM_EDIT
 70
     0
  0
APPID
  2
AMDT_DM_ADJ
 70
     0
  0
APPID
  2
GENIUS_GENSCREG_15
 70
     0
  0
APPID
  2
GENIUS_GENOBJ-N-SDF_13
 70
     0
  0
APPID
  2
ACAD_EXEMPT_FROM_CAD_STANDARDS
 70
     0
  0
APPID
  2
ACAD_DSTYLE_DIM_LINETYPE
 70
     0
  0
APPID
  2
ACAD_DSTYLE_DIM_EXT1_LINETYPE
 70
     0
  0
APPID
  2
ACAD_DSTYLE_DIM_EXT2_LINETYPE
 70
     0
  0
ENDTAB
  0
TABLE
  2
DIMSTYLE
 70
     1
  0
DIMSTYLE
  2
STANDARD
 70
     0
  3

  4

  5

  6

  7

 40
1.0
 41
0.18
 42
0.0625
 43
0.38
 44
0.18
 45
0.0
 46
0.0
 47
0.0
 48
0.0
140
0.18
141
0.09
142
0.0
143
25.399999999999999
144
1.0
145
0.0
146
1.0
147
0.09
 71
     0
 72
     0
 73
     1
 74
     1
 75
     0
 76
     0
 77
     0
 78
     0
170
     0
171
     2
172
     0
173
     0
174
     0
175
     0
176
     0
177
     0
178
     0
  0
ENDTAB
  0
ENDSEC
  0
SECTION
  2
BLOCKS
  0
BLOCK
  8
0
  2
$MODEL_SPACE
 70
     0
 10
0.0
 20
0.0
 30
0.0
  3
$MODEL_SPACE
  1

  0
ENDBLK
  5
21
  8
0
  0
BLOCK
 67
     1
  8
0
  2
$PAPER_SPACE
 70
     0
 10
0.0
 20
0.0
 30
0.0
  3
$PAPER_SPACE
  1

  0
ENDBLK
  5
60
 67
     1
  8
0
  0
ENDSEC
  0
SECTION
  2
ENTITIES
  0
TEXT
  5
10C
  8
0
 10
0.7892459962327987
 20
75.908910296836154
 30
0.0
 40
5.0
  1
13MVHM-LW 3S
  0
LINE
  5
774
  8
0
 10
2.9999999999999849
 20
-67.0
 30
0.0
 11
3.0
 21
-42.393985999999977
 31
0.0
  0
LINE
  5
775
  8
0
 10
14.99999999999998
 20
-67.0
 30
0.0
 11
15.0
 21
-50.311531000000002
 31
0.0
  0
LINE
  5
776
  8
0
 10
2.9999999999999849
 20
-67.0
 30
0.0
 11
14.99999999999998
 21
-67.0
 31
0.0
  0
LINE
  5
777
  8
0
 10
-15.0
 20
-67.0
 30
0.0
 11
-15.0
 21
-50.311531000000002
 31
0.0
  0
LINE
  5
778
  8
0
 10
-3.0000000000000142
 20
-67.0
 30
0.0
 11
-15.0
 21
-67.0
 31
0.0
  0
LINE
  5
779
  8
0
 10
-3.0000000000000142
 20
-67.0
 30
0.0
 11
-3.0
 21
-42.393985999999977
 31
0.0
  0
LINE
  5
77A
  8
0
 10
-3.0000000000000142
 20
-64.0
 30
0.0
 11
2.9999999999999849
 21
-64.0
 31
0.0
  0
LINE
  5
77B
  8
0
 10
-3.0
 20
-56.0
 30
0.0
 11
3.0
 21
-56.0
 31
0.0
  0
LINE
  5
77C
  8
0
 10
15.000000000000011
 20
67.0
 30
0.0
 11
15.0
 21
50.311531000000002
 31
0.0
  0
LINE
  5
77D
  8
0
 10
3.0000000000000142
 20
67.0
 30
0.0
 11
15.000000000000011
 21
67.0
 31
0.0
  0
LINE
  5
77E
  8
0
 10
3.0000000000000142
 20
67.0
 30
0.0
 11
3.0
 21
42.393985999999977
 31
0.0
  0
LINE
  5
77F
  8
0
 10
-2.9999999999999849
 20
67.0
 30
0.0
 11
-14.999999999999989
 21
67.0
 31
0.0
  0
LINE
  5
780
  8
0
 10
-2.9999999999999849
 20
67.0
 30
0.0
 11
-3.0
 21
42.393985999999977
 31
0.0
  0
LINE
  5
781
  8
0
 10
-2.9999999999999849
 20
64.0
 30
0.0
 11
3.0000000000000142
 21
64.0
 31
0.0
  0
LINE
  5
782
  8
0
 10
-3.0
 20
56.0
 30
0.0
 11
3.0
 21
56.0
 31
0.0
  0
LINE
  5
783
  8
0
 10
-14.999999999999989
 20
67.0
 30
0.0
 11
-14.999999999999989
 21
50.311531000000002
 31
0.0
  0
LINE
  5
784
  8
0
 10
-28.999999999999989
 20
64.0
 30
0.0
 11
-23.499999999999989
 21
64.0
 31
0.0
  0
LINE
  5
785
  8
0
 10
-23.499999999999989
 20
65.0
 30
0.0
 11
-23.499999999999989
 21
55.0
 31
0.0
  0
LINE
  5
786
  8
0
 10
-28.999999999999989
 20
64.0
 30
0.0
 11
-28.999999999999989
 21
56.0
 31
0.0
  0
LINE
  5
787
  8
0
 10
-22.499999999999989
 20
66.0
 30
0.0
 11
-21.499999999999989
 21
66.0
 31
0.0
  0
LINE
  5
788
  8
0
 10
-22.499999999999989
 20
54.0
 30
0.0
 11
-21.499999999999989
 21
54.0
 31
0.0
  0
LINE
  5
789
  8
0
 10
-20.77510599999998
 20
60.0
 30
0.0
 11
-15.724894000000001
 21
60.0
 31
0.0
  0
LINE
  5
78A
  8
0
 10
-21.499999999999989
 20
53.5
 30
0.0
 11
-21.499999999999989
 21
66.5
 31
0.0
  0
LINE
  5
78B
  8
0
 10
-21.499999999999989
 20
53.5
 30
0.0
 11
-14.999999999999989
 21
53.5
 31
0.0
  0
LINE
  5
78C
  8
0
 10
-21.499999999999989
 20
66.5
 30
0.0
 11
-14.999999999999989
 21
66.5
 31
0.0
  0
LINE
  5
78D
  8
0
 10
-28.999999999999989
 20
56.0
 30
0.0
 11
-23.499999999999989
 21
56.0
 31
0.0
  0
LINE
  5
78E
  8
0
  6
CENTER
 10
-30.651334999999978
 20
60.0
 30
0.0
 11
25.73515100000003
 21
60.0
 31
0.0
  0
LINE
  5
78F
  8
0
 10
19.77510599999999
 20
60.0
 30
0.0
 11
15.0
 21
60.0
 31
0.0
  0
LINE
  5
790
  8
0
 10
20.5
 20
63.25
 30
0.0
 11
20.5
 21
56.75
 31
0.0
  0
LINE
  5
791
  8
0
 10
19.77510599999999
 20
66.5
 30
0.0
 11
15.000000000000011
 21
66.5
 31
0.0
  0
LINE
  5
792
  8
0
 10
19.77510599999999
 20
53.5
 30
0.0
 11
15.0
 21
53.5
 31
0.0
  0
LINE
  5
793
  8
0
 10
19.77510599999999
 20
-60.0
 30
0.0
 11
15.0
 21
-60.0
 31
0.0
  0
LINE
  5
794
  8
0
 10
20.5
 20
-63.25
 30
0.0
 11
20.5
 21
-56.75
 31
0.0
  0
LINE
  5
795
  8
0
 10
19.77510599999999
 20
-66.5
 30
0.0
 11
14.99999999999998
 21
-66.5
 31
0.0
  0
LINE
  5
796
  8
0
 10
19.77510599999999
 20
-53.5
 30
0.0
 11
15.0
 21
-53.5
 31
0.0
  0
LINE
  5
797
  8
0
 10
-29.0
 20
-64.0
 30
0.0
 11
-23.5
 21
-64.0
 31
0.0
  0
LINE
  5
798
  8
0
 10
-23.5
 20
-65.0
 30
0.0
 11
-23.5
 21
-55.0
 31
0.0
  0
LINE
  5
799
  8
0
 10
-29.0
 20
-64.0
 30
0.0
 11
-29.0
 21
-56.0
 31
0.0
  0
LINE
  5
79A
  8
0
 10
-22.5
 20
-66.0
 30
0.0
 11
-21.5
 21
-66.0
 31
0.0
  0
LINE
  5
79B
  8
0
 10
-22.5
 20
-54.0
 30
0.0
 11
-21.5
 21
-54.0
 31
0.0
  0
LINE
  5
79C
  8
0
 10
-20.775106000000001
 20
-60.0
 30
0.0
 11
-15.72489400000001
 21
-60.0
 31
0.0
  0
LINE
  5
79D
  8
0
 10
-21.5
 20
-53.5
 30
0.0
 11
-21.5
 21
-66.5
 31
0.0
  0
LINE
  5
79E
  8
0
 10
-21.5
 20
-53.5
 30
0.0
 11
-15.0
 21
-53.5
 31
0.0
  0
LINE
  5
79F
  8
0
 10
-21.5
 20
-66.5
 30
0.0
 11
-15.0
 21
-66.5
 31
0.0
  0
LINE
  5
7A0
  8
0
 10
-29.0
 20
-56.0
 30
0.0
 11
-23.5
 21
-56.0
 31
0.0
  0
LINE
  5
7A1
  8
0
  6
CENTER
 10
-30.651334999999989
 20
-60.0
 30
0.0
 11
27.103132000000009
 21
-60.0
 31
0.0
  0
ARC
  5
7A2
  8
0
 10
0.0
 20
0.0
 30
0.0
 40
52.5
 50
273.2758399999982
 51
90.0
  0
ARC
  5
7A3
  8
0
 10
0.0
 20
0.0
 30
0.0
 40
42.5
 50
94.047769999998465
 51
265.95222700000153
  0
ARC
  5
7A4
  8
0
 10
0.0
 20
0.0
 30
0.0
 40
44.5
 50
94.047769999998465
 51
265.95222700000153
  0
ARC
  5
7A5
  8
0
 10
0.0
 20
0.0
 30
0.0
 40
52.5
 50
93.27583000000034
 51
266.72416899999922
  0
ARC
  5
7A6
  8
0
 10
0.0
 20
0.0
 30
0.0
 40
42.5
 50
274.04777800000062
 51
85.952239999999279
  0
ARC
  5
7A7
  8
0
 10
0.0
 20
0.0
 30
0.0
 40
44.5
 50
274.04777800000062
 51
90.0
  0
ARC
  5
7A8
  8
0
 10
-22.499999999999989
 20
65.0
 30
0.0
 40
1.0
 50
90.0
 51
180.0000050089553
  0
ARC
  5
7A9
  8
0
 10
-22.499999999999989
 20
55.0
 30
0.0
 40
1.0
 50
179.99999000000059
 51
269.99999599999762
  0
ARC
  5
7AA
  8
0
 10
-13.852005000000011
 20
56.75
 30
0.0
 40
7.647994999999999
 50
154.85262000000051
 51
205.14737199999951
  0
ARC
  5
7AB
  8
0
 10
-13.852005000000011
 20
63.25
 30
0.0
 40
7.647994999999999
 50
154.85262999999949
 51
205.14737199999951
  0
ARC
  5
7AC
  8
0
 10
-22.647995000000002
 20
56.75
 30
0.0
 40
7.647994999999999
 50
334.85262999999958
 51
25.147370000000411
  0
ARC
  5
7AD
  8
0
 10
-22.647995000000002
 20
63.25
 30
0.0
 40
7.647994999999999
 50
334.85262999999958
 51
25.147370000000411
  0
ARC
  5
7AE
  8
0
 10
12.852005000000011
 20
63.25
 30
0.0
 40
7.6479945000000011
 50
334.85262999999958
 51
25.147370000000411
  0
ARC
  5
7AF
  8
0
 10
12.852005000000011
 20
56.75
 30
0.0
 40
7.6479945000000011
 50
334.85262999999958
 51
25.147370000000411
  0
ARC
  5
7B0
  8
0
 10
12.852005000000011
 20
-63.25
 30
0.0
 40
7.6479945000000011
 50
334.85262999999958
 51
25.147370000000411
  0
ARC
  5
7B1
  8
0
 10
12.852005000000011
 20
-56.75
 30
0.0
 40
7.6479945000000011
 50
334.85262999999958
 51
25.147370000000411
  0
ARC
  5
7B2
  8
0
 10
-22.5
 20
-65.0
 30
0.0
 40
1.0
 50
179.99999000000059
 51
269.99999599999762
  0
ARC
  5
7B3
  8
0
 10
-22.5
 20
-55.0
 30
0.0
 40
1.0
 50
90.0
 51
180.0000050089553
  0
ARC
  5
7B4
  8
0
 10
-13.85200500000002
 20
-56.75
 30
0.0
 40
7.647994999999999
 50
154.85262999999949
 51
205.1473749999999
  0
ARC
  5
7B5
  8
0
 10
-13.85200500000002
 20
-63.25
 30
0.0
 40
7.647994999999999
 50
154.85262999999949
 51
205.14736800000091
  0
ARC
  5
7B6
  8
0
 10
-22.647995000000009
 20
-56.75
 30
0.0
 40
7.647994999999999
 50
334.85262999999958
 51
25.147370000000411
  0
ARC
  5
7B7
  8
0
 10
-22.647995000000009
 20
-63.25
 30
0.0
 40
7.647994999999999
 50
334.85262999999958
 51
25.147370000000411
  0
LINE
  5
7B8
  8
0
  6
CENTER
 10
0.0
 20
-68.279877331806873
 30
0.0
 11
0.0
 21
68.279877331806858
 31
0.0
  0
LINE
  5
7B9
  8
0
  6
CENTER
 10
-68.279877331806873
 20
0.0
 30
0.0
 11
68.279877331806858
 21
0.0
 31
0.0
  0
LINE
  5
7BA
  8
0
 10
107.2472238768375
 20
66.5
 30
0.0
 11
114.7527780768375
 21
66.5
 31
0.0
  0
LINE
  5
7BB
  8
0
 10
114.7527761768375
 20
66.500000999999983
 30
0.0
 11
118.5055532768375
 21
60.0
 31
0.0
  0
LINE
  5
7BC
  8
0
 10
118.5055549768375
 20
60.000000999999997
 30
0.0
 11
114.7527778768375
 21
53.5
 31
0.0
  0
LINE
  5
7BD
  8
0
 10
114.7527780768375
 20
53.5
 30
0.0
 11
107.2472238768375
 21
53.5
 31
0.0
  0
LINE
  5
7BE
  8
0
 10
103.4944459768375
 20
60.000000999999997
 30
0.0
 11
107.2472230768375
 21
53.5
 31
0.0
  0
LINE
  5
7BF
  8
0
 10
107.2472214768375
 20
66.500002999999992
 30
0.0
 11
103.49444437683751
 21
60.000001999999988
 31
0.0
  0
LINE
  5
7C0
  8
0
 10
103.4944459768375
 20
-60.000000999999997
 30
0.0
 11
107.2472230768375
 21
-53.5
 31
0.0
  0
LINE
  5
7C1
  8
0
 10
107.2472247768375
 20
-66.500000999999983
 30
0.0
 11
103.4944476768375
 21
-60.0
 31
0.0
  0
LINE
  5
7C2
  8
0
 10
114.7527770768375
 20
-66.5
 30
0.0
 11
107.2472228768375
 21
-66.5
 31
0.0
  0
LINE
  5
7C3
  8
0
 10
114.7527794768375
 20
-66.500003000000007
 30
0.0
 11
118.50555657683751
 21
-60.000002000000002
 31
0.0
  0
LINE
  5
7C4
  8
0
 10
118.5055549768375
 20
-60.000000999999997
 30
0.0
 11
114.7527778768375
 21
-53.5
 31
0.0
  0
LINE
  5
7C5
  8
0
 10
107.2472228768375
 20
-53.5
 30
0.0
 11
114.7527770768375
 21
-53.5
 31
0.0
  0
LINE
  5
7C6
  8
0
  6
CENTER
 10
101.0000004768375
 20
-60.0
 30
0.0
 11
121.0000004768375
 21
-60.0
 31
0.0
  0
LINE
  5
7C7
  8
0
  6
CENTER
 10
111.0000009536747
 20
-70.0
 30
0.0
 11
111.0000009536747
 21
-50.0
 31
0.0
  0
LINE
  5
7C8
  8
0
  6
CENTER
 10
100.9999994768375
 20
60.0
 30
0.0
 11
120.9999994768375
 21
60.0
 31
0.0
  0
LINE
  5
7C9
  8
0
  6
CENTER
 10
100.9999994768375
 20
0.0
 30
0.0
 11
120.9999994768375
 21
0.0
 31
0.0
  0
LINE
  5
7CA
  8
0
  6
CENTER
 10
111.0
 20
50.0
 30
0.0
 11
111.0
 21
70.0
 31
0.0
  0
LINE
  5
7CB
  8
0
 10
102.4999999999999
 20
-44.398761243980623
 30
0.0
 11
102.4999999999999
 21
44.39876124398063
 31
0.0
  0
LINE
  5
7CC
  8
0
 10
105.4117618741296
 20
-55.784362385631233
 30
0.0
 11
105.4117618741296
 21
55.784362385631219
 31
0.0
  0
LINE
  5
7CD
  8
0
 10
102.4999999999999
 20
44.39876124398063
 30
0.0
 11
105.4117618741296
 21
52.414215628968428
 31
0.0
  0
LINE
  5
7CE
  8
0
 10
105.4117618741296
 20
50.311531000000002
 30
0.0
 11
116.5882381258704
 21
50.311531000000002
 31
0.0
  0
ARC
  5
7CF
  8
0
 10
110.9999994768375
 20
60.0
 30
0.0
 40
7.0
 50
322.9699539554245
 51
351.7867614501933
  0
ARC
  5
7D0
  8
0
 10
110.9999994768375
 20
60.0
 30
0.0
 40
7.0
 50
8.2132171087577763
 51
51.786779888730152
  0
ARC
  5
7D1
  8
0
 10
110.9999994768375
 20
60.0
 30
0.0
 40
7.0
 50
68.213210701738234
 51
111.7867892982617
  0
ARC
  5
7D2
  8
0
 10
110.9999994768375
 20
60.0
 30
0.0
 40
7.0
 50
128.21326699266049
 51
171.7867360098515
  0
ARC
  5
7D3
  8
0
 10
110.9999994768375
 20
60.0
 30
0.0
 40
7.0
 50
188.21320035260271
 51
217.0300602654398
  0
LINE
  5
7D4
  8
0
 10
119.5
 20
44.398761243980609
 30
0.0
 11
116.5882381258704
 21
52.414215628968428
 31
0.0
  0
LINE
  5
7D5
  8
0
 10
119.5
 20
44.398761243980609
 30
0.0
 11
119.5
 21
-44.398761243980609
 31
0.0
  0
LINE
  5
7D6
  8
0
 10
102.4999999999999
 20
-44.398761243980623
 30
0.0
 11
105.4117618741296
 21
-52.414215628968428
 31
0.0
  0
LINE
  5
7D7
  8
0
 10
105.4117618741296
 20
-50.311531000000002
 30
0.0
 11
116.5882381258704
 21
-50.311531000000002
 31
0.0
  0
ARC
  5
7D8
  8
0
 10
110.9999994768375
 20
-60.0
 30
0.0
 40
7.0
 50
142.96993973456011
 51
171.7867996473972
  0
ARC
  5
7D9
  8
0
 10
110.9999994768375
 20
-60.0
 30
0.0
 40
7.0
 50
188.21317891158969
 51
231.78681808589849
  0
ARC
  5
7DA
  8
0
 10
110.9999994768375
 20
-60.0
 30
0.0
 40
7.0
 50
248.21321070173821
 51
291.78678929826168
  0
ARC
  5
7DB
  8
0
 10
110.9999994768375
 20
-60.0
 30
0.0
 40
7.0
 50
308.21330518997058
 51
351.78669781254189
  0
ARC
  5
7DC
  8
0
 10
110.9999994768375
 20
-60.0
 30
0.0
 40
7.0
 50
8.2132385498066363
 51
37.030046044575457
  0
LINE
  5
7DD
  8
0
 10
116.5882381258704
 20
55.784363772636958
 30
0.0
 11
116.5882381258704
 21
-55.784363772636951
 31
0.0
  0
LINE
  5
7DE
  8
0
 10
119.5
 20
-44.398761243980609
 30
0.0
 11
116.5882381258704
 21
-52.414215628968428
 31
0.0
  0
VIEWPORT
  5
79
 67
     1
  8
0
 10
5.2499996395561617
 20
3.9999998836066761
 30
0.0
 40
15.015580297613511
 41
8.5939224089826052
 68
     1
 69
     1
1001
ACAD
1000
MVIEW
1002
{
1070
    16
1010
0.0
1020
0.0
1030
0.0
1010
0.0
1020
0.0
1030
1.0
1040
0.0
1040
8.5939224089826052
1040
5.2499996395561617
1040
3.9999998836066761
1040
50.0
1040
0.0
1040
0.0
1070
     0
1070
   100
1070
     1
1070
     1
1070
     0
1070
     0
1070
     0
1070
     0
1040
0.0
1040
0.0
1040
0.0
1040
10.0
1040
10.0
1040
10.0
1040
10.0
1070
     0
1002
{
1002
}
1002
}
1001
GENIUS_GENSCREG_15
1000
PF
1040
1.0
1000
DF
1040
1.0
1000
MIN
1011
-2.2577905092505972
1021
0.0
1031
0.0
1021
-0.2969613208846251
1031
0.0
1000
MAX
1011
12.757789788362921
1021
0.0
1031
0.0
1021
8.2969610880979801
1031
0.0
1000
FLAGS
1070
     4
1001
GENIUS_GENODEF_13
1002
{
1000
HIER
1070
     0
1002
}
1002
{
1000
MANEDIT
1070
     0
1002
}
1002
{
1000
NOSEL
1070
     0
1002
}
1002
{
1000
BEHIND
1070
     0
1002
}
1002
{
1000
OTHER
1070
     0
1002
}
1002
{
1000
REACTOR
1002
}
1001
GENIUS_GENOBJ-N-SDF_13
1002
{
1000
OWNER
1000
GEN
1002
}
  0
VIEWPORT
  5
7B
 67
     1
  8
0
 10
5.24999976158142
 20
3.99999976158142
 30
0.0
 40
8.3999996185302717
 41
6.3999996185302717
 68
     2
 69
     2
1001
ACAD
1000
MVIEW
1002
{
1070
    16
1010
0.0
1020
0.0
1030
0.0
1010
0.0
1020
0.0
1030
1.0
1040
0.0
1040
9.2590797717467002
1040
6.0
1040
4.5
1040
50.0
1040
0.0
1040
0.0
1070
     0
1070
   100
1070
     1
1070
     3
1070
     0
1070
     0
1070
     0
1070
     0
1040
0.0
1040
0.0
1040
0.0
1040
0.5
1040
0.5
1040
0.5
1040
0.5
1070
     0
1002
{
1002
}
1002
}
1001
GENIUS_GENSCREG_15
1000
PF
1040
0.0
1000
DF
1040
0.0
1000
MIN
1011
1.049999952316284
1021
0.0
1031
0.0
1021
0.7999999523162842
1031
0.0
1000
MAX
1011
9.4499995708465558
1021
0.0
1031
0.0
1021
7.1999995708465558
1031
0.0
1000
FLAGS
1070
     4
1001
GENIUS_GENODEF_13
1002
{
1000
HIER
1070
     0
1002
}
1002
{
1000
MANEDIT
1070
     0
1002
}
1002
{
1000
NOSEL
1070
     0
1002
}
1002
{
1000
BEHIND
1070
     0
1002
}
1002
{
1000
OTHER
1070
     0
1002
}
1002
{
1000
REACTOR
1002
}
1001
GENIUS_GENOBJ-N-SDF_13
1002
{
1000
OWNER
1000
GEN
1002
}
  0
ENDSEC
  0
EOF
