  0
SECTION
  2
HEADER
  9
$ACADVER
  1
AC1009
  9
$INSBASE
 10
0.0
 20
0.0
 30
0.0
  9
$EXTMIN
 10
-61.03616070514402
 20
-64.0
 30
0.0
  9
$EXTMAX
 10
113.5000004768375
 20
73.665193670173352
 30
0.0
  9
$LIMMIN
 10
0.0
 20
0.0
  9
$LIMMAX
 10
12.0
 20
9.0
  9
$ORTHOMODE
 70
     0
  9
$REGENMODE
 70
     1
  9
$FILLMODE
 70
     1
  9
$QTEXTMODE
 70
     0
  9
$MIRRTEXT
 70
     1
  9
$DRAGMODE
 70
     2
  9
$LTSCALE
 40
1.0
  9
$OSMODE
 70
    37
  9
$ATTMODE
 70
     1
  9
$TEXTSIZE
 40
0.2
  9
$TRACEWID
 40
0.05
  9
$TEXTSTYLE
  7
STANDARD
  9
$CLAYER
  8
0
  9
$CELTYPE
  6
BYLAYER
  9
$CECOLOR
 62
   256
  9
$DIMSCALE
 40
1.0
  9
$DIMASZ
 40
0.18
  9
$DIMEXO
 40
0.0625
  9
$DIMDLI
 40
0.38
  9
$DIMRND
 40
0.0
  9
$DIMDLE
 40
0.0
  9
$DIMEXE
 40
0.18
  9
$DIMTP
 40
0.0
  9
$DIMTM
 40
0.0
  9
$DIMTXT
 40
0.18
  9
$DIMCEN
 40
0.09
  9
$DIMTSZ
 40
0.0
  9
$DIMTOL
 70
     0
  9
$DIMLIM
 70
     0
  9
$DIMTIH
 70
     1
  9
$DIMTOH
 70
     1
  9
$DIMSE1
 70
     0
  9
$DIMSE2
 70
     0
  9
$DIMTAD
 70
     0
  9
$DIMZIN
 70
     0
  9
$DIMBLK
  1

  9
$DIMASO
 70
     1
  9
$DIMSHO
 70
     1
  9
$DIMPOST
  1

  9
$DIMAPOST
  1

  9
$DIMALT
 70
     0
  9
$DIMALTD
 70
     2
  9
$DIMALTF
 40
25.399999999999999
  9
$DIMLFAC
 40
1.0
  9
$DIMTOFL
 70
     0
  9
$DIMTVP
 40
0.0
  9
$DIMTIX
 70
     0
  9
$DIMSOXD
 70
     0
  9
$DIMSAH
 70
     0
  9
$DIMBLK1
  1

  9
$DIMBLK2
  1

  9
$DIMSTYLE
  2
STANDARD
  9
$DIMCLRD
 70
     0
  9
$DIMCLRE
 70
     0
  9
$DIMCLRT
 70
     0
  9
$DIMTFAC
 40
1.0
  9
$DIMGAP
 40
0.09
  9
$LUNITS
 70
     2
  9
$LUPREC
 70
     4
  9
$SKETCHINC
 40
0.1
  9
$FILLETRAD
 40
0.5
  9
$AUNITS
 70
     0
  9
$AUPREC
 70
     0
  9
$MENU
  1
.
  9
$ELEVATION
 40
0.0
  9
$PELEVATION
 40
0.0
  9
$THICKNESS
 40
0.0
  9
$LIMCHECK
 70
     0
  9
$BLIPMODE
 70
     0
  9
$CHAMFERA
 40
0.5
  9
$CHAMFERB
 40
0.5
  9
$SKPOLY
 70
     0
  9
$TDCREATE
 40
2451955.1727028699
  9
$TDUPDATE
 40
2454727.56140552
  9
$TDINDWG
 40
0.0126649306
  9
$TDUSRTIMER
 40
0.0126647569
  9
$USRTIMER
 70
     1
  9
$ANGBASE
 50
0.0
  9
$ANGDIR
 70
     0
  9
$PDMODE
 70
     0
  9
$PDSIZE
 40
0.0
  9
$PLINEWID
 40
0.0
  9
$COORDS
 70
     1
  9
$SPLFRAME
 70
     0
  9
$SPLINETYPE
 70
     6
  9
$SPLINESEGS
 70
     8
  9
$ATTDIA
 70
     0
  9
$ATTREQ
 70
     1
  9
$HANDLING
 70
 22529
  9
$HANDSEED
  5
886
  9
$SURFTAB1
 70
     6
  9
$SURFTAB2
 70
     6
  9
$SURFTYPE
 70
     6
  9
$SURFU
 70
     6
  9
$SURFV
 70
     6
  9
$UCSNAME
  2

  9
$UCSORG
 10
0.0
 20
0.0
 30
0.0
  9
$UCSXDIR
 10
1.0
 20
0.0
 30
0.0
  9
$UCSYDIR
 10
0.0
 20
1.0
 30
0.0
  9
$PUCSNAME
  2

  9
$PUCSORG
 10
0.0
 20
0.0
 30
0.0
  9
$PUCSXDIR
 10
1.0
 20
0.0
 30
0.0
  9
$PUCSYDIR
 10
0.0
 20
1.0
 30
0.0
  9
$USERI1
 70
     0
  9
$USERI2
 70
     0
  9
$USERI3
 70
     0
  9
$USERI4
 70
     0
  9
$USERI5
 70
     0
  9
$USERR1
 40
0.0
  9
$USERR2
 40
0.0
  9
$USERR3
 40
0.0
  9
$USERR4
 40
0.0
  9
$USERR5
 40
0.0
  9
$WORLDVIEW
 70
     1
  9
$SHADEDGE
 70
     3
  9
$SHADEDIF
 70
    70
  9
$TILEMODE
 70
     1
  9
$MAXACTVP
 70
    48
  9
$PLIMCHECK
 70
     0
  9
$PEXTMIN
 10
1.049636599258096
 20
0.7996597240971113
 30
-0.0015258207003583
  9
$PEXTMAX
 10
9.4503627310769716
 20
7.2003400826974584
 30
0.0000000349246037
  9
$PLIMMIN
 10
-0.2500002402958907
 20
-0.2499999962453767
  9
$PLIMMAX
 10
10.74999951940821
 20
8.2499997634587316
  9
$UNITMODE
 70
     0
  9
$VISRETAIN
 70
     1
  9
$PLINEGEN
 70
     0
  9
$PSLTSCALE
 70
     1
  0
ENDSEC
  0
SECTION
  2
TABLES
  0
TABLE
  2
VPORT
 70
     2
  0
VPORT
  2
*ACTIVE
 70
     0
 10
0.0
 20
0.0
 11
1.0
 21
1.0
 12
26.231920292220391
 22
4.8325971556134268
 13
0.0
 23
0.0
 14
0.5
 24
0.5
 15
0.5
 25
0.5
 16
0.0
 26
0.0
 36
1.0
 17
0.0
 27
0.0
 37
0.0
 40
138.76021521298469
 41
1.5031210986267161
 42
50.0
 43
0.0
 44
0.0
 50
0.0
 51
0.0
 71
     0
 72
   100
 73
     1
 74
     3
 75
     0
 76
     0
 77
     0
 78
     0
  0
ENDTAB
  0
TABLE
  2
LTYPE
 70
     2
  0
LTYPE
  2
CONTINUOUS
 70
     0
  3
Solid line
 72
    65
 73
     0
 40
0.0
  0
LTYPE
  2
CENTER
 70
     0
  3
__ . __
 72
    65
 73
     4
 40
7.0
 49
4.0
 49
-1.0
 49
1.0
 49
-1.0
  0
ENDTAB
  0
TABLE
  2
LAYER
 70
     1
  0
LAYER
  2
0
 70
     0
 62
     7
  6
CONTINUOUS
  0
ENDTAB
  0
TABLE
  2
STYLE
 70
     1
  0
STYLE
  2
STANDARD
 70
     0
 40
0.0
 41
1.0
 50
0.0
 71
     0
 42
0.2
  3
txt
  4

  0
ENDTAB
  0
TABLE
  2
VIEW
 70
     0
  0
ENDTAB
  0
TABLE
  2
UCS
 70
     0
  0
ENDTAB
  0
TABLE
  2
APPID
 70
    19
  0
APPID
  2
ACAD
 70
     0
  0
APPID
  2
GENIUS_GENODEF_13
 70
     0
  0
APPID
  2
ACAD_DSTYLE_DIMARC_LENGTH_
 70
     0
  0
APPID
  2
ACAD_DSTYLE_DIMJOGGED_JOGA
 70
     0
  0
APPID
  2
GENIUS_GENOBJ-N-FIL_13
 70
     0
  0
APPID
  2
ACAD_MLEADERVER
 70
     0
  0
APPID
  2
MCAD_NO_VIS
 70
     0
  0
APPID
  2
ACAD_TEMP_GRAPHIC
 70
     0
  0
APPID
  2
AD_DRAW
 70
     0
  0
APPID
  2
ACATTRIBSERVICES
 70
     0
  0
APPID
  2
DESIGNERASSEMBLIES
 70
     0
  0
APPID
  2
ACADM_DIM_EDIT
 70
     0
  0
APPID
  2
AMDT_DM_ADJ
 70
     0
  0
APPID
  2
GENIUS_GENSCREG_15
 70
     0
  0
APPID
  2
GENIUS_GENOBJ-N-SDF_13
 70
     0
  0
APPID
  2
ACAD_EXEMPT_FROM_CAD_STANDARDS
 70
     0
  0
APPID
  2
ACAD_DSTYLE_DIM_LINETYPE
 70
     0
  0
APPID
  2
ACAD_DSTYLE_DIM_EXT1_LINETYPE
 70
     0
  0
APPID
  2
ACAD_DSTYLE_DIM_EXT2_LINETYPE
 70
     0
  0
ENDTAB
  0
TABLE
  2
DIMSTYLE
 70
     1
  0
DIMSTYLE
  2
STANDARD
 70
     0
  3

  4

  5

  6

  7

 40
1.0
 41
0.18
 42
0.0625
 43
0.38
 44
0.18
 45
0.0
 46
0.0
 47
0.0
 48
0.0
140
0.18
141
0.09
142
0.0
143
25.399999999999999
144
1.0
145
0.0
146
1.0
147
0.09
 71
     0
 72
     0
 73
     1
 74
     1
 75
     0
 76
     0
 77
     0
 78
     0
170
     0
171
     2
172
     0
173
     0
174
     0
175
     0
176
     0
177
     0
178
     0
  0
ENDTAB
  0
ENDSEC
  0
SECTION
  2
BLOCKS
  0
BLOCK
  8
0
  2
$MODEL_SPACE
 70
     0
 10
0.0
 20
0.0
 30
0.0
  3
$MODEL_SPACE
  1

  0
ENDBLK
  5
21
  8
0
  0
BLOCK
 67
     1
  8
0
  2
$PAPER_SPACE
 70
     0
 10
0.0
 20
0.0
 30
0.0
  3
$PAPER_SPACE
  1

  0
ENDBLK
  5
60
 67
     1
  8
0
  0
ENDSEC
  0
SECTION
  2
ENTITIES
  0
TEXT
  5
10C
  8
0
 10
0.7892459962327987
 20
68.665193670173309
 30
0.0
 40
5.0
  1
13MVHM-LW 2.5S
  0
POINT
  5
770
  8
0
 10
0.0
 20
0.0
 30
0.0
 50
180.0
  0
POINT
  5
771
  8
0
 10
15.0
 20
-54.0
 30
0.0
 50
180.0
  0
POINT
  5
772
  8
0
 10
-15.0
 20
-54.0
 30
0.0
 50
180.0
  0
LINE
  5
773
  8
0
 10
2.9999999999999849
 20
-61.0
 30
0.0
 11
3.0
 21
-35.623905000000008
 31
0.0
  0
LINE
  5
774
  8
0
 10
15.0
 20
-61.0
 30
0.0
 11
15.0
 21
-43.221088000000009
 31
0.0
  0
LINE
  5
775
  8
0
 10
15.0
 20
-61.0
 30
0.0
 11
2.9999999999999849
 21
-61.0
 31
0.0
  0
LINE
  5
776
  8
0
 10
-15.0
 20
-61.0
 30
0.0
 11
-15.0
 21
-43.221088000000009
 31
0.0
  0
LINE
  5
777
  8
0
 10
-15.0
 20
-61.0
 30
0.0
 11
-3.0000000000000071
 21
-61.0
 31
0.0
  0
LINE
  5
778
  8
0
 10
-3.0000000000000071
 20
-61.0
 30
0.0
 11
-3.0000000000000071
 21
-35.623905000000008
 31
0.0
  0
LINE
  5
779
  8
0
 10
-3.0000000000000071
 20
-58.0
 30
0.0
 11
3.0
 21
-58.0
 31
0.0
  0
LINE
  5
77A
  8
0
 10
-3.0000000000000071
 20
-50.0
 30
0.0
 11
3.0
 21
-50.0
 31
0.0
  0
LINE
  5
77B
  8
0
 10
15.0
 20
61.0
 30
0.0
 11
3.0000000000000142
 21
61.0
 31
0.0
  0
LINE
  5
77C
  8
0
 10
3.0000000000000142
 20
61.0
 30
0.0
 11
3.0
 21
35.623905000000008
 31
0.0
  0
LINE
  5
77D
  8
0
 10
-14.999999999999989
 20
61.0
 30
0.0
 11
-2.999999999999992
 21
61.0
 31
0.0
  0
LINE
  5
77E
  8
0
 10
-2.999999999999992
 20
61.0
 30
0.0
 11
-2.999999999999992
 21
35.623905000000008
 31
0.0
  0
LINE
  5
77F
  8
0
 10
-2.999999999999992
 20
58.0
 30
0.0
 11
3.0
 21
58.0
 31
0.0
  0
LINE
  5
780
  8
0
 10
-2.999999999999992
 20
50.0
 30
0.0
 11
3.0
 21
50.0
 31
0.0
  0
LINE
  5
781
  8
0
 10
-14.999999999999989
 20
61.0
 30
0.0
 11
-14.999999999999989
 21
43.221088000000009
 31
0.0
  0
LINE
  5
782
  8
0
 10
-28.999999999999989
 20
50.0
 30
0.0
 11
-23.499999999999989
 21
50.0
 31
0.0
  0
LINE
  5
783
  8
0
 10
-23.499999999999989
 20
49.0
 30
0.0
 11
-23.499999999999989
 21
59.0
 31
0.0
  0
LINE
  5
784
  8
0
 10
-28.999999999999989
 20
50.0
 30
0.0
 11
-28.999999999999989
 21
58.0
 31
0.0
  0
LINE
  5
785
  8
0
 10
-22.499999999999989
 20
48.0
 30
0.0
 11
-21.499999999999989
 21
48.0
 31
0.0
  0
LINE
  5
786
  8
0
 10
-22.499999999999989
 20
60.0
 30
0.0
 11
-21.499999999999989
 21
60.0
 31
0.0
  0
LINE
  5
787
  8
0
 10
-20.775105999999919
 20
54.0
 30
0.0
 11
-15.72489399999994
 21
54.0
 31
0.0
  0
LINE
  5
788
  8
0
 10
-21.499999999999989
 20
60.5
 30
0.0
 11
-21.499999999999989
 21
47.5
 31
0.0
  0
LINE
  5
789
  8
0
 10
-21.499999999999989
 20
60.5
 30
0.0
 11
-14.999999999999989
 21
60.5
 31
0.0
  0
LINE
  5
78A
  8
0
 10
-21.499999999999989
 20
47.5
 30
0.0
 11
-14.999999999999989
 21
47.5
 31
0.0
  0
LINE
  5
78B
  8
0
 10
-28.999999999999989
 20
58.0
 30
0.0
 11
-23.499999999999989
 21
58.0
 31
0.0
  0
LINE
  5
78C
  8
0
  6
CENTER
 10
-30.65133499999995
 20
54.0
 30
0.0
 11
26.388515000000041
 21
54.0
 31
0.0
  0
LINE
  5
78D
  8
0
 10
19.775106000000051
 20
-54.0
 30
0.0
 11
15.0
 21
-54.0
 31
0.0
  0
LINE
  5
78E
  8
0
 10
20.5
 20
-50.75
 30
0.0
 11
20.5
 21
-57.25
 31
0.0
  0
LINE
  5
78F
  8
0
 10
19.775106000000051
 20
-47.5
 30
0.0
 11
15.0
 21
-47.5
 31
0.0
  0
LINE
  5
790
  8
0
 10
19.775106000000051
 20
-60.5
 30
0.0
 11
15.0
 21
-60.5
 31
0.0
  0
LINE
  5
791
  8
0
 10
-29.0
 20
-50.0
 30
0.0
 11
-23.5
 21
-50.0
 31
0.0
  0
LINE
  5
792
  8
0
 10
-23.5
 20
-49.0
 30
0.0
 11
-23.5
 21
-59.0
 31
0.0
  0
LINE
  5
793
  8
0
 10
-29.0
 20
-50.0
 30
0.0
 11
-29.0
 21
-58.0
 31
0.0
  0
LINE
  5
794
  8
0
 10
-22.5
 20
-48.0
 30
0.0
 11
-21.5
 21
-48.0
 31
0.0
  0
LINE
  5
795
  8
0
 10
-22.5
 20
-60.0
 30
0.0
 11
-21.5
 21
-60.0
 31
0.0
  0
LINE
  5
796
  8
0
 10
-20.775105999999941
 20
-54.0
 30
0.0
 11
-15.724893999999949
 21
-54.0
 31
0.0
  0
LINE
  5
797
  8
0
 10
-21.5
 20
-60.5
 30
0.0
 11
-21.5
 21
-47.5
 31
0.0
  0
LINE
  5
798
  8
0
 10
-21.5
 20
-60.5
 30
0.0
 11
-15.0
 21
-60.5
 31
0.0
  0
LINE
  5
799
  8
0
 10
-21.5
 20
-47.5
 30
0.0
 11
-15.0
 21
-47.5
 31
0.0
  0
LINE
  5
79A
  8
0
 10
-29.0
 20
-58.0
 30
0.0
 11
-23.5
 21
-58.0
 31
0.0
  0
LINE
  5
79B
  8
0
  6
CENTER
 10
-30.65133499999996
 20
-53.999999999999993
 30
0.0
 11
27.011253000000011
 21
-54.0
 31
0.0
  0
LINE
  5
79C
  8
0
 10
19.775106000000051
 20
54.0
 30
0.0
 11
15.0
 21
54.0
 31
0.0
  0
LINE
  5
79D
  8
0
 10
20.5
 20
50.75
 30
0.0
 11
20.5
 21
57.25
 31
0.0
  0
LINE
  5
79E
  8
0
 10
19.775106000000051
 20
47.5
 30
0.0
 11
15.0
 21
47.5
 31
0.0
  0
LINE
  5
79F
  8
0
 10
19.775106000000051
 20
60.5
 30
0.0
 11
15.0
 21
60.5
 31
0.0
  0
LINE
  5
7A0
  8
0
 10
15.0
 20
43.221088000000009
 30
0.0
 11
15.0
 21
61.0
 31
0.0
  0
ARC
  5
7A1
  8
0
 10
0.0
 20
0.0
 30
0.0
 40
45.75
 50
273.75979999999998
 51
90.0
  0
ARC
  5
7A2
  8
0
 10
0.0
 20
0.0
 30
0.0
 40
35.75
 50
274.81369800000141
 51
85.186299999999136
  0
ARC
  5
7A3
  8
0
 10
0.0
 20
0.0
 30
0.0
 40
37.75
 50
274.81369800000141
 51
90.0
  0
ARC
  5
7A4
  8
0
 10
0.0
 20
0.0
 30
0.0
 40
35.75
 50
94.813700000000878
 51
265.18630399999802
  0
ARC
  5
7A5
  8
0
 10
0.0
 20
0.0
 30
0.0
 40
37.75
 50
94.813700000000878
 51
265.18630399999802
  0
ARC
  5
7A6
  8
0
 10
0.0
 20
0.0
 30
0.0
 40
45.75
 50
93.759800000000055
 51
266.24020200000172
  0
ARC
  5
7A7
  8
0
 10
-22.499999999999989
 20
49.0
 30
0.0
 40
1.0
 50
179.99999000000059
 51
269.99999600000092
  0
ARC
  5
7A8
  8
0
 10
-22.499999999999989
 20
59.0
 30
0.0
 40
1.0
 50
90.0
 51
180.0000050089553
  0
ARC
  5
7A9
  8
0
 10
-13.85200499999995
 20
57.25
 30
0.0
 40
7.647994999999999
 50
154.85262999999881
 51
205.1473749999997
  0
ARC
  5
7AA
  8
0
 10
-13.85200499999995
 20
50.75
 30
0.0
 40
7.647994999999999
 50
154.85262999999881
 51
205.14736800000099
  0
ARC
  5
7AB
  8
0
 10
-22.64799499999997
 20
57.25
 30
0.0
 40
7.647994999999999
 50
334.85262999999878
 51
25.14737000000115
  0
ARC
  5
7AC
  8
0
 10
-22.64799499999997
 20
50.75
 30
0.0
 40
7.647994999999999
 50
334.85262999999878
 51
25.14737000000115
  0
ARC
  5
7AD
  8
0
 10
12.852005000000011
 20
-50.75
 30
0.0
 40
7.6479945000000011
 50
334.85262999999878
 51
25.14737000000115
  0
ARC
  5
7AE
  8
0
 10
12.852005000000011
 20
-57.25
 30
0.0
 40
7.6479945000000011
 50
334.85262999999878
 51
25.14737000000115
  0
ARC
  5
7AF
  8
0
 10
-22.5
 20
-49.0
 30
0.0
 40
1.0
 50
90.0
 51
180.00000500895689
  0
ARC
  5
7B0
  8
0
 10
-22.5
 20
-59.0
 30
0.0
 40
1.0
 50
179.99999000000059
 51
269.99999600000092
  0
ARC
  5
7B1
  8
0
 10
-13.85200499999997
 20
-57.25
 30
0.0
 40
7.647994999999999
 50
154.85262000000051
 51
205.14737199999951
  0
ARC
  5
7B2
  8
0
 10
-13.85200499999997
 20
-50.75
 30
0.0
 40
7.647994999999999
 50
154.85262999999881
 51
205.14737199999951
  0
ARC
  5
7B3
  8
0
 10
-22.64799499999998
 20
-57.25
 30
0.0
 40
7.647994999999999
 50
334.85262999999878
 51
25.14737000000115
  0
ARC
  5
7B4
  8
0
 10
-22.64799499999998
 20
-50.75
 30
0.0
 40
7.647994999999999
 50
334.85262999999878
 51
25.14737000000115
  0
ARC
  5
7B5
  8
0
 10
12.852005000000011
 20
50.75
 30
0.0
 40
7.6479945000000011
 50
334.85262999999878
 51
25.14737000000115
  0
ARC
  5
7B6
  8
0
 10
12.852005000000011
 20
57.25
 30
0.0
 40
7.6479945000000011
 50
334.85262999999878
 51
25.14737000000115
  0
LINE
  5
7B7
  8
0
 10
99.747223876837552
 20
60.5
 30
0.0
 11
107.2527780768375
 21
60.5
 31
0.0
  0
LINE
  5
7B8
  8
0
 10
107.2527758768375
 20
60.500001999999988
 30
0.0
 11
111.00555297683751
 21
54.00000099999999
 31
0.0
  0
LINE
  5
7B9
  8
0
 10
111.0055552768375
 20
54.00000099999999
 30
0.0
 11
107.2527781768375
 21
47.500000999999997
 31
0.0
  0
LINE
  5
7BA
  8
0
 10
107.2527780768375
 20
47.5
 30
0.0
 11
99.747223876837552
 21
47.5
 31
0.0
  0
LINE
  5
7BB
  8
0
 10
95.994445676837557
 20
54.00000099999999
 30
0.0
 11
99.74722277683756
 21
47.500000999999997
 31
0.0
  0
LINE
  5
7BC
  8
0
 10
99.747221776837577
 20
60.500002999999992
 30
0.0
 11
95.99444467683756
 21
54.000002999999992
 31
0.0
  0
LINE
  5
7BD
  8
0
 10
107.2527770768375
 20
-60.5
 30
0.0
 11
99.747222876837554
 21
-60.5
 31
0.0
  0
LINE
  5
7BE
  8
0
 10
99.747225076837537
 20
-60.500001999999988
 30
0.0
 11
95.994447976837534
 21
-54.00000099999999
 31
0.0
  0
LINE
  5
7BF
  8
0
 10
95.994445676837557
 20
-54.00000099999999
 30
0.0
 11
99.74722277683756
 21
-47.500000999999997
 31
0.0
  0
LINE
  5
7C0
  8
0
 10
111.0055552768375
 20
-54.00000099999999
 30
0.0
 11
107.2527781768375
 21
-47.500000999999997
 31
0.0
  0
LINE
  5
7C1
  8
0
 10
107.25277917683751
 20
-60.500002999999992
 30
0.0
 11
111.0055562768375
 21
-54.000002999999992
 31
0.0
  0
LINE
  5
7C2
  8
0
 10
99.747222876837554
 20
-47.5
 30
0.0
 11
107.2527770768375
 21
-47.5
 31
0.0
  0
LINE
  5
7C3
  8
0
  6
CENTER
 10
93.500000476837556
 20
-54.0
 30
0.0
 11
113.5000004768375
 21
-54.0
 31
0.0
  0
LINE
  5
7C4
  8
0
  6
CENTER
 10
103.5000009536747
 20
-64.0
 30
0.0
 11
103.5000009536747
 21
-44.0
 31
0.0
  0
LINE
  5
7C5
  8
0
  6
CENTER
 10
93.499999476837544
 20
54.0
 30
0.0
 11
113.4999994768375
 21
54.0
 31
0.0
  0
LINE
  5
7C6
  8
0
  6
CENTER
 10
93.499999476837544
 20
0.0
 30
0.0
 11
113.4999994768375
 21
0.0
 31
0.0
  0
LINE
  5
7C7
  8
0
  6
CENTER
 10
103.4999999999999
 20
44.0
 30
0.0
 11
103.4999999999999
 21
64.0
 31
0.0
  0
LINE
  5
7C8
  8
0
 10
111.25
 20
-37.63060589467041
 30
0.0
 11
111.25
 21
37.630605894670353
 31
0.0
  0
LINE
  5
7C9
  8
0
 10
95.750000000000014
 20
-37.630605894670481
 30
0.0
 11
95.750000000000014
 21
37.630605894670389
 31
0.0
  0
LINE
  5
7CA
  8
0
  6
CENTER
 10
0.0
 20
-61.03616070514402
 30
0.0
 11
0.0
 21
61.03616070514402
 31
0.0
  0
LINE
  5
7CB
  8
0
  6
CENTER
 10
-61.03616070514402
 20
0.0
 30
0.0
 11
61.03616070514402
 21
0.0
 31
0.0
  0
LINE
  5
7CC
  8
0
 10
98.661761874129638
 20
-48.941200553750491
 30
0.0
 11
98.661761874129638
 21
48.941200553750491
 31
0.0
  0
ARC
  5
7CD
  8
0
 10
103.4999999999999
 20
54.0
 30
0.0
 40
7.0
 50
313.72333522200842
 51
351.78676740869201
  0
ARC
  5
7CE
  8
0
 10
103.4999999999999
 20
54.0
 30
0.0
 40
7.0
 50
8.213212414088586
 51
51.786784583399218
  0
ARC
  5
7CF
  8
0
 10
103.4999999999999
 20
54.0
 30
0.0
 40
7.0
 50
68.213210701738234
 51
111.7867892982617
  0
ARC
  5
7D0
  8
0
 10
103.4999999999999
 20
54.0
 30
0.0
 40
7.0
 50
128.21327295117371
 51
171.78672241755481
  0
ARC
  5
7D1
  8
0
 10
103.4999999999999
 20
54.0
 30
0.0
 40
7.0
 50
188.21321437744751
 51
226.27665892235439
  0
LINE
  5
7D2
  8
0
 10
108.3382478505398
 20
-48.941209854446761
 30
0.0
 11
108.3382376088603
 21
48.941200059281897
 31
0.0
  0
LINE
  5
7D3
  8
0
 10
98.661761874129596
 20
43.221088602671728
 30
0.0
 11
108.3382382073698
 21
43.221088602671728
 31
0.0
  0
LINE
  5
7D4
  8
0
 10
95.750000000000014
 20
37.630605894670389
 30
0.0
 11
98.661761874129638
 21
45.651533380599602
 31
0.0
  0
LINE
  5
7D5
  8
0
 10
111.25
 20
37.630605894670353
 30
0.0
 11
108.3382381258703
 21
45.651533380599602
 31
0.0
  0
ARC
  5
7D6
  8
0
 10
103.4999999999999
 20
-54.0
 30
0.0
 40
7.0
 50
133.72334107764499
 51
171.7867856225524
  0
ARC
  5
7D7
  8
0
 10
103.4999999999999
 20
-54.0
 30
0.0
 40
7.0
 50
188.21319420024059
 51
231.78680279724719
  0
ARC
  5
7D8
  8
0
 10
103.4999999999999
 20
-54.0
 30
0.0
 40
7.0
 50
248.21321070173821
 51
291.78678929826168
  0
ARC
  5
7D9
  8
0
 10
103.4999999999999
 20
-54.0
 30
0.0
 40
7.0
 50
308.21329116508463
 51
351.78670420364301
  0
ARC
  5
7DA
  8
0
 10
103.4999999999999
 20
-54.0
 30
0.0
 40
7.0
 50
8.2132325913079747
 51
46.276548780998937
  0
LINE
  5
7DB
  8
0
 10
98.661761874129596
 20
-43.221088602671728
 30
0.0
 11
108.3382382073698
 21
-43.221088602671728
 31
0.0
  0
LINE
  5
7DC
  8
0
 10
95.750000000000014
 20
-37.630605894670481
 30
0.0
 11
98.661761874129638
 21
-45.651533380599602
 31
0.0
  0
LINE
  5
7DD
  8
0
 10
111.25
 20
-37.63060589467041
 30
0.0
 11
108.3382381258703
 21
-45.651533380599602
 31
0.0
  0
VIEWPORT
  5
79
 67
     1
  8
0
 10
5.2499996395561617
 20
3.9999998836066761
 30
0.0
 40
15.015580297613511
 41
8.5939224089826052
 68
     1
 69
     1
1001
ACAD
1000
MVIEW
1002
{
1070
    16
1010
0.0
1020
0.0
1030
0.0
1010
0.0
1020
0.0
1030
1.0
1040
0.0
1040
8.5939224089826052
1040
5.2499996395561617
1040
3.9999998836066761
1040
50.0
1040
0.0
1040
0.0
1070
     0
1070
   100
1070
     1
1070
     1
1070
     0
1070
     0
1070
     0
1070
     0
1040
0.0
1040
0.0
1040
0.0
1040
10.0
1040
10.0
1040
10.0
1040
10.0
1070
     0
1002
{
1002
}
1002
}
1001
GENIUS_GENSCREG_15
1000
PF
1040
1.0
1000
DF
1040
1.0
1000
MIN
1011
-2.2577905092505972
1021
0.0
1031
-1.#QNAN00000000000E+000
1021
-0.2969613208846251
1031
0.0
1000
MAX
1011
12.757789788362921
1021
0.0
1031
-1.#QNAN00000000000E+000
1021
8.2969610880979801
1031
0.0
1000
FLAGS
1070
     4
1001
GENIUS_GENOBJ-N-SDF_13
1002
{
1000
OWNER
1000
GEN
1002
}
1001
GENIUS_GENODEF_13
1002
{
1000
HIER
1070
     0
1002
}
1002
{
1000
MANEDIT
1070
     0
1002
}
1002
{
1000
NOSEL
1070
     0
1002
}
1002
{
1000
BEHIND
1070
     0
1002
}
1002
{
1000
OTHER
1070
     0
1002
}
1002
{
1000
REACTOR
1002
}
  0
VIEWPORT
  5
7B
 67
     1
  8
0
 10
5.24999976158142
 20
3.99999976158142
 30
0.0
 40
8.3999996185302717
 41
6.3999996185302717
 68
     2
 69
     2
1001
ACAD
1000
MVIEW
1002
{
1070
    16
1010
0.0
1020
0.0
1030
0.0
1010
0.0
1020
0.0
1030
1.0
1040
0.0
1040
9.2590797717467002
1040
6.0
1040
4.5
1040
50.0
1040
0.0
1040
0.0
1070
     0
1070
   100
1070
     1
1070
     3
1070
     0
1070
     0
1070
     0
1070
     0
1040
0.0
1040
0.0
1040
0.0
1040
0.5
1040
0.5
1040
0.5
1040
0.5
1070
     0
1002
{
1002
}
1002
}
1001
GENIUS_GENSCREG_15
1000
PF
1040
0.0
1000
DF
1040
0.0
1000
MIN
1011
1.049999952316284
1021
0.0
1031
-1.#QNAN00000000000E+000
1021
0.7999999523162842
1031
0.0
1000
MAX
1011
9.4499995708465558
1021
0.0
1031
-1.#QNAN00000000000E+000
1021
7.1999995708465558
1031
0.0
1000
FLAGS
1070
     4
1001
GENIUS_GENODEF_13
1002
{
1000
HIER
1070
     0
1002
}
1002
{
1000
MANEDIT
1070
     0
1002
}
1002
{
1000
NOSEL
1070
     0
1002
}
1002
{
1000
BEHIND
1070
     0
1002
}
1002
{
1000
OTHER
1070
     0
1002
}
1002
{
1000
REACTOR
1002
}
1001
GENIUS_GENOBJ-N-SDF_13
1002
{
1000
OWNER
1000
GEN
1002
}
  0
ENDSEC
  0
EOF
