  0
SECTION
  2
HEADER
  9
$ACADVER
  1
AC1009
  9
$INSBASE
 10
0.0
 20
0.0
 30
0.0
  9
$EXTMIN
 10
-84.969789629125444
 20
-74.854637695476185
 30
0.0
  9
$EXTMAX
 10
151.82824916882259
 20
82.344016916450045
 30
0.0
  9
$LIMMIN
 10
0.0
 20
0.0
  9
$LIMMAX
 10
12.0
 20
9.0
  9
$ORTHOMODE
 70
     0
  9
$REGENMODE
 70
     1
  9
$FILLMODE
 70
     1
  9
$QTEXTMODE
 70
     0
  9
$MIRRTEXT
 70
     1
  9
$DRAGMODE
 70
     2
  9
$LTSCALE
 40
1.0
  9
$OSMODE
 70
    37
  9
$ATTMODE
 70
     1
  9
$TEXTSIZE
 40
0.2
  9
$TRACEWID
 40
0.05
  9
$TEXTSTYLE
  7
STANDARD
  9
$CLAYER
  8
0
  9
$CELTYPE
  6
BYLAYER
  9
$CECOLOR
 62
   256
  9
$DIMSCALE
 40
1.0
  9
$DIMASZ
 40
0.18
  9
$DIMEXO
 40
0.0625
  9
$DIMDLI
 40
0.38
  9
$DIMRND
 40
0.0
  9
$DIMDLE
 40
0.0
  9
$DIMEXE
 40
0.18
  9
$DIMTP
 40
0.0
  9
$DIMTM
 40
0.0
  9
$DIMTXT
 40
0.18
  9
$DIMCEN
 40
0.09
  9
$DIMTSZ
 40
0.0
  9
$DIMTOL
 70
     0
  9
$DIMLIM
 70
     0
  9
$DIMTIH
 70
     1
  9
$DIMTOH
 70
     1
  9
$DIMSE1
 70
     0
  9
$DIMSE2
 70
     0
  9
$DIMTAD
 70
     0
  9
$DIMZIN
 70
     0
  9
$DIMBLK
  1

  9
$DIMASO
 70
     1
  9
$DIMSHO
 70
     1
  9
$DIMPOST
  1

  9
$DIMAPOST
  1

  9
$DIMALT
 70
     0
  9
$DIMALTD
 70
     2
  9
$DIMALTF
 40
25.399999999999999
  9
$DIMLFAC
 40
1.0
  9
$DIMTOFL
 70
     0
  9
$DIMTVP
 40
0.0
  9
$DIMTIX
 70
     0
  9
$DIMSOXD
 70
     0
  9
$DIMSAH
 70
     0
  9
$DIMBLK1
  1

  9
$DIMBLK2
  1

  9
$DIMSTYLE
  2
STANDARD
  9
$DIMCLRD
 70
     0
  9
$DIMCLRE
 70
     0
  9
$DIMCLRT
 70
     0
  9
$DIMTFAC
 40
1.0
  9
$DIMGAP
 40
0.09
  9
$LUNITS
 70
     2
  9
$LUPREC
 70
     4
  9
$SKETCHINC
 40
0.1
  9
$FILLETRAD
 40
0.0
  9
$AUNITS
 70
     0
  9
$AUPREC
 70
     0
  9
$MENU
  1
.
  9
$ELEVATION
 40
0.0
  9
$PELEVATION
 40
0.0
  9
$THICKNESS
 40
0.0
  9
$LIMCHECK
 70
     0
  9
$BLIPMODE
 70
     0
  9
$CHAMFERA
 40
0.5
  9
$CHAMFERB
 40
0.5
  9
$SKPOLY
 70
     0
  9
$TDCREATE
 40
2451955.1727028699
  9
$TDUPDATE
 40
2454737.3995722919
  9
$TDINDWG
 40
0.1618975926
  9
$TDUSRTIMER
 40
0.161897419
  9
$USRTIMER
 70
     1
  9
$ANGBASE
 50
0.0
  9
$ANGDIR
 70
     0
  9
$PDMODE
 70
     0
  9
$PDSIZE
 40
0.0
  9
$PLINEWID
 40
0.0
  9
$COORDS
 70
     1
  9
$SPLFRAME
 70
     0
  9
$SPLINETYPE
 70
     6
  9
$SPLINESEGS
 70
     8
  9
$ATTDIA
 70
     0
  9
$ATTREQ
 70
     1
  9
$HANDLING
 70
 22529
  9
$HANDSEED
  5
3AAA
  9
$SURFTAB1
 70
     6
  9
$SURFTAB2
 70
     6
  9
$SURFTYPE
 70
     6
  9
$SURFU
 70
     6
  9
$SURFV
 70
     6
  9
$UCSNAME
  2

  9
$UCSORG
 10
0.0
 20
0.0
 30
0.0
  9
$UCSXDIR
 10
1.0
 20
0.0
 30
0.0
  9
$UCSYDIR
 10
0.0
 20
1.0
 30
0.0
  9
$PUCSNAME
  2

  9
$PUCSORG
 10
0.0
 20
0.0
 30
0.0
  9
$PUCSXDIR
 10
1.0
 20
0.0
 30
0.0
  9
$PUCSYDIR
 10
0.0
 20
1.0
 30
0.0
  9
$USERI1
 70
     0
  9
$USERI2
 70
     0
  9
$USERI3
 70
     0
  9
$USERI4
 70
     0
  9
$USERI5
 70
     0
  9
$USERR1
 40
0.0
  9
$USERR2
 40
0.0
  9
$USERR3
 40
0.0
  9
$USERR4
 40
0.0
  9
$USERR5
 40
0.0
  9
$WORLDVIEW
 70
     1
  9
$SHADEDGE
 70
     3
  9
$SHADEDIF
 70
    70
  9
$TILEMODE
 70
     1
  9
$MAXACTVP
 70
    48
  9
$PLIMCHECK
 70
     0
  9
$PEXTMIN
 10
1.049636599258096
 20
0.7996597240971113
 30
-0.0015258207003583
  9
$PEXTMAX
 10
9.4503627310769716
 20
7.2003400826974584
 30
0.0000000349246037
  9
$PLIMMIN
 10
-0.2500002402958907
 20
-0.2499999962453767
  9
$PLIMMAX
 10
10.74999951940821
 20
8.2499997634587316
  9
$UNITMODE
 70
     0
  9
$VISRETAIN
 70
     1
  9
$PLINEGEN
 70
     0
  9
$PSLTSCALE
 70
     1
  0
ENDSEC
  0
SECTION
  2
TABLES
  0
TABLE
  2
VPORT
 70
     2
  0
VPORT
  2
*ACTIVE
 70
     0
 10
0.0
 20
0.0
 11
1.0
 21
1.0
 12
33.428152882434972
 22
3.7472626445817241
 13
0.0
 23
0.0
 14
0.5
 24
0.5
 15
0.5
 25
0.5
 16
0.0
 26
0.0
 36
1.0
 17
0.0
 27
0.0
 37
0.0
 40
158.41151287034481
 41
1.531806615776081
 42
50.0
 43
0.0
 44
0.0
 50
0.0
 51
0.0
 71
     0
 72
   100
 73
     1
 74
     3
 75
     0
 76
     0
 77
     0
 78
     0
  0
ENDTAB
  0
TABLE
  2
LTYPE
 70
     2
  0
LTYPE
  2
CONTINUOUS
 70
     0
  3
Solid line
 72
    65
 73
     0
 40
0.0
  0
LTYPE
  2
CENTER
 70
     0
  3
__ . __
 72
    65
 73
     4
 40
7.0
 49
4.0
 49
-1.0
 49
1.0
 49
-1.0
  0
ENDTAB
  0
TABLE
  2
LAYER
 70
     1
  0
LAYER
  2
0
 70
     0
 62
     7
  6
CONTINUOUS
  0
ENDTAB
  0
TABLE
  2
STYLE
 70
     1
  0
STYLE
  2
STANDARD
 70
     0
 40
0.0
 41
1.0
 50
0.0
 71
     0
 42
0.2
  3
txt
  4

  0
ENDTAB
  0
TABLE
  2
VIEW
 70
     0
  0
ENDTAB
  0
TABLE
  2
UCS
 70
     0
  0
ENDTAB
  0
TABLE
  2
APPID
 70
    20
  0
APPID
  2
ACAD
 70
     0
  0
APPID
  2
GENIUS_GENODEF_13
 70
     0
  0
APPID
  2
ACAD_DSTYLE_DIMARC_LENGTH_
 70
     0
  0
APPID
  2
ACAD_DSTYLE_DIMJOGGED_JOGA
 70
     0
  0
APPID
  2
GENIUS_GENOBJ-N-FIL_13
 70
     0
  0
APPID
  2
ACAD_MLEADERVER
 70
     0
  0
APPID
  2
MCAD_NO_VIS
 70
     0
  0
APPID
  2
ACAD_TEMP_GRAPHIC
 70
     0
  0
APPID
  2
AD_DRAW
 70
     0
  0
APPID
  2
ACATTRIBSERVICES
 70
     0
  0
APPID
  2
DESIGNERASSEMBLIES
 70
     0
  0
APPID
  2
ACADM_DIM_EDIT
 70
     0
  0
APPID
  2
AMDT_DM_ADJ
 70
     0
  0
APPID
  2
GENIUS_GENSCREG_15
 70
     0
  0
APPID
  2
GENIUS_GENOBJ-N-SDF_13
 70
     0
  0
APPID
  2
ACAD_DSTYLE_DIM_LINETYPE
 70
     0
  0
APPID
  2
ACAD_DSTYLE_DIM_EXT1_LINETYPE
 70
     0
  0
APPID
  2
ACAD_DSTYLE_DIM_EXT2_LINETYPE
 70
     0
  0
APPID
  2
ACAD_EXEMPT_FROM_CAD_STANDARDS
 70
     0
  0
APPID
  2
ACAD_DSTYLE_DIMRADIAL_EXTENSION
 70
     0
  0
ENDTAB
  0
TABLE
  2
DIMSTYLE
 70
     1
  0
DIMSTYLE
  2
STANDARD
 70
     0
  3

  4

  5

  6

  7

 40
1.0
 41
0.18
 42
0.0625
 43
0.38
 44
0.18
 45
0.0
 46
0.0
 47
0.0
 48
0.0
140
0.18
141
0.09
142
0.0
143
25.399999999999999
144
1.0
145
0.0
146
1.0
147
0.09
 71
     0
 72
     0
 73
     1
 74
     1
 75
     0
 76
     0
 77
     0
 78
     0
170
     0
171
     2
172
     0
173
     0
174
     0
175
     0
176
     0
177
     0
178
     0
  0
ENDTAB
  0
ENDSEC
  0
SECTION
  2
BLOCKS
  0
BLOCK
  8
0
  2
$MODEL_SPACE
 70
     0
 10
0.0
 20
0.0
 30
0.0
  3
$MODEL_SPACE
  1

  0
ENDBLK
  5
21
  8
0
  0
BLOCK
 67
     1
  8
0
  2
$PAPER_SPACE
 70
     0
 10
0.0
 20
0.0
 30
0.0
  3
$PAPER_SPACE
  1

  0
ENDBLK
  5
60
 67
     1
  8
0
  0
ENDSEC
  0
SECTION
  2
ENTITIES
  0
TEXT
  5
2C9C
  8
0
 10
47.006452313870788
 20
77.344016916450016
 30
0.0
 40
5.0
  1
13MHHM-LW 4S 
  0
LINE
  5
32D5
  8
0
  6
CENTER
 62
     7
 10
-84.969789629125444
 20
0.0
 30
0.0
 11
84.969789629125501
 21
0.0
 31
0.0
  0
LINE
  5
32D6
  8
0
  6
CENTER
 62
     7
 10
0.0
 20
74.854637695476129
 30
0.0
 11
0.0
 21
-74.854637695476185
 31
0.0
  0
ARC
  5
3392
  8
0
 10
0.0
 20
0.0
 30
0.0
 40
56.5
 50
185.9471515332784
 51
353.24367296941148
  0
ARC
  5
3393
  8
0
 10
0.0
 20
0.0
 30
0.0
 40
67.5
 50
194.02138835126519
 51
345.2075029585987
  0
LINE
  5
3396
  8
0
  6
CENTER
 62
     7
 10
-67.5
 20
-15.738330000000021
 30
0.0
 11
-67.5
 21
15.738330000000021
 31
0.0
  0
LINE
  5
3397
  8
0
  6
CENTER
 62
     7
 10
-74.27688999999998
 20
-8.5
 30
0.0
 11
-61.180239999999912
 21
-8.5
 31
0.0
  0
LINE
  5
3398
  8
0
  6
CONTINUOUS
 62
     7
 10
-65.13614999999993
 20
-3.4568699999999799
 30
0.0
 11
-61.209660166458427
 21
-2.4047682500561791
 31
0.0
  0
ARC
  5
3399
  8
0
  6
CONTINUOUS
 62
     7
 10
-67.5
 20
-8.5
 30
0.0
 40
4.5
 50
215.88829999999919
 51
35.888315265848988
  0
LINE
  5
339B
  8
0
  6
CENTER
 62
     7
 10
-74.27688999999998
 20
8.5
 30
0.0
 11
-61.180239999999912
 21
8.5
 31
0.0
  0
ARC
  5
339C
  8
0
  6
CONTINUOUS
 62
     7
 10
-67.5
 20
8.5
 30
0.0
 40
4.5
 50
324.1117029999977
 51
144.1117000000007
  0
ARC
  5
339D
  8
0
  6
CONTINUOUS
 62
     7
 10
-55.752659999999992
 20
0.0
 30
0.0
 40
10.0
 50
144.1117099999984
 51
215.88828999999691
  0
ARC
  5
339E
  8
0
  6
CONTINUOUS
 62
     7
 10
-55.752659999999992
 20
0.0
 30
0.0
 40
19.0
 50
144.1117099999984
 51
215.88828999999691
  0
CIRCLE
  5
339F
  8
0
 10
-67.5
 20
-8.5
 30
0.0
 40
2.5999998999999989
  0
CIRCLE
  5
33A0
  8
0
 10
-67.5
 20
8.5
 30
0.0
 40
2.5999998999999989
  0
LINE
  5
33C8
  8
0
  6
CONTINUOUS
 62
     7
 10
59.086800556469463
 20
-4.0
 30
0.0
 11
82.0
 21
-4.0
 31
0.0
  0
LINE
  5
33C9
  8
0
  6
CONTINUOUS
 62
     7
 10
68.163406605010579
 20
-15.0
 30
0.0
 11
82.0
 21
-15.0
 31
0.0
  0
LINE
  5
33CA
  8
0
  6
CONTINUOUS
 62
     7
 10
61.060670000000037
 20
51.999999999999943
 30
0.0
 11
88.939329999999984
 21
51.999999999999943
 31
0.0
  0
LINE
  5
33CB
  8
0
  6
CONTINUOUS
 62
     7
 10
82.0
 20
15.0
 30
0.0
 11
82.0
 21
4.0
 31
0.0
  0
LINE
  5
33CC
  8
0
  6
CONTINUOUS
 62
     7
 10
82.0
 20
-4.0
 30
0.0
 11
82.0
 21
-15.0
 31
0.0
  0
LINE
  5
33CD
  8
0
  6
CENTER
 62
     7
 10
64.855099999999993
 20
-9.5
 30
0.0
 11
86.193270000000027
 21
-9.5
 31
0.0
  0
LINE
  5
33CE
  8
0
  6
CONTINUOUS
 62
     7
 10
67.25
 20
22.030060000000049
 30
0.0
 11
67.25
 21
17.899989999999999
 31
0.0
  0
LINE
  5
33CF
  8
0
  6
CONTINUOUS
 62
     7
 10
82.75
 20
22.030060000000049
 30
0.0
 11
82.75
 21
17.899989999999999
 31
0.0
  0
LINE
  5
33D0
  8
0
  6
CENTER
 62
     7
 10
75.0
 20
58.275050000000022
 30
0.0
 11
75.0
 21
-25.40791999999999
 31
0.0
  0
LINE
  5
33D1
  8
0
  6
CONTINUOUS
 62
     7
 10
70.0
 20
42.999999999999943
 30
0.0
 11
70.0
 21
31.199999999999989
 31
0.0
  0
LINE
  5
33D2
  8
0
  6
CONTINUOUS
 62
     7
 10
80.0
 20
42.999999999999943
 30
0.0
 11
80.0
 21
31.199999999999989
 31
0.0
  0
LINE
  5
33D3
  8
0
  6
CONTINUOUS
 62
     7
 10
72.0
 20
29.199999999999989
 30
0.0
 11
78.0
 21
29.199999999999989
 31
0.0
  0
LINE
  5
33D4
  8
0
  6
CONTINUOUS
 62
     7
 10
79.0
 20
39.428210000000028
 30
0.0
 11
79.0
 21
29.467960000000001
 31
0.0
  0
LINE
  5
33D5
  8
0
  6
CONTINUOUS
 62
     7
 10
71.0
 20
39.428210000000028
 30
0.0
 11
71.0
 21
29.467960000000001
 31
0.0
  0
LINE
  5
33D9
  8
0
  6
CONTINUOUS
 62
     7
 10
79.0
 20
4.0
 30
0.0
 11
79.0
 21
-4.0
 31
0.0
  0
LINE
  5
33DA
  8
0
  6
CONTINUOUS
 62
     7
 10
71.0
 20
4.0
 30
0.0
 11
71.0
 21
-4.0
 31
0.0
  0
ARC
  5
33DB
  8
0
  6
CONTINUOUS
 62
     7
 10
88.939329999999984
 20
49.999999999999943
 30
0.0
 40
2.0
 50
3.4746006999985561
 51
90.000003000000945
  0
ARC
  5
33DC
  8
0
  6
CONTINUOUS
 62
     7
 10
61.060670000000037
 20
49.999999999999943
 30
0.0
 40
2.0
 50
90.000003000000945
 51
176.52540999999971
  0
ARC
  5
33DD
  8
0
  6
CONTINUOUS
 62
     7
 10
75.0
 20
-9.5
 30
0.0
 40
6.0
 50
246.4435399999993
 51
293.55647000000192
  0
ARC
  5
33DE
  8
0
  6
CONTINUOUS
 62
     7
 10
75.0
 20
17.899989999999999
 30
0.0
 40
7.75
 50
180.0000099999977
 51
200.14016222132679
  0
ARC
  5
33DF
  8
0
  6
CONTINUOUS
 62
     7
 10
75.0
 20
17.899989999999999
 30
0.0
 40
7.75
 50
334.58537908483902
 51
0.0
  0
ARC
  5
33E0
  8
0
  6
CONTINUOUS
 62
     7
 10
55.999999999999972
 20
47.999999999999943
 30
0.0
 40
35.0
 50
324.75248999999991
 51
3.4746006999985561
  0
ARC
  5
33E1
  8
0
  6
CONTINUOUS
 62
     7
 10
92.75
 20
22.030060000000049
 30
0.0
 40
10.0
 50
144.75249999999849
 51
180.0000099999977
  0
ARC
  5
33E2
  8
0
  6
CONTINUOUS
 62
     7
 10
57.249999999999972
 20
22.030060000000049
 30
0.0
 40
10.0
 50
0.0
 51
35.247505000000771
  0
ARC
  5
33E3
  8
0
  6
CONTINUOUS
 62
     7
 10
94.0
 20
47.999999999999943
 30
0.0
 40
35.0
 50
176.52540999999971
 51
215.24751000000001
  0
ARC
  5
33E4
  8
0
  6
CONTINUOUS
 62
     7
 10
75.0
 20
42.999999999999943
 30
0.0
 40
5.0
 50
0.0
 51
180.0000099999977
  0
ARC
  5
33E5
  8
0
  6
CONTINUOUS
 62
     7
 10
78.0
 20
31.199999999999989
 30
0.0
 40
2.0
 50
270.0
 51
0.0
  0
ARC
  5
33E6
  8
0
  6
CONTINUOUS
 62
     7
 10
72.0
 20
31.199999999999989
 30
0.0
 40
2.0
 50
179.99998999999889
 51
270.0
  0
ARC
  5
33E7
  8
0
  6
CONTINUOUS
 62
     7
 10
75.0
 20
32.5
 30
0.0
 40
8.0
 50
60.000002000001302
 51
120.0000000000005
  0
LINE
  5
33E8
  8
0
  6
CONTINUOUS
 62
     7
 10
59.535702146254778
 20
4.0
 30
0.0
 11
82.0
 21
4.0
 31
0.0
  0
LINE
  5
33E9
  8
0
  6
CONTINUOUS
 62
     7
 10
68.416610131136324
 20
15.0
 30
0.0
 11
82.0
 21
15.0
 31
0.0
  0
CIRCLE
  5
33EA
  8
0
 10
75.0
 20
-9.5
 30
0.0
 40
3.5
  0
ARC
  5
33ED
  8
0
 10
59.086800556469463
 20
-7.000000000000056
 30
0.0
 40
3.0
 50
90.0
 51
173.24367296941159
  0
ARC
  5
33EE
  8
0
 10
68.163406605010607
 20
-17.99999999999994
 30
0.0
 40
3.0
 50
90.0
 51
165.20750295859861
  0
ARC
  5
33EF
  8
0
 10
-60.174382177443931
 20
-6.2684710705978537
 30
0.0
 40
4.0
 50
5.9471515332784444
 51
105.0000268202289
  0
ARC
  5
33F0
  8
0
 10
-70.339887869050585
 20
-17.565596334010191
 30
0.0
 40
5.0
 50
14.02138835126526
 51
72.606318077294361
  0
LINE
  5
33F3
  8
0
  6
CONTINUOUS
 62
     7
 10
147.29156916882249
 20
27.199999999999982
 30
0.0
 11
147.29156916882249
 21
17.899989999999999
 31
0.0
  0
LINE
  5
33F4
  8
0
  6
CONTINUOUS
 62
     7
 10
143.54156916882249
 20
39.428210000000028
 30
0.0
 11
143.54156916882249
 21
29.38959999999997
 31
0.0
  0
LINE
  5
33F5
  8
0
  6
CONTINUOUS
 62
     7
 10
143.54156916882249
 20
12.0
 30
0.0
 11
143.54156916882249
 21
-14.428189999999971
 31
0.0
  0
LINE
  5
33F6
  8
0
  6
CENTER
 62
     7
 10
127.67480916882251
 20
0.0
 30
0.0
 11
151.82824916882259
 21
0.0
 31
0.0
  0
LINE
  5
33F7
  8
0
  6
CONTINUOUS
 62
     7
 10
149.04156916882249
 20
15.0
 30
0.0
 11
149.04156916882249
 21
4.0
 31
0.0
  0
LINE
  5
33F8
  8
0
  6
CONTINUOUS
 62
     7
 10
149.04156916882249
 20
-4.0
 30
0.0
 11
149.04156916882249
 21
-15.0
 31
0.0
  0
LINE
  5
33F9
  8
0
  6
CONTINUOUS
 62
     7
 10
143.79156916882249
 20
10.623690000000011
 30
0.0
 11
143.79156916882249
 21
4.0
 31
0.0
  0
LINE
  5
33FA
  8
0
  6
CONTINUOUS
 62
     7
 10
143.79156916882249
 20
-15.0
 30
0.0
 11
149.04156916882249
 21
-15.0
 31
0.0
  0
LINE
  5
33FB
  8
0
  6
CONTINUOUS
 62
     7
 10
143.79156916882249
 20
-4.0
 30
0.0
 11
149.04156916882249
 21
-4.0
 31
0.0
  0
LINE
  5
33FC
  8
0
  6
CONTINUOUS
 62
     7
 10
143.79156916882249
 20
-4.0
 30
0.0
 11
143.79156916882249
 21
-15.0
 31
0.0
  0
LINE
  5
33FD
  8
0
  6
CONTINUOUS
 62
     7
 10
143.79156916882249
 20
4.0
 30
0.0
 11
149.04156916882249
 21
4.0
 31
0.0
  0
LINE
  5
33FE
  8
0
  6
CONTINUOUS
 62
     7
 10
147.76818916882249
 20
15.0
 30
0.0
 11
149.04156916882249
 21
15.0
 31
0.0
  0
LINE
  5
33FF
  8
0
  6
CONTINUOUS
 62
     7
 10
142.3915791688226
 20
50.999999999999943
 30
0.0
 11
142.3915791688226
 21
31.199999999999989
 31
0.0
  0
LINE
  5
3400
  8
0
  6
CONTINUOUS
 62
     7
 10
149.0415591688226
 20
-59.5
 30
0.0
 11
147.49375916882261
 21
-65.276449999999954
 31
0.0
  0
LINE
  5
3401
  8
0
  6
CONTINUOUS
 62
     7
 10
134.48714916882261
 20
-67.500000000000057
 30
0.0
 11
144.5959891688226
 21
-67.5
 31
0.0
  0
LINE
  5
3402
  8
0
  6
CONTINUOUS
 62
     7
 10
130.0415591688226
 20
-59.5
 30
0.0
 11
131.5893591688226
 21
-65.276460000000043
 31
0.0
  0
LINE
  5
3403
  8
0
  6
CONTINUOUS
 62
     7
 10
149.04156916882249
 20
-15.0
 30
0.0
 11
149.0415591688226
 21
-59.5
 31
0.0
  0
LINE
  5
3404
  8
0
  6
CONTINUOUS
 62
     7
 10
129.04156916882249
 20
-13.0
 30
0.0
 11
130.04156916882249
 21
-13.0
 31
0.0
  0
LINE
  5
3405
  8
0
  6
CONTINUOUS
 62
     7
 10
129.04156916882249
 20
13.0
 30
0.0
 11
130.04156916882249
 21
13.0
 31
0.0
  0
LINE
  5
3406
  8
0
  6
CONTINUOUS
 62
     7
 10
129.04156916882249
 20
13.0
 30
0.0
 11
129.04156916882249
 21
-13.0
 31
0.0
  0
LINE
  5
3407
  8
0
  6
CONTINUOUS
 62
     7
 10
149.04156916882249
 20
-6.3999900000000016
 30
0.0
 11
149.54156916882249
 21
-6.3999900000000016
 31
0.0
  0
LINE
  5
3408
  8
0
  6
CONTINUOUS
 62
     7
 10
149.04156916882249
 20
-12.60000999999999
 30
0.0
 11
149.54156916882249
 21
-12.60000999999999
 31
0.0
  0
LINE
  5
3409
  8
0
  6
CONTINUOUS
 62
     7
 10
144.56675916882261
 20
12.0
 30
0.0
 11
134.5163891688226
 21
12.0
 31
0.0
  0
LINE
  5
340A
  8
0
  6
CONTINUOUS
 62
     7
 10
145.29156916882249
 20
29.199999999999989
 30
0.0
 11
133.79156916882249
 21
29.199999999999989
 31
0.0
  0
LINE
  5
340B
  8
0
  6
CONTINUOUS
 62
     7
 10
131.79156916882249
 20
27.199999999999982
 30
0.0
 11
131.79156916882249
 21
17.899989999999999
 31
0.0
  0
LINE
  5
340C
  8
0
  6
CONTINUOUS
 62
     7
 10
135.54156916882249
 20
39.428210000000028
 30
0.0
 11
135.54156916882249
 21
29.38959999999997
 31
0.0
  0
LINE
  5
340D
  8
0
  6
CONTINUOUS
 62
     7
 10
135.54156916882249
 20
12.0
 30
0.0
 11
135.54156916882249
 21
-14.428189999999971
 31
0.0
  0
LINE
  5
340E
  8
0
  6
CONTINUOUS
 62
     7
 10
130.04156916882249
 20
15.0
 30
0.0
 11
130.04156916882249
 21
4.0
 31
0.0
  0
LINE
  5
340F
  8
0
  6
CONTINUOUS
 62
     7
 10
130.04156916882249
 20
-4.0
 30
0.0
 11
130.04156916882249
 21
-15.0
 31
0.0
  0
LINE
  5
3410
  8
0
  6
CONTINUOUS
 62
     7
 10
135.29156916882249
 20
10.623690000000011
 30
0.0
 11
135.29156916882249
 21
4.0
 31
0.0
  0
LINE
  5
3411
  8
0
  6
CONTINUOUS
 62
     7
 10
135.29156916882249
 20
-15.0
 30
0.0
 11
130.04156916882249
 21
-15.0
 31
0.0
  0
LINE
  5
3412
  8
0
  6
CONTINUOUS
 62
     7
 10
135.29156916882249
 20
-4.0
 30
0.0
 11
130.04156916882249
 21
-4.0
 31
0.0
  0
LINE
  5
3413
  8
0
  6
CONTINUOUS
 62
     7
 10
135.29156916882249
 20
-4.0
 30
0.0
 11
135.29156916882249
 21
-15.0
 31
0.0
  0
LINE
  5
3414
  8
0
  6
CONTINUOUS
 62
     7
 10
135.29156916882249
 20
4.0
 30
0.0
 11
130.04156916882249
 21
4.0
 31
0.0
  0
LINE
  5
3415
  8
0
  6
CONTINUOUS
 62
     7
 10
131.31494916882261
 20
15.0
 30
0.0
 11
130.04156916882249
 21
15.0
 31
0.0
  0
LINE
  5
3416
  8
0
  6
CENTER
 62
     7
 10
151.49160916882261
 20
-9.5
 30
0.0
 11
127.59153916882249
 21
-9.5
 31
0.0
  0
LINE
  5
3417
  8
0
  6
CONTINUOUS
 62
     7
 10
136.6915791688225
 20
50.999999999999943
 30
0.0
 11
136.6915791688225
 21
31.199999999999989
 31
0.0
  0
LINE
  5
3418
  8
0
  6
CONTINUOUS
 62
     7
 10
141.3915791688226
 20
51.999999999999943
 30
0.0
 11
137.6915791688225
 21
51.999999999999943
 31
0.0
  0
LINE
  5
3419
  8
0
  6
CONTINUOUS
 62
     7
 10
130.04156916882249
 20
-6.3999900000000016
 30
0.0
 11
129.54156916882249
 21
-6.3999900000000016
 31
0.0
  0
LINE
  5
341A
  8
0
  6
CONTINUOUS
 62
     7
 10
130.04156916882249
 20
-12.60000999999999
 30
0.0
 11
129.54156916882249
 21
-12.60000999999999
 31
0.0
  0
LINE
  5
341B
  8
0
  6
CONTINUOUS
 62
     7
 10
130.04156916882249
 20
-15.0
 30
0.0
 11
130.0415591688226
 21
-59.5
 31
0.0
  0
LINE
  5
341C
  8
0
  6
CONTINUOUS
 62
     7
 10
150.04156916882249
 20
-13.0
 30
0.0
 11
149.04156916882249
 21
-13.0
 31
0.0
  0
LINE
  5
341D
  8
0
  6
CONTINUOUS
 62
     7
 10
150.04156916882249
 20
13.0
 30
0.0
 11
150.04156916882249
 21
-13.0
 31
0.0
  0
LINE
  5
341E
  8
0
  6
CONTINUOUS
 62
     7
 10
150.04156916882249
 20
13.0
 30
0.0
 11
149.04156916882249
 21
13.0
 31
0.0
  0
LINE
  5
341F
  8
0
  6
CONTINUOUS
 62
     7
 10
144.04144916882251
 20
11.285009999999991
 30
0.0
 11
147.01807916882251
 21
14.661330000000021
 31
0.0
  0
LINE
  5
3420
  8
0
  6
CONTINUOUS
 62
     7
 10
135.0416791688225
 20
11.28498999999999
 30
0.0
 11
132.06504916882261
 21
14.661319999999989
 31
0.0
  0
LINE
  5
3421
  8
0
  6
CONTINUOUS
 62
     7
 10
146.8979791688225
 20
-15.0
 30
0.0
 11
146.89796916882261
 21
-65.145739999999989
 31
0.0
  0
LINE
  5
3422
  8
0
  6
CONTINUOUS
 62
     7
 10
132.18516916882251
 20
-15.0
 30
0.0
 11
132.18515916882259
 21
-64.720580000000041
 31
0.0
  0
LINE
  5
3423
  8
0
  6
CENTER
 62
     7
 10
139.54156916882249
 20
70.879111381379516
 30
0.0
 11
139.54156916882249
 21
-70.879111381379516
 31
0.0
  0
LINE
  5
3424
  8
0
  6
CONTINUOUS
 62
     7
 10
129.04156916882249
 20
6.0
 30
0.0
 11
128.54156916882249
 21
6.0
 31
0.0
  0
LINE
  5
3425
  8
0
  6
CONTINUOUS
 62
     7
 10
129.04156916882249
 20
11.0
 30
0.0
 11
128.54156916882249
 21
11.0
 31
0.0
  0
LINE
  5
3426
  8
0
  6
CONTINUOUS
 62
     7
 10
129.04156916882249
 20
-11.0
 30
0.0
 11
128.54156916882249
 21
-11.0
 31
0.0
  0
LINE
  5
3427
  8
0
  6
CONTINUOUS
 62
     7
 10
129.04156916882249
 20
-6.0
 30
0.0
 11
128.54156916882249
 21
-6.0
 31
0.0
  0
LINE
  5
3428
  8
0
  6
CONTINUOUS
 62
     7
 10
128.04156916882249
 20
10.5
 30
0.0
 11
128.04156916882249
 21
6.5
 31
0.0
  0
LINE
  5
3429
  8
0
  6
CONTINUOUS
 62
     7
 10
128.04156916882249
 20
-6.5
 30
0.0
 11
128.04156916882249
 21
-10.5
 31
0.0
  0
ARC
  5
342A
  8
0
  6
CONTINUOUS
 62
     7
 10
139.54156916882249
 20
17.899989999999999
 30
0.0
 40
7.75
 50
310.42192000000011
 51
0.0
  0
ARC
  5
342B
  8
0
  6
CONTINUOUS
 62
     7
 10
139.54156916882249
 20
32.5
 30
0.0
 40
8.0
 50
60.000002000001302
 51
69.12992900000107
  0
ARC
  5
342C
  8
0
  6
CONTINUOUS
 62
     7
 10
145.29156916882249
 20
27.199999999999982
 30
0.0
 40
2.0
 50
0.0
 51
90.000003000000945
  0
ARC
  5
342D
  8
0
  6
CONTINUOUS
 62
     7
 10
144.3915791688226
 20
31.199999999999989
 30
0.0
 40
2.0
 50
179.99998999999889
 51
270.0
  0
ARC
  5
342E
  8
0
  6
CONTINUOUS
 62
     7
 10
141.3915791688226
 20
50.999999999999943
 30
0.0
 40
1.0
 50
0.0
 51
90.000003000000945
  0
ARC
  5
342F
  8
0
  6
CONTINUOUS
 62
     7
 10
134.48714916882261
 20
-64.5
 30
0.0
 40
3.0
 50
195.00000999999889
 51
270.0
  0
ARC
  5
3430
  8
0
  6
CONTINUOUS
 62
     7
 10
144.5959891688226
 20
-64.5
 30
0.0
 40
3.0
 50
270.0
 51
344.9999999999992
  0
ARC
  5
3431
  8
0
  6
CONTINUOUS
 62
     7
 10
137.6915791688225
 20
50.999999999999943
 30
0.0
 40
1.0
 50
89.999996000000905
 51
180.0000099999977
  0
ARC
  5
3432
  8
0
  6
CONTINUOUS
 62
     7
 10
134.6915791688225
 20
31.199999999999989
 30
0.0
 40
2.0
 50
270.0
 51
0.0000050089536883
  0
ARC
  5
3433
  8
0
  6
CONTINUOUS
 62
     7
 10
139.54156916882249
 20
-7.5
 30
0.0
 40
8.0
 50
239.9999999999994
 51
300.00000000000051
  0
ARC
  5
3434
  8
0
  6
CONTINUOUS
 62
     7
 10
139.54156916882249
 20
17.899989999999999
 30
0.0
 40
7.75
 50
180.0000099999977
 51
229.57809999999969
  0
ARC
  5
3435
  8
0
  6
CONTINUOUS
 62
     7
 10
139.54156916882249
 20
32.5
 30
0.0
 40
8.0
 50
110.87007000000069
 51
120.0000000000005
  0
ARC
  5
3436
  8
0
  6
CONTINUOUS
 62
     7
 10
133.79156916882249
 20
27.199999999999982
 30
0.0
 40
2.0
 50
89.999996000000905
 51
180.0000099999977
  0
ARC
  5
3437
  8
0
  6
CONTINUOUS
 62
     7
 10
131.31494916882261
 20
14.0
 30
0.0
 40
1.0
 50
41.400000000001157
 51
90.000003000000945
  0
ARC
  5
3438
  8
0
  6
CONTINUOUS
 62
     7
 10
134.29156916882249
 20
10.623690000000011
 30
0.0
 40
1.0
 50
0.0
 51
41.400000000001157
  0
ARC
  5
3439
  8
0
  6
CONTINUOUS
 62
     7
 10
144.79156916882249
 20
10.623690000000011
 30
0.0
 40
1.0
 50
138.5999999999988
 51
180.0000099999977
  0
ARC
  5
343A
  8
0
  6
CONTINUOUS
 62
     7
 10
147.76818916882249
 20
14.0
 30
0.0
 40
1.0
 50
90.000003000000945
 51
138.5999999999988
  0
ARC
  5
343B
  8
0
  6
CONTINUOUS
 62
     7
 10
128.54156916882249
 20
10.5
 30
0.0
 40
0.5
 50
90.000003000000945
 51
180.0000099999977
  0
ARC
  5
343C
  8
0
  6
CONTINUOUS
 62
     7
 10
128.54156916882249
 20
6.5
 30
0.0
 40
0.5
 50
179.99998999999889
 51
270.0
  0
ARC
  5
343D
  8
0
  6
CONTINUOUS
 62
     7
 10
147.41656916882249
 20
8.5
 30
0.0
 40
3.625
 50
316.39717999999891
 51
43.602817999999878
  0
ARC
  5
343E
  8
0
  6
CONTINUOUS
 62
     7
 10
128.54156916882249
 20
-10.5
 30
0.0
 40
0.5
 50
179.99998999999889
 51
270.0
  0
ARC
  5
343F
  8
0
  6
CONTINUOUS
 62
     7
 10
128.54156916882249
 20
-6.5
 30
0.0
 40
0.5
 50
90.000003000000945
 51
180.0000099999977
  0
ARC
  5
3440
  8
0
  6
CONTINUOUS
 62
     7
 10
147.41656916882249
 20
-8.5
 30
0.0
 40
3.625
 50
316.39717999999891
 51
43.602817999999878
  0
ARC
  5
3441
  8
0
  6
CONTINUOUS
 62
     7
 10
129.54156916882249
 20
-12.10000999999999
 30
0.0
 40
0.5
 50
179.99998999999889
 51
270.0
  0
ARC
  5
3442
  8
0
  6
CONTINUOUS
 62
     7
 10
129.54156916882249
 20
-6.8999900000000016
 30
0.0
 40
0.5
 50
90.000003000000945
 51
180.0000099999977
  0
ARC
  5
3443
  8
0
  6
CONTINUOUS
 62
     7
 10
149.54156916882249
 20
-6.8999900000000016
 30
0.0
 40
0.5
 50
0.0
 51
90.000003000000945
  0
ARC
  5
3444
  8
0
  6
CONTINUOUS
 62
     7
 10
149.54156916882249
 20
-12.10000999999999
 30
0.0
 40
0.5
 50
270.0
 51
0.0
  0
ARC
  5
3450
  8
0
 10
0.0
 20
0.0
 30
0.0
 40
59.5
 50
182.24795398855849
 51
356.1452756210665
  0
ARC
  5
3451
  8
0
 10
0.0
 20
0.0
 30
0.0
 40
56.5
 50
6.7563270305883902
 51
174.05284846672151
  0
ARC
  5
3452
  8
0
 10
-60.174382177443931
 20
6.2684710705978537
 30
0.0
 40
4.0
 50
254.99997317977099
 51
354.05284846672151
  0
ARC
  5
3453
  8
0
 10
59.086800556469463
 20
7.000000000000056
 30
0.0
 40
3.0
 50
186.7563270305883
 51
270.0
  0
ARC
  5
3454
  8
0
 10
0.0
 20
0.0
 30
0.0
 40
67.5
 50
14.792497041404481
 51
165.9786116487347
  0
ARC
  5
3455
  8
0
 10
68.163406605010607
 20
17.99999999999994
 30
0.0
 40
3.0
 50
194.7924970414044
 51
270.0
  0
LINE
  5
3456
  8
0
  6
CONTINUOUS
 62
     7
 10
-65.13614999999993
 20
3.4568699999999799
 30
0.0
 11
-61.209660166458427
 21
2.4047682500561791
 31
0.0
  0
ARC
  5
3457
  8
0
 10
-70.339887869050585
 20
17.565596334010191
 30
0.0
 40
5.0
 50
287.39368192270558
 51
345.97861164873473
  0
LINE
  5
3458
  8
0
  6
CONTINUOUS
 62
     7
 10
149.0415591688226
 20
59.5
 30
0.0
 11
147.49375916882261
 21
65.276449999999954
 31
0.0
  0
LINE
  5
3459
  8
0
  6
CONTINUOUS
 62
     7
 10
134.48714916882261
 20
67.500000000000057
 30
0.0
 11
144.5959891688226
 21
67.5
 31
0.0
  0
LINE
  5
345A
  8
0
  6
CONTINUOUS
 62
     7
 10
130.0415591688226
 20
59.5
 30
0.0
 11
131.5893591688226
 21
65.276460000000043
 31
0.0
  0
LINE
  5
345B
  8
0
  6
CONTINUOUS
 62
     7
 10
149.04156916882249
 20
15.0
 30
0.0
 11
149.0415591688226
 21
59.5
 31
0.0
  0
LINE
  5
345C
  8
0
  6
CONTINUOUS
 62
     7
 10
130.04156916882249
 20
15.0
 30
0.0
 11
130.0415591688226
 21
59.5
 31
0.0
  0
LINE
  5
345D
  8
0
  6
CONTINUOUS
 62
     7
 10
146.8979765875176
 20
27.944144808363259
 30
0.0
 11
146.89796916882261
 21
65.145739999999989
 31
0.0
  0
LINE
  5
345E
  8
0
  6
CONTINUOUS
 62
     7
 10
132.1851665654425
 20
27.944156820948191
 30
0.0
 11
132.18515916882259
 21
64.720580000000041
 31
0.0
  0
ARC
  5
345F
  8
0
  6
CONTINUOUS
 62
     7
 10
134.48714916882261
 20
64.5
 30
0.0
 40
3.0
 50
90.0
 51
164.99998999999781
  0
ARC
  5
3460
  8
0
  6
CONTINUOUS
 62
     7
 10
144.5959891688226
 20
64.5
 30
0.0
 40
3.0
 50
15.000000000001579
 51
90.0
  0
ARC
  5
3461
  8
0
 10
0.0
 20
0.0
 30
0.0
 40
59.5
 50
3.8547243789302419
 51
177.75204601144461
  0
VIEWPORT
  5
79
 67
     1
  8
0
 10
5.2499996395561617
 20
3.9999998836066761
 30
0.0
 40
15.015580297613511
 41
8.5939224089826052
 68
     1
 69
     1
1001
ACAD
1000
MVIEW
1002
{
1070
    16
1010
0.0
1020
0.0
1030
0.0
1010
0.0
1020
0.0
1030
1.0
1040
0.0
1040
8.5939224089826052
1040
5.2499996395561617
1040
3.9999998836066761
1040
50.0
1040
0.0
1040
0.0
1070
     0
1070
   100
1070
     1
1070
     1
1070
     0
1070
     0
1070
     0
1070
     0
1040
0.0
1040
0.0
1040
0.0
1040
10.0
1040
10.0
1040
10.0
1040
10.0
1070
     0
1002
{
1002
}
1002
}
1001
GENIUS_GENOBJ-N-SDF_13
1002
{
1000
OWNER
1000
GEN
1002
}
1001
GENIUS_GENODEF_13
1002
{
1000
HIER
1070
     0
1002
}
1002
{
1000
MANEDIT
1070
     0
1002
}
1002
{
1000
NOSEL
1070
     0
1002
}
1002
{
1000
BEHIND
1070
     0
1002
}
1002
{
1000
OTHER
1070
     0
1002
}
1002
{
1000
REACTOR
1002
}
1001
GENIUS_GENSCREG_15
1000
PF
1040
1.0
1000
DF
1040
1.0
1000
MIN
1011
-2.2577905092505972
1021
9.1559573710575874E+297
1031
0.0
1021
-0.2969613208846251
1031
0.0
1000
MAX
1011
12.757789788362921
1021
9.1559573710575874E+297
1031
0.0
1021
8.2969610880979801
1031
0.0
1000
FLAGS
1070
     4
  0
VIEWPORT
  5
7B
 67
     1
  8
0
 10
5.24999976158142
 20
3.99999976158142
 30
0.0
 40
8.3999996185302717
 41
6.3999996185302717
 68
     2
 69
     2
1001
ACAD
1000
MVIEW
1002
{
1070
    16
1010
0.0
1020
0.0
1030
0.0
1010
0.0
1020
0.0
1030
1.0
1040
0.0
1040
9.2590797717467002
1040
6.0
1040
4.5
1040
50.0
1040
0.0
1040
0.0
1070
     0
1070
   100
1070
     1
1070
     3
1070
     0
1070
     0
1070
     0
1070
     0
1040
0.0
1040
0.0
1040
0.0
1040
0.5
1040
0.5
1040
0.5
1040
0.5
1070
     0
1002
{
1002
}
1002
}
1001
GENIUS_GENODEF_13
1002
{
1000
HIER
1070
     0
1002
}
1002
{
1000
MANEDIT
1070
     0
1002
}
1002
{
1000
NOSEL
1070
     0
1002
}
1002
{
1000
BEHIND
1070
     0
1002
}
1002
{
1000
OTHER
1070
     0
1002
}
1002
{
1000
REACTOR
1002
}
1001
GENIUS_GENOBJ-N-SDF_13
1002
{
1000
OWNER
1000
GEN
1002
}
1001
GENIUS_GENSCREG_15
1000
PF
1040
0.0
1000
DF
1040
0.0
1000
MIN
1011
1.049999952316284
1021
9.1559573710575874E+297
1031
0.0
1021
0.7999999523162842
1031
0.0
1000
MAX
1011
9.4499995708465558
1021
9.1559573710575874E+297
1031
0.0
1021
7.1999995708465558
1031
0.0
1000
FLAGS
1070
     4
  0
ENDSEC
  0
EOF
