  0
SECTION
  2
HEADER
  9
$ACADVER
  1
AC1009
  9
$INSBASE
 10
0.0
 20
0.0
 30
0.0
  9
$EXTMIN
 10
-64.074317257663253
 20
-59.5010885619403
 30
0.0
  9
$EXTMAX
 10
151.6182891688224
 20
82.344016916450059
 30
0.0
  9
$LIMMIN
 10
0.0
 20
0.0
  9
$LIMMAX
 10
12.0
 20
9.0
  9
$ORTHOMODE
 70
     0
  9
$REGENMODE
 70
     1
  9
$FILLMODE
 70
     1
  9
$QTEXTMODE
 70
     0
  9
$MIRRTEXT
 70
     1
  9
$DRAGMODE
 70
     2
  9
$LTSCALE
 40
1.0
  9
$OSMODE
 70
    37
  9
$ATTMODE
 70
     1
  9
$TEXTSIZE
 40
0.2
  9
$TRACEWID
 40
0.05
  9
$TEXTSTYLE
  7
STANDARD
  9
$CLAYER
  8
0
  9
$CELTYPE
  6
BYLAYER
  9
$CECOLOR
 62
   256
  9
$DIMSCALE
 40
1.0
  9
$DIMASZ
 40
0.18
  9
$DIMEXO
 40
0.0625
  9
$DIMDLI
 40
0.38
  9
$DIMRND
 40
0.0
  9
$DIMDLE
 40
0.0
  9
$DIMEXE
 40
0.18
  9
$DIMTP
 40
0.0
  9
$DIMTM
 40
0.0
  9
$DIMTXT
 40
0.18
  9
$DIMCEN
 40
0.09
  9
$DIMTSZ
 40
0.0
  9
$DIMTOL
 70
     0
  9
$DIMLIM
 70
     0
  9
$DIMTIH
 70
     1
  9
$DIMTOH
 70
     1
  9
$DIMSE1
 70
     0
  9
$DIMSE2
 70
     0
  9
$DIMTAD
 70
     0
  9
$DIMZIN
 70
     0
  9
$DIMBLK
  1

  9
$DIMASO
 70
     1
  9
$DIMSHO
 70
     1
  9
$DIMPOST
  1

  9
$DIMAPOST
  1

  9
$DIMALT
 70
     0
  9
$DIMALTD
 70
     2
  9
$DIMALTF
 40
25.399999999999999
  9
$DIMLFAC
 40
1.0
  9
$DIMTOFL
 70
     0
  9
$DIMTVP
 40
0.0
  9
$DIMTIX
 70
     0
  9
$DIMSOXD
 70
     0
  9
$DIMSAH
 70
     0
  9
$DIMBLK1
  1

  9
$DIMBLK2
  1

  9
$DIMSTYLE
  2
STANDARD
  9
$DIMCLRD
 70
     0
  9
$DIMCLRE
 70
     0
  9
$DIMCLRT
 70
     0
  9
$DIMTFAC
 40
1.0
  9
$DIMGAP
 40
0.09
  9
$LUNITS
 70
     2
  9
$LUPREC
 70
     4
  9
$SKETCHINC
 40
0.1
  9
$FILLETRAD
 40
0.0
  9
$AUNITS
 70
     0
  9
$AUPREC
 70
     0
  9
$MENU
  1
.
  9
$ELEVATION
 40
0.0
  9
$PELEVATION
 40
0.0
  9
$THICKNESS
 40
0.0
  9
$LIMCHECK
 70
     0
  9
$BLIPMODE
 70
     0
  9
$CHAMFERA
 40
0.5
  9
$CHAMFERB
 40
0.5
  9
$SKPOLY
 70
     0
  9
$TDCREATE
 40
2451955.1727028699
  9
$TDUPDATE
 40
2454737.3996209488
  9
$TDINDWG
 40
0.1620142361
  9
$TDUSRTIMER
 40
0.1620140625
  9
$USRTIMER
 70
     1
  9
$ANGBASE
 50
0.0
  9
$ANGDIR
 70
     0
  9
$PDMODE
 70
     0
  9
$PDSIZE
 40
0.0
  9
$PLINEWID
 40
0.0
  9
$COORDS
 70
     1
  9
$SPLFRAME
 70
     0
  9
$SPLINETYPE
 70
     6
  9
$SPLINESEGS
 70
     8
  9
$ATTDIA
 70
     0
  9
$ATTREQ
 70
     1
  9
$HANDLING
 70
 22529
  9
$HANDSEED
  5
3AAA
  9
$SURFTAB1
 70
     6
  9
$SURFTAB2
 70
     6
  9
$SURFTYPE
 70
     6
  9
$SURFU
 70
     6
  9
$SURFV
 70
     6
  9
$UCSNAME
  2

  9
$UCSORG
 10
0.0
 20
0.0
 30
0.0
  9
$UCSXDIR
 10
1.0
 20
0.0
 30
0.0
  9
$UCSYDIR
 10
0.0
 20
1.0
 30
0.0
  9
$PUCSNAME
  2

  9
$PUCSORG
 10
0.0
 20
0.0
 30
0.0
  9
$PUCSXDIR
 10
1.0
 20
0.0
 30
0.0
  9
$PUCSYDIR
 10
0.0
 20
1.0
 30
0.0
  9
$USERI1
 70
     0
  9
$USERI2
 70
     0
  9
$USERI3
 70
     0
  9
$USERI4
 70
     0
  9
$USERI5
 70
     0
  9
$USERR1
 40
0.0
  9
$USERR2
 40
0.0
  9
$USERR3
 40
0.0
  9
$USERR4
 40
0.0
  9
$USERR5
 40
0.0
  9
$WORLDVIEW
 70
     1
  9
$SHADEDGE
 70
     3
  9
$SHADEDIF
 70
    70
  9
$TILEMODE
 70
     1
  9
$MAXACTVP
 70
    48
  9
$PLIMCHECK
 70
     0
  9
$PEXTMIN
 10
1.049636599258096
 20
0.7996597240971113
 30
-0.0015258207003583
  9
$PEXTMAX
 10
9.4503627310769716
 20
7.2003400826974584
 30
0.0000000349246037
  9
$PLIMMIN
 10
-0.2500002402958907
 20
-0.2499999962453767
  9
$PLIMMAX
 10
10.74999951940821
 20
8.2499997634587316
  9
$UNITMODE
 70
     0
  9
$VISRETAIN
 70
     1
  9
$PLINEGEN
 70
     0
  9
$PSLTSCALE
 70
     1
  0
ENDSEC
  0
SECTION
  2
TABLES
  0
TABLE
  2
VPORT
 70
     2
  0
VPORT
  2
*ACTIVE
 70
     0
 10
0.0
 20
0.0
 11
1.0
 21
1.0
 12
43.767057330790081
 22
11.419310906451519
 13
0.0
 23
0.0
 14
0.5
 24
0.5
 15
0.5
 25
0.5
 16
0.0
 26
0.0
 36
1.0
 17
0.0
 27
0.0
 37
0.0
 40
142.98885358689421
 41
1.531806615776081
 42
50.0
 43
0.0
 44
0.0
 50
0.0
 51
0.0
 71
     0
 72
   100
 73
     1
 74
     3
 75
     0
 76
     0
 77
     0
 78
     0
  0
ENDTAB
  0
TABLE
  2
LTYPE
 70
     2
  0
LTYPE
  2
CONTINUOUS
 70
     0
  3
Solid line
 72
    65
 73
     0
 40
0.0
  0
LTYPE
  2
CENTER
 70
     0
  3
__ . __
 72
    65
 73
     4
 40
7.0
 49
4.0
 49
-1.0
 49
1.0
 49
-1.0
  0
ENDTAB
  0
TABLE
  2
LAYER
 70
     1
  0
LAYER
  2
0
 70
     0
 62
     7
  6
CONTINUOUS
  0
ENDTAB
  0
TABLE
  2
STYLE
 70
     1
  0
STYLE
  2
STANDARD
 70
     0
 40
0.0
 41
1.0
 50
0.0
 71
     0
 42
0.2
  3
txt
  4

  0
ENDTAB
  0
TABLE
  2
VIEW
 70
     0
  0
ENDTAB
  0
TABLE
  2
UCS
 70
     0
  0
ENDTAB
  0
TABLE
  2
APPID
 70
    20
  0
APPID
  2
ACAD
 70
     0
  0
APPID
  2
GENIUS_GENODEF_13
 70
     0
  0
APPID
  2
ACAD_DSTYLE_DIMARC_LENGTH_
 70
     0
  0
APPID
  2
ACAD_DSTYLE_DIMJOGGED_JOGA
 70
     0
  0
APPID
  2
GENIUS_GENOBJ-N-FIL_13
 70
     0
  0
APPID
  2
ACAD_MLEADERVER
 70
     0
  0
APPID
  2
MCAD_NO_VIS
 70
     0
  0
APPID
  2
ACAD_TEMP_GRAPHIC
 70
     0
  0
APPID
  2
AD_DRAW
 70
     0
  0
APPID
  2
ACATTRIBSERVICES
 70
     0
  0
APPID
  2
DESIGNERASSEMBLIES
 70
     0
  0
APPID
  2
ACADM_DIM_EDIT
 70
     0
  0
APPID
  2
AMDT_DM_ADJ
 70
     0
  0
APPID
  2
GENIUS_GENSCREG_15
 70
     0
  0
APPID
  2
GENIUS_GENOBJ-N-SDF_13
 70
     0
  0
APPID
  2
ACAD_DSTYLE_DIM_LINETYPE
 70
     0
  0
APPID
  2
ACAD_DSTYLE_DIM_EXT1_LINETYPE
 70
     0
  0
APPID
  2
ACAD_DSTYLE_DIM_EXT2_LINETYPE
 70
     0
  0
APPID
  2
ACAD_EXEMPT_FROM_CAD_STANDARDS
 70
     0
  0
APPID
  2
ACAD_DSTYLE_DIMRADIAL_EXTENSION
 70
     0
  0
ENDTAB
  0
TABLE
  2
DIMSTYLE
 70
     1
  0
DIMSTYLE
  2
STANDARD
 70
     0
  3

  4

  5

  6

  7

 40
1.0
 41
0.18
 42
0.0625
 43
0.38
 44
0.18
 45
0.0
 46
0.0
 47
0.0
 48
0.0
140
0.18
141
0.09
142
0.0
143
25.399999999999999
144
1.0
145
0.0
146
1.0
147
0.09
 71
     0
 72
     0
 73
     1
 74
     1
 75
     0
 76
     0
 77
     0
 78
     0
170
     0
171
     2
172
     0
173
     0
174
     0
175
     0
176
     0
177
     0
178
     0
  0
ENDTAB
  0
ENDSEC
  0
SECTION
  2
BLOCKS
  0
BLOCK
  8
0
  2
$MODEL_SPACE
 70
     0
 10
0.0
 20
0.0
 30
0.0
  3
$MODEL_SPACE
  1

  0
ENDBLK
  5
21
  8
0
  0
BLOCK
 67
     1
  8
0
  2
$PAPER_SPACE
 70
     0
 10
0.0
 20
0.0
 30
0.0
  3
$PAPER_SPACE
  1

  0
ENDBLK
  5
60
 67
     1
  8
0
  0
ENDSEC
  0
SECTION
  2
ENTITIES
  0
TEXT
  5
2C9C
  8
0
 10
48.146878637789086
 20
77.344016916450016
 30
0.0
 40
5.0
  1
13MHHM-LW 3S 
  0
LINE
  5
3122
  8
0
  6
CENTER
 62
     7
 10
-64.074317257663253
 20
0.0
 30
0.0
 11
64.074317257663239
 21
0.0
 31
0.0
  0
LINE
  5
3123
  8
0
  6
CENTER
 62
     7
 10
0.0
 20
59.501088561940293
 30
0.0
 11
0.0
 21
-59.5010885619403
 31
0.0
  0
ARC
  5
3124
  8
0
 10
0.0
 20
0.0
 30
0.0
 40
42.5
 50
187.71561817694399
 51
351.1501169015711
  0
ARC
  5
3125
  8
0
 10
0.0
 20
0.0
 30
0.0
 40
53.5
 50
197.64258117807211
 51
341.42268291564062
  0
LINE
  5
3128
  8
0
  6
CENTER
 62
     7
 10
-53.5
 20
-15.738329999999991
 30
0.0
 11
-53.5
 21
15.738329999999991
 31
0.0
  0
LINE
  5
3129
  8
0
  6
CENTER
 62
     7
 10
-60.27688999999998
 20
-8.5
 30
0.0
 11
-47.180239999999912
 21
-8.5
 31
0.0
  0
LINE
  5
312A
  8
0
  6
CONTINUOUS
 62
     7
 10
-51.13614999999993
 20
-3.4568700000000092
 30
0.0
 11
-47.114296739242782
 21
-2.3792156489014782
 31
0.0
  0
ARC
  5
312C
  8
0
  6
CONTINUOUS
 62
     7
 10
-53.5
 20
-8.5
 30
0.0
 40
4.5
 50
215.88829999999919
 51
35.888315265847659
  0
LINE
  5
312E
  8
0
  6
CENTER
 62
     7
 10
-60.27688999999998
 20
8.5
 30
0.0
 11
-47.180239999999912
 21
8.5
 31
0.0
  0
ARC
  5
3131
  8
0
  6
CONTINUOUS
 62
     7
 10
-53.5
 20
8.5
 30
0.0
 40
4.5
 50
324.1117029999977
 51
144.1117000000007
  0
ARC
  5
3133
  8
0
  6
CONTINUOUS
 62
     7
 10
-41.752659999999992
 20
0.0
 30
0.0
 40
10.0
 50
144.1117099999984
 51
215.88828999999859
  0
ARC
  5
3134
  8
0
  6
CONTINUOUS
 62
     7
 10
-41.752659999999992
 20
0.0
 30
0.0
 40
19.0
 50
144.1117099999984
 51
215.88828999999859
  0
CIRCLE
  5
3135
  8
0
 10
-53.5
 20
-8.5
 30
0.0
 40
2.5999998999999989
  0
CIRCLE
  5
3136
  8
0
 10
-53.5
 20
8.5
 30
0.0
 40
2.5999998999999989
  0
LINE
  5
3137
  8
0
  6
CONTINUOUS
 62
     7
 10
44.958314025327951
 20
-4.0
 30
0.0
 11
67.0
 21
-4.0
 31
0.0
  0
LINE
  5
3138
  8
0
  6
CONTINUOUS
 62
     7
 10
53.556045410392272
 20
-15.0
 30
0.0
 11
67.0
 21
-15.0
 31
0.0
  0
LINE
  5
3139
  8
0
  6
CONTINUOUS
 62
     7
 10
46.060670000000037
 20
51.999999999999943
 30
0.0
 11
73.939329999999984
 21
51.999999999999943
 31
0.0
  0
LINE
  5
313A
  8
0
  6
CONTINUOUS
 62
     7
 10
67.0
 20
14.99999999999997
 30
0.0
 11
67.0
 21
4.0
 31
0.0
  0
LINE
  5
313B
  8
0
  6
CONTINUOUS
 62
     7
 10
67.0
 20
-4.0
 30
0.0
 11
67.0
 21
-15.0
 31
0.0
  0
LINE
  5
313C
  8
0
  6
CENTER
 62
     7
 10
49.855099999999993
 20
-9.5
 30
0.0
 11
71.193270000000041
 21
-9.5
 31
0.0
  0
LINE
  5
313D
  8
0
  6
CONTINUOUS
 62
     7
 10
52.25
 20
22.03006000000002
 30
0.0
 11
52.25
 21
17.899989999999999
 31
0.0
  0
LINE
  5
313E
  8
0
  6
CONTINUOUS
 62
     7
 10
67.75
 20
22.03006000000002
 30
0.0
 11
67.75
 21
17.899989999999999
 31
0.0
  0
LINE
  5
313F
  8
0
  6
CENTER
 62
     7
 10
60.0
 20
58.275050000000022
 30
0.0
 11
60.0
 21
-25.40791999999999
 31
0.0
  0
LINE
  5
3140
  8
0
  6
CONTINUOUS
 62
     7
 10
55.0
 20
42.999999999999943
 30
0.0
 11
55.0
 21
31.199999999999989
 31
0.0
  0
LINE
  5
3141
  8
0
  6
CONTINUOUS
 62
     7
 10
65.0
 20
42.999999999999943
 30
0.0
 11
65.0
 21
31.199999999999989
 31
0.0
  0
LINE
  5
3142
  8
0
  6
CONTINUOUS
 62
     7
 10
57.0
 20
29.199999999999989
 30
0.0
 11
63.0
 21
29.199999999999989
 31
0.0
  0
LINE
  5
3143
  8
0
  6
CONTINUOUS
 62
     7
 10
64.0
 20
39.42821
 30
0.0
 11
64.0
 21
29.467960000000001
 31
0.0
  0
LINE
  5
3144
  8
0
  6
CONTINUOUS
 62
     7
 10
56.0
 20
39.42821
 30
0.0
 11
56.0
 21
29.467960000000001
 31
0.0
  0
LINE
  5
3148
  8
0
  6
CONTINUOUS
 62
     7
 10
64.0
 20
4.0000000000000284
 30
0.0
 11
64.0
 21
-4.0
 31
0.0
  0
LINE
  5
3149
  8
0
  6
CONTINUOUS
 62
     7
 10
56.0
 20
4.0000000000000284
 30
0.0
 11
56.0
 21
-4.0
 31
0.0
  0
ARC
  5
314A
  8
0
  6
CONTINUOUS
 62
     7
 10
73.939329999999984
 20
49.999999999999943
 30
0.0
 40
2.0
 50
3.4746007000001811
 51
90.000003000000945
  0
ARC
  5
314B
  8
0
  6
CONTINUOUS
 62
     7
 10
46.060670000000037
 20
49.999999999999943
 30
0.0
 40
2.0
 50
90.000003000000945
 51
176.52540999999971
  0
ARC
  5
314C
  8
0
  6
CONTINUOUS
 62
     7
 10
60.0
 20
-9.5
 30
0.0
 40
6.0
 50
246.44353999999959
 51
293.55647000000141
  0
ARC
  5
314E
  8
0
  6
CONTINUOUS
 62
     7
 10
60.0
 20
17.899989999999999
 30
0.0
 40
7.75
 50
180.00000999999929
 51
200.1401622213283
  0
ARC
  5
314F
  8
0
  6
CONTINUOUS
 62
     7
 10
60.0
 20
17.899989999999999
 30
0.0
 40
7.75
 50
334.58537908484038
 51
0.0
  0
ARC
  5
3150
  8
0
  6
CONTINUOUS
 62
     7
 10
40.999999999999957
 20
47.999999999999943
 30
0.0
 40
35.0
 50
324.75248999999991
 51
3.4746007000001811
  0
ARC
  5
3151
  8
0
  6
CONTINUOUS
 62
     7
 10
77.75
 20
22.03006000000002
 30
0.0
 40
10.0
 50
144.75249999999849
 51
180.00000999999929
  0
ARC
  5
3152
  8
0
  6
CONTINUOUS
 62
     7
 10
42.249999999999957
 20
22.03006000000002
 30
0.0
 40
10.0
 50
0.0
 51
35.247505000000771
  0
ARC
  5
3153
  8
0
  6
CONTINUOUS
 62
     7
 10
79.0
 20
47.999999999999943
 30
0.0
 40
35.0
 50
176.52540999999971
 51
215.24750999999901
  0
ARC
  5
3154
  8
0
  6
CONTINUOUS
 62
     7
 10
60.0
 20
42.999999999999943
 30
0.0
 40
5.0
 50
0.0
 51
180.00000999999929
  0
ARC
  5
3155
  8
0
  6
CONTINUOUS
 62
     7
 10
63.0
 20
31.199999999999989
 30
0.0
 40
2.0
 50
270.0
 51
0.0
  0
ARC
  5
3156
  8
0
  6
CONTINUOUS
 62
     7
 10
57.0
 20
31.199999999999989
 30
0.0
 40
2.0
 50
179.99999000000059
 51
270.0
  0
ARC
  5
3157
  8
0
  6
CONTINUOUS
 62
     7
 10
60.0
 20
32.5
 30
0.0
 40
8.0
 50
60.000002000001501
 51
119.9999999999999
  0
LINE
  5
3159
  8
0
  6
CONTINUOUS
 62
     7
 10
44.958314025327951
 20
4.0
 30
0.0
 11
67.0
 21
4.0
 31
0.0
  0
LINE
  5
315A
  8
0
  6
CONTINUOUS
 62
     7
 10
53.556045410392272
 20
15.0
 30
0.0
 11
67.0
 21
14.99999999999997
 31
0.0
  0
CIRCLE
  5
315D
  8
0
 10
60.0
 20
-9.5
 30
0.0
 40
3.5
  0
ARC
  5
315E
  8
0
 10
-46.079018750228208
 20
-6.2429184694431887
 30
0.0
 40
4.0
 50
7.7156181769439991
 51
105.0000268202288
  0
ARC
  5
315F
  8
0
 10
-55.748492794468582
 20
-17.73007476422714
 30
0.0
 40
5.0
 50
17.642581178072088
 51
76.309122690864612
  0
ARC
  5
3160
  8
0
 10
44.958314025327951
 20
-7.0
 30
0.0
 40
3.0
 50
90.0
 51
171.1501169015711
  0
ARC
  5
3161
  8
0
 10
53.556045410392272
 20
-18.0
 30
0.0
 40
3.0
 50
90.0
 51
161.42268291564099
  0
LINE
  5
3164
  8
0
  6
CONTINUOUS
 62
     7
 10
147.29156916882241
 20
27.199999999999982
 30
0.0
 11
147.29156916882241
 21
17.899989999999999
 31
0.0
  0
LINE
  5
3165
  8
0
  6
CONTINUOUS
 62
     7
 10
143.54156916882241
 20
39.42821
 30
0.0
 11
143.54156916882241
 21
29.389600000000002
 31
0.0
  0
LINE
  5
3166
  8
0
  6
CONTINUOUS
 62
     7
 10
143.54156916882241
 20
12.0
 30
0.0
 11
143.54156916882241
 21
-14.428190000000001
 31
0.0
  0
LINE
  5
316B
  8
0
  6
CENTER
 62
     7
 10
127.4648491688224
 20
0.0
 30
0.0
 11
151.6182891688224
 21
0.0
 31
0.0
  0
LINE
  5
316C
  8
0
  6
CONTINUOUS
 62
     7
 10
149.04156916882241
 20
15.0
 30
0.0
 11
149.04156916882241
 21
4.0
 31
0.0
  0
LINE
  5
316D
  8
0
  6
CONTINUOUS
 62
     7
 10
149.04156916882241
 20
-4.0
 30
0.0
 11
149.04156916882241
 21
-15.0
 31
0.0
  0
LINE
  5
316E
  8
0
  6
CONTINUOUS
 62
     7
 10
143.79156916882249
 20
10.62368999999998
 30
0.0
 11
143.79156916882249
 21
4.0
 31
0.0
  0
LINE
  5
316F
  8
0
  6
CONTINUOUS
 62
     7
 10
143.79156916882249
 20
-15.0
 30
0.0
 11
149.04156916882241
 21
-15.0
 31
0.0
  0
LINE
  5
3170
  8
0
  6
CONTINUOUS
 62
     7
 10
143.79156916882249
 20
-4.0
 30
0.0
 11
149.04156916882241
 21
-4.0
 31
0.0
  0
LINE
  5
3171
  8
0
  6
CONTINUOUS
 62
     7
 10
143.79156916882249
 20
-4.0
 30
0.0
 11
143.79156916882249
 21
-15.0
 31
0.0
  0
LINE
  5
3172
  8
0
  6
CONTINUOUS
 62
     7
 10
143.79156916882249
 20
4.0
 30
0.0
 11
149.04156916882241
 21
4.0
 31
0.0
  0
LINE
  5
3173
  8
0
  6
CONTINUOUS
 62
     7
 10
147.76818916882249
 20
15.0
 30
0.0
 11
149.04156916882241
 21
15.0
 31
0.0
  0
LINE
  5
3174
  8
0
  6
CONTINUOUS
 62
     7
 10
142.39157916882249
 20
50.999999999999943
 30
0.0
 11
142.39157916882249
 21
31.199999999999989
 31
0.0
  0
LINE
  5
3175
  8
0
  6
CONTINUOUS
 62
     7
 10
148.2915591688224
 20
-45.498220106678559
 30
0.0
 11
146.74375916882241
 21
-51.274670106678549
 31
0.0
  0
LINE
  5
3176
  8
0
  6
CONTINUOUS
 62
     7
 10
135.2371491688225
 20
-53.498220106678573
 30
0.0
 11
143.84598916882251
 21
-53.498220106678573
 31
0.0
  0
LINE
  5
3177
  8
0
  6
CONTINUOUS
 62
     7
 10
130.7915591688224
 20
-45.498220106678559
 30
0.0
 11
132.33935916882251
 21
-51.274680106678581
 31
0.0
  0
LINE
  5
3178
  8
0
  6
CONTINUOUS
 62
     7
 10
148.29156916882241
 20
-15.0
 30
0.0
 11
148.2915591688224
 21
-45.498220106678559
 31
0.0
  0
LINE
  5
3179
  8
0
  6
CONTINUOUS
 62
     7
 10
129.04156916882249
 20
-13.0
 30
0.0
 11
130.04156916882249
 21
-13.0
 31
0.0
  0
LINE
  5
317A
  8
0
  6
CONTINUOUS
 62
     7
 10
129.04156916882249
 20
13.0
 30
0.0
 11
130.04156916882249
 21
13.0
 31
0.0
  0
LINE
  5
317B
  8
0
  6
CONTINUOUS
 62
     7
 10
129.04156916882249
 20
13.0
 30
0.0
 11
129.04156916882249
 21
-13.0
 31
0.0
  0
LINE
  5
317C
  8
0
  6
CONTINUOUS
 62
     7
 10
149.04156916882241
 20
-6.3999900000000016
 30
0.0
 11
149.54156916882241
 21
-6.3999900000000016
 31
0.0
  0
LINE
  5
317D
  8
0
  6
CONTINUOUS
 62
     7
 10
149.04156916882241
 20
-12.60000999999999
 30
0.0
 11
149.54156916882241
 21
-12.60000999999999
 31
0.0
  0
LINE
  5
317E
  8
0
  6
CONTINUOUS
 62
     7
 10
144.5667591688225
 20
12.0
 30
0.0
 11
134.51638916882251
 21
12.0
 31
0.0
  0
LINE
  5
317F
  8
0
  6
CONTINUOUS
 62
     7
 10
145.29156916882241
 20
29.199999999999989
 30
0.0
 11
133.79156916882241
 21
29.199999999999989
 31
0.0
  0
LINE
  5
3180
  8
0
  6
CONTINUOUS
 62
     7
 10
131.79156916882241
 20
27.199999999999982
 30
0.0
 11
131.79156916882241
 21
17.899989999999999
 31
0.0
  0
LINE
  5
3182
  8
0
  6
CONTINUOUS
 62
     7
 10
135.54156916882241
 20
39.42821
 30
0.0
 11
135.54156916882241
 21
29.389600000000002
 31
0.0
  0
LINE
  5
3183
  8
0
  6
CONTINUOUS
 62
     7
 10
135.54156916882241
 20
12.0
 30
0.0
 11
135.54156916882241
 21
-14.428190000000001
 31
0.0
  0
LINE
  5
3188
  8
0
  6
CONTINUOUS
 62
     7
 10
130.04156916882249
 20
15.0
 30
0.0
 11
130.04156916882249
 21
4.0
 31
0.0
  0
LINE
  5
3189
  8
0
  6
CONTINUOUS
 62
     7
 10
130.04156916882249
 20
-4.0
 30
0.0
 11
130.04156916882249
 21
-15.0
 31
0.0
  0
LINE
  5
318A
  8
0
  6
CONTINUOUS
 62
     7
 10
135.29156916882249
 20
10.62368999999998
 30
0.0
 11
135.29156916882249
 21
4.0
 31
0.0
  0
LINE
  5
318B
  8
0
  6
CONTINUOUS
 62
     7
 10
135.29156916882249
 20
-15.0
 30
0.0
 11
130.04156916882249
 21
-15.0
 31
0.0
  0
LINE
  5
318C
  8
0
  6
CONTINUOUS
 62
     7
 10
135.29156916882249
 20
-4.0
 30
0.0
 11
130.04156916882249
 21
-4.0
 31
0.0
  0
LINE
  5
318D
  8
0
  6
CONTINUOUS
 62
     7
 10
135.29156916882249
 20
-4.0
 30
0.0
 11
135.29156916882249
 21
-15.0
 31
0.0
  0
LINE
  5
318E
  8
0
  6
CONTINUOUS
 62
     7
 10
135.29156916882249
 20
4.0
 30
0.0
 11
130.04156916882249
 21
4.0
 31
0.0
  0
LINE
  5
318F
  8
0
  6
CONTINUOUS
 62
     7
 10
131.31494916882249
 20
15.0
 30
0.0
 11
130.04156916882249
 21
15.0
 31
0.0
  0
LINE
  5
3190
  8
0
  6
CENTER
 62
     7
 10
151.49160916882249
 20
-9.5
 30
0.0
 11
127.59153916882249
 21
-9.5
 31
0.0
  0
LINE
  5
3191
  8
0
  6
CONTINUOUS
 62
     7
 10
136.6915791688225
 20
50.999999999999943
 30
0.0
 11
136.6915791688225
 21
31.199999999999989
 31
0.0
  0
LINE
  5
3192
  8
0
  6
CONTINUOUS
 62
     7
 10
141.39157916882249
 20
51.999999999999943
 30
0.0
 11
137.6915791688225
 21
51.999999999999943
 31
0.0
  0
LINE
  5
3193
  8
0
  6
CONTINUOUS
 62
     7
 10
130.04156916882249
 20
-6.3999900000000016
 30
0.0
 11
129.54156916882241
 21
-6.3999900000000016
 31
0.0
  0
LINE
  5
3194
  8
0
  6
CONTINUOUS
 62
     7
 10
130.04156916882249
 20
-12.60000999999999
 30
0.0
 11
129.54156916882241
 21
-12.60000999999999
 31
0.0
  0
LINE
  5
3195
  8
0
  6
CONTINUOUS
 62
     7
 10
130.79156916882241
 20
-15.0
 30
0.0
 11
130.7915591688224
 21
-45.498220106678559
 31
0.0
  0
LINE
  5
3196
  8
0
  6
CONTINUOUS
 62
     7
 10
150.04156916882249
 20
-13.0
 30
0.0
 11
149.04156916882241
 21
-13.0
 31
0.0
  0
LINE
  5
3197
  8
0
  6
CONTINUOUS
 62
     7
 10
150.04156916882249
 20
13.0
 30
0.0
 11
150.04156916882249
 21
-13.0
 31
0.0
  0
LINE
  5
3198
  8
0
  6
CONTINUOUS
 62
     7
 10
150.04156916882249
 20
13.0
 30
0.0
 11
149.04156916882241
 21
13.0
 31
0.0
  0
LINE
  5
3199
  8
0
  6
CONTINUOUS
 62
     7
 10
144.04144916882251
 20
11.285009999999991
 30
0.0
 11
147.01807916882251
 21
14.661329999999991
 31
0.0
  0
LINE
  5
319A
  8
0
  6
CONTINUOUS
 62
     7
 10
135.0416791688225
 20
11.28498999999999
 30
0.0
 11
132.0650491688225
 21
14.661319999999989
 31
0.0
  0
LINE
  5
319B
  8
0
  6
CONTINUOUS
 62
     7
 10
146.14797916882239
 20
-15.0
 30
0.0
 11
146.1479691688225
 21
-51.143960106678563
 31
0.0
  0
LINE
  5
319C
  8
0
  6
CONTINUOUS
 62
     7
 10
132.93516916882251
 20
-15.0
 30
0.0
 11
132.93515916882251
 21
-50.718800106678572
 31
0.0
  0
LINE
  5
31A5
  8
0
  6
CENTER
 62
     7
 10
139.54156916882241
 20
58.275050000000022
 30
0.0
 11
139.54156916882241
 21
-59.501088561940293
 31
0.0
  0
LINE
  5
31A6
  8
0
  6
CONTINUOUS
 62
     7
 10
129.04156916882249
 20
6.0
 30
0.0
 11
128.54156916882241
 21
6.0
 31
0.0
  0
LINE
  5
31A7
  8
0
  6
CONTINUOUS
 62
     7
 10
129.04156916882249
 20
11.0
 30
0.0
 11
128.54156916882241
 21
11.0
 31
0.0
  0
LINE
  5
31A8
  8
0
  6
CONTINUOUS
 62
     7
 10
129.04156916882249
 20
-11.0
 30
0.0
 11
128.54156916882241
 21
-11.0
 31
0.0
  0
LINE
  5
31A9
  8
0
  6
CONTINUOUS
 62
     7
 10
129.04156916882249
 20
-6.0
 30
0.0
 11
128.54156916882241
 21
-6.0
 31
0.0
  0
LINE
  5
31AA
  8
0
  6
CONTINUOUS
 62
     7
 10
128.04156916882241
 20
10.5
 30
0.0
 11
128.04156916882241
 21
6.5
 31
0.0
  0
LINE
  5
31AB
  8
0
  6
CONTINUOUS
 62
     7
 10
128.04156916882241
 20
-6.5
 30
0.0
 11
128.04156916882241
 21
-10.5
 31
0.0
  0
ARC
  5
31AC
  8
0
  6
CONTINUOUS
 62
     7
 10
139.54156916882241
 20
17.899989999999999
 30
0.0
 40
7.75
 50
310.42191999999977
 51
0.0
  0
ARC
  5
31AD
  8
0
  6
CONTINUOUS
 62
     7
 10
139.54156916882241
 20
32.5
 30
0.0
 40
8.0
 50
60.000002000001501
 51
69.129929000001496
  0
ARC
  5
31AE
  8
0
  6
CONTINUOUS
 62
     7
 10
145.29156916882241
 20
27.199999999999982
 30
0.0
 40
2.0
 50
0.0
 51
90.000003000000945
  0
ARC
  5
31AF
  8
0
  6
CONTINUOUS
 62
     7
 10
144.39157916882249
 20
31.199999999999989
 30
0.0
 40
2.0
 50
179.99999000000059
 51
270.0
  0
ARC
  5
31B0
  8
0
  6
CONTINUOUS
 62
     7
 10
141.39157916882249
 20
50.999999999999943
 30
0.0
 40
1.0
 50
0.0
 51
90.000003000000945
  0
ARC
  5
31B1
  8
0
  6
CONTINUOUS
 62
     7
 10
135.2371491688225
 20
-50.498220106678559
 30
0.0
 40
3.0
 50
195.00001000000049
 51
270.0
  0
ARC
  5
31B2
  8
0
  6
CONTINUOUS
 62
     7
 10
143.84598916882251
 20
-50.498220106678559
 30
0.0
 40
3.0
 50
270.0
 51
345.0000000000008
  0
ARC
  5
31B3
  8
0
  6
CONTINUOUS
 62
     7
 10
137.6915791688225
 20
50.999999999999943
 30
0.0
 40
1.0
 50
89.999996000000905
 51
180.00000999999929
  0
ARC
  5
31B4
  8
0
  6
CONTINUOUS
 62
     7
 10
134.6915791688225
 20
31.199999999999989
 30
0.0
 40
2.0
 50
270.0
 51
0.0000050089553168
  0
ARC
  5
31B5
  8
0
  6
CONTINUOUS
 62
     7
 10
139.54156916882241
 20
-7.5
 30
0.0
 40
8.0
 50
240.0
 51
299.99999999999989
  0
ARC
  5
31B6
  8
0
  6
CONTINUOUS
 62
     7
 10
139.54156916882241
 20
17.899989999999999
 30
0.0
 40
7.75
 50
180.00000999999929
 51
229.57809999999989
  0
ARC
  5
31B7
  8
0
  6
CONTINUOUS
 62
     7
 10
139.54156916882241
 20
32.5
 30
0.0
 40
8.0
 50
110.87007000000131
 51
119.9999999999999
  0
ARC
  5
31B8
  8
0
  6
CONTINUOUS
 62
     7
 10
133.79156916882241
 20
27.199999999999982
 30
0.0
 40
2.0
 50
89.999996000000905
 51
180.00000999999929
  0
ARC
  5
31B9
  8
0
  6
CONTINUOUS
 62
     7
 10
131.31494916882249
 20
14.0
 30
0.0
 40
1.0
 50
41.399999999999942
 51
90.000003000000945
  0
ARC
  5
31BA
  8
0
  6
CONTINUOUS
 62
     7
 10
134.29156916882241
 20
10.62368999999998
 30
0.0
 40
1.0
 50
0.0
 51
41.399999999999942
  0
ARC
  5
31BB
  8
0
  6
CONTINUOUS
 62
     7
 10
144.79156916882241
 20
10.62368999999998
 30
0.0
 40
1.0
 50
138.59999999999999
 51
180.00000999999929
  0
ARC
  5
31BC
  8
0
  6
CONTINUOUS
 62
     7
 10
147.76818916882249
 20
14.0
 30
0.0
 40
1.0
 50
90.000003000000945
 51
138.59999999999999
  0
ARC
  5
31BF
  8
0
  6
CONTINUOUS
 62
     7
 10
128.54156916882241
 20
10.5
 30
0.0
 40
0.5
 50
90.000003000000945
 51
180.00000999999929
  0
ARC
  5
31C0
  8
0
  6
CONTINUOUS
 62
     7
 10
128.54156916882241
 20
6.5
 30
0.0
 40
0.5
 50
179.99999000000059
 51
270.0
  0
ARC
  5
31C1
  8
0
  6
CONTINUOUS
 62
     7
 10
147.41656916882241
 20
8.5
 30
0.0
 40
3.625
 50
316.39717999999891
 51
43.602817999998997
  0
ARC
  5
31C2
  8
0
  6
CONTINUOUS
 62
     7
 10
128.54156916882241
 20
-10.5
 30
0.0
 40
0.5
 50
179.99999000000059
 51
270.0
  0
ARC
  5
31C3
  8
0
  6
CONTINUOUS
 62
     7
 10
128.54156916882241
 20
-6.5
 30
0.0
 40
0.5
 50
90.000003000000945
 51
180.00000999999929
  0
ARC
  5
31C4
  8
0
  6
CONTINUOUS
 62
     7
 10
147.41656916882241
 20
-8.5
 30
0.0
 40
3.625
 50
316.39717999999891
 51
43.602817999998997
  0
ARC
  5
31C5
  8
0
  6
CONTINUOUS
 62
     7
 10
129.54156916882241
 20
-12.10000999999999
 30
0.0
 40
0.5
 50
179.99999000000059
 51
270.0
  0
ARC
  5
31C6
  8
0
  6
CONTINUOUS
 62
     7
 10
129.54156916882241
 20
-6.8999900000000016
 30
0.0
 40
0.5
 50
90.000003000000945
 51
180.00000999999929
  0
ARC
  5
31C7
  8
0
  6
CONTINUOUS
 62
     7
 10
149.54156916882241
 20
-6.8999900000000016
 30
0.0
 40
0.5
 50
0.0
 51
90.000003000000945
  0
ARC
  5
31C8
  8
0
  6
CONTINUOUS
 62
     7
 10
149.54156916882241
 20
-12.10000999999999
 30
0.0
 40
0.5
 50
270.0
 51
0.0
  0
ARC
  5
31F1
  8
0
 10
0.0
 20
0.0
 30
0.0
 40
45.498220106678559
 50
182.89035120756321
 51
354.95629981769781
  0
ARC
  5
31F3
  8
0
 10
0.0
 20
0.0
 30
0.0
 40
42.5
 50
8.849883098429272
 51
172.28438182305641
  0
ARC
  5
31F4
  8
0
 10
44.958314025327951
 20
7.0
 30
0.0
 40
3.0
 50
188.84988309842839
 51
270.0
  0
ARC
  5
31F5
  8
0
 10
-46.079018750228208
 20
6.2429184694431887
 30
0.0
 40
4.0
 50
254.9999731797711
 51
352.28438182305638
  0
ARC
  5
31F6
  8
0
 10
0.0
 20
0.0
 30
0.0
 40
53.5
 50
18.57731708435934
 51
162.3574188219275
  0
ARC
  5
31F7
  8
0
 10
53.556045410392272
 20
18.0
 30
0.0
 40
3.0
 50
198.57731708435929
 51
270.0
  0
LINE
  5
31F8
  8
0
  6
CONTINUOUS
 62
     7
 10
-51.13614999999993
 20
3.4568700000000092
 30
0.0
 11
-47.114296739242782
 21
2.3792156489014782
 31
0.0
  0
ARC
  5
31F9
  8
0
 10
-55.748492794468582
 20
17.73007476422714
 30
0.0
 40
5.0
 50
283.69087730913537
 51
342.35741882192752
  0
ARC
  5
31FA
  8
0
 10
0.0
 20
0.0
 30
0.0
 40
45.498220106678559
 50
5.043700182302608
 51
177.1096487924367
  0
LINE
  5
31FB
  8
0
  6
CONTINUOUS
 62
     7
 10
148.2915591688224
 20
45.498220106678552
 30
0.0
 11
146.74375916882241
 21
51.274670106678542
 31
0.0
  0
LINE
  5
31FC
  8
0
  6
CONTINUOUS
 62
     7
 10
135.2371491688225
 20
53.498220106678559
 30
0.0
 11
143.84598916882251
 21
53.498220106678559
 31
0.0
  0
LINE
  5
31FD
  8
0
  6
CONTINUOUS
 62
     7
 10
130.7915591688224
 20
45.498220106678552
 30
0.0
 11
132.33935916882251
 21
51.274680106678581
 31
0.0
  0
LINE
  5
31FE
  8
0
  6
CONTINUOUS
 62
     7
 10
148.29156916882241
 20
15.0
 30
0.0
 11
148.2915591688224
 21
45.498220106678552
 31
0.0
  0
LINE
  5
31FF
  8
0
  6
CONTINUOUS
 62
     7
 10
130.79156916882241
 20
15.0
 30
0.0
 11
130.7915591688224
 21
45.498220106678552
 31
0.0
  0
LINE
  5
3200
  8
0
  6
CONTINUOUS
 62
     7
 10
146.1479752933852
 20
29.007365084815849
 30
0.0
 11
146.1479691688225
 21
51.143960106678549
 31
0.0
  0
LINE
  5
3201
  8
0
  6
CONTINUOUS
 62
     7
 10
132.93516524725561
 20
29.007366128686979
 30
0.0
 11
132.93515916882251
 21
50.718800106678572
 31
0.0
  0
ARC
  5
3202
  8
0
  6
CONTINUOUS
 62
     7
 10
135.2371491688225
 20
50.498220106678559
 30
0.0
 40
3.0
 50
90.0
 51
164.9999899999994
  0
ARC
  5
3203
  8
0
  6
CONTINUOUS
 62
     7
 10
143.84598916882251
 20
50.498220106678559
 30
0.0
 40
3.0
 50
14.99999999999916
 51
90.0
  0
VIEWPORT
  5
79
 67
     1
  8
0
 10
5.2499996395561617
 20
3.9999998836066761
 30
0.0
 40
15.015580297613511
 41
8.5939224089826052
 68
     1
 69
     1
1001
ACAD
1000
MVIEW
1002
{
1070
    16
1010
0.0
1020
0.0
1030
0.0
1010
0.0
1020
0.0
1030
1.0
1040
0.0
1040
8.5939224089826052
1040
5.2499996395561617
1040
3.9999998836066761
1040
50.0
1040
0.0
1040
0.0
1070
     0
1070
   100
1070
     1
1070
     1
1070
     0
1070
     0
1070
     0
1070
     0
1040
0.0
1040
0.0
1040
0.0
1040
10.0
1040
10.0
1040
10.0
1040
10.0
1070
     0
1002
{
1002
}
1002
}
1001
GENIUS_GENOBJ-N-SDF_13
1002
{
1000
OWNER
1000
GEN
1002
}
1001
GENIUS_GENODEF_13
1002
{
1000
HIER
1070
     0
1002
}
1002
{
1000
MANEDIT
1070
     0
1002
}
1002
{
1000
NOSEL
1070
     0
1002
}
1002
{
1000
BEHIND
1070
     0
1002
}
1002
{
1000
OTHER
1070
     0
1002
}
1002
{
1000
REACTOR
1002
}
1001
GENIUS_GENSCREG_15
1000
PF
1040
1.0
1000
DF
1040
1.0
1000
MIN
1011
-2.2577905092505972
1021
-1.0565890685137406E+270
1031
0.0
1021
-0.2969613208846251
1031
0.0
1000
MAX
1011
12.757789788362921
1021
-1.0565890685137406E+270
1031
0.0
1021
8.2969610880979801
1031
0.0
1000
FLAGS
1070
     4
  0
VIEWPORT
  5
7B
 67
     1
  8
0
 10
5.24999976158142
 20
3.99999976158142
 30
0.0
 40
8.3999996185302717
 41
6.3999996185302717
 68
     2
 69
     2
1001
ACAD
1000
MVIEW
1002
{
1070
    16
1010
0.0
1020
0.0
1030
0.0
1010
0.0
1020
0.0
1030
1.0
1040
0.0
1040
9.2590797717467002
1040
6.0
1040
4.5
1040
50.0
1040
0.0
1040
0.0
1070
     0
1070
   100
1070
     1
1070
     3
1070
     0
1070
     0
1070
     0
1070
     0
1040
0.0
1040
0.0
1040
0.0
1040
0.5
1040
0.5
1040
0.5
1040
0.5
1070
     0
1002
{
1002
}
1002
}
1001
GENIUS_GENODEF_13
1002
{
1000
HIER
1070
     0
1002
}
1002
{
1000
MANEDIT
1070
     0
1002
}
1002
{
1000
NOSEL
1070
     0
1002
}
1002
{
1000
BEHIND
1070
     0
1002
}
1002
{
1000
OTHER
1070
     0
1002
}
1002
{
1000
REACTOR
1002
}
1001
GENIUS_GENOBJ-N-SDF_13
1002
{
1000
OWNER
1000
GEN
1002
}
1001
GENIUS_GENSCREG_15
1000
PF
1040
0.0
1000
DF
1040
0.0
1000
MIN
1011
1.049999952316284
1021
-1.0565890685137406E+270
1031
0.0
1021
0.7999999523162842
1031
0.0
1000
MAX
1011
9.4499995708465558
1021
-1.0565890685137406E+270
1031
0.0
1021
7.1999995708465558
1031
0.0
1000
FLAGS
1070
     4
  0
ENDSEC
  0
EOF
