  0
SECTION
  2
HEADER
  9
$ACADVER
  1
AC1009
  9
$INSBASE
 10
0.0
 20
0.0
 30
0.0
  9
$EXTMIN
 10
-59.598495000000007
 20
-53.61305650000002
 30
0.0
  9
$EXTMAX
 10
151.6182891688224
 20
82.344016916450045
 30
0.0
  9
$LIMMIN
 10
0.0
 20
0.0
  9
$LIMMAX
 10
12.0
 20
9.0
  9
$ORTHOMODE
 70
     0
  9
$REGENMODE
 70
     1
  9
$FILLMODE
 70
     1
  9
$QTEXTMODE
 70
     0
  9
$MIRRTEXT
 70
     1
  9
$DRAGMODE
 70
     2
  9
$LTSCALE
 40
1.0
  9
$OSMODE
 70
    37
  9
$ATTMODE
 70
     1
  9
$TEXTSIZE
 40
0.2
  9
$TRACEWID
 40
0.05
  9
$TEXTSTYLE
  7
STANDARD
  9
$CLAYER
  8
0
  9
$CELTYPE
  6
BYLAYER
  9
$CECOLOR
 62
   256
  9
$DIMSCALE
 40
1.0
  9
$DIMASZ
 40
0.18
  9
$DIMEXO
 40
0.0625
  9
$DIMDLI
 40
0.38
  9
$DIMRND
 40
0.0
  9
$DIMDLE
 40
0.0
  9
$DIMEXE
 40
0.18
  9
$DIMTP
 40
0.0
  9
$DIMTM
 40
0.0
  9
$DIMTXT
 40
0.18
  9
$DIMCEN
 40
0.09
  9
$DIMTSZ
 40
0.0
  9
$DIMTOL
 70
     0
  9
$DIMLIM
 70
     0
  9
$DIMTIH
 70
     1
  9
$DIMTOH
 70
     1
  9
$DIMSE1
 70
     0
  9
$DIMSE2
 70
     0
  9
$DIMTAD
 70
     0
  9
$DIMZIN
 70
     0
  9
$DIMBLK
  1

  9
$DIMASO
 70
     1
  9
$DIMSHO
 70
     1
  9
$DIMPOST
  1

  9
$DIMAPOST
  1

  9
$DIMALT
 70
     0
  9
$DIMALTD
 70
     2
  9
$DIMALTF
 40
25.399999999999999
  9
$DIMLFAC
 40
1.0
  9
$DIMTOFL
 70
     0
  9
$DIMTVP
 40
0.0
  9
$DIMTIX
 70
     0
  9
$DIMSOXD
 70
     0
  9
$DIMSAH
 70
     0
  9
$DIMBLK1
  1

  9
$DIMBLK2
  1

  9
$DIMSTYLE
  2
STANDARD
  9
$DIMCLRD
 70
     0
  9
$DIMCLRE
 70
     0
  9
$DIMCLRT
 70
     0
  9
$DIMTFAC
 40
1.0
  9
$DIMGAP
 40
0.09
  9
$LUNITS
 70
     2
  9
$LUPREC
 70
     4
  9
$SKETCHINC
 40
0.1
  9
$FILLETRAD
 40
0.0
  9
$AUNITS
 70
     0
  9
$AUPREC
 70
     0
  9
$MENU
  1
.
  9
$ELEVATION
 40
0.0
  9
$PELEVATION
 40
0.0
  9
$THICKNESS
 40
0.0
  9
$LIMCHECK
 70
     0
  9
$BLIPMODE
 70
     0
  9
$CHAMFERA
 40
0.5
  9
$CHAMFERB
 40
0.5
  9
$SKPOLY
 70
     0
  9
$TDCREATE
 40
2451955.1727028699
  9
$TDUPDATE
 40
2454737.3996618171
  9
$TDINDWG
 40
0.1621534838
  9
$TDUSRTIMER
 40
0.1621533102
  9
$USRTIMER
 70
     1
  9
$ANGBASE
 50
0.0
  9
$ANGDIR
 70
     0
  9
$PDMODE
 70
     0
  9
$PDSIZE
 40
0.0
  9
$PLINEWID
 40
0.0
  9
$COORDS
 70
     1
  9
$SPLFRAME
 70
     0
  9
$SPLINETYPE
 70
     6
  9
$SPLINESEGS
 70
     8
  9
$ATTDIA
 70
     0
  9
$ATTREQ
 70
     1
  9
$HANDLING
 70
 22529
  9
$HANDSEED
  5
3AAA
  9
$SURFTAB1
 70
     6
  9
$SURFTAB2
 70
     6
  9
$SURFTYPE
 70
     6
  9
$SURFU
 70
     6
  9
$SURFV
 70
     6
  9
$UCSNAME
  2

  9
$UCSORG
 10
0.0
 20
0.0
 30
0.0
  9
$UCSXDIR
 10
1.0
 20
0.0
 30
0.0
  9
$UCSYDIR
 10
0.0
 20
1.0
 30
0.0
  9
$PUCSNAME
  2

  9
$PUCSORG
 10
0.0
 20
0.0
 30
0.0
  9
$PUCSXDIR
 10
1.0
 20
0.0
 30
0.0
  9
$PUCSYDIR
 10
0.0
 20
1.0
 30
0.0
  9
$USERI1
 70
     0
  9
$USERI2
 70
     0
  9
$USERI3
 70
     0
  9
$USERI4
 70
     0
  9
$USERI5
 70
     0
  9
$USERR1
 40
0.0
  9
$USERR2
 40
0.0
  9
$USERR3
 40
0.0
  9
$USERR4
 40
0.0
  9
$USERR5
 40
0.0
  9
$WORLDVIEW
 70
     1
  9
$SHADEDGE
 70
     3
  9
$SHADEDIF
 70
    70
  9
$TILEMODE
 70
     1
  9
$MAXACTVP
 70
    48
  9
$PLIMCHECK
 70
     0
  9
$PEXTMIN
 10
1.049636599258096
 20
0.7996597240971113
 30
-0.0015258207003583
  9
$PEXTMAX
 10
9.4503627310769716
 20
7.2003400826974584
 30
0.0000000349246037
  9
$PLIMMIN
 10
-0.2500002402958907
 20
-0.2499999962453767
  9
$PLIMMAX
 10
10.74999951940821
 20
8.2499997634587316
  9
$UNITMODE
 70
     0
  9
$VISRETAIN
 70
     1
  9
$PLINEGEN
 70
     0
  9
$PSLTSCALE
 70
     1
  0
ENDSEC
  0
SECTION
  2
TABLES
  0
TABLE
  2
VPORT
 70
     2
  0
VPORT
  2
*ACTIVE
 70
     0
 10
0.0
 20
0.0
 11
1.0
 21
1.0
 12
46.001179524423719
 22
14.377263036648181
 13
0.0
 23
0.0
 14
0.5
 24
0.5
 15
0.5
 25
0.5
 16
0.0
 26
0.0
 36
1.0
 17
0.0
 27
0.0
 37
0.0
 40
138.67803792224069
 41
1.531806615776081
 42
50.0
 43
0.0
 44
0.0
 50
0.0
 51
0.0
 71
     0
 72
   100
 73
     1
 74
     3
 75
     0
 76
     0
 77
     0
 78
     0
  0
ENDTAB
  0
TABLE
  2
LTYPE
 70
     2
  0
LTYPE
  2
CONTINUOUS
 70
     0
  3
Solid line
 72
    65
 73
     0
 40
0.0
  0
LTYPE
  2
CENTER
 70
     0
  3
__ . __
 72
    65
 73
     4
 40
7.0
 49
4.0
 49
-1.0
 49
1.0
 49
-1.0
  0
ENDTAB
  0
TABLE
  2
LAYER
 70
     1
  0
LAYER
  2
0
 70
     0
 62
     7
  6
CONTINUOUS
  0
ENDTAB
  0
TABLE
  2
STYLE
 70
     1
  0
STYLE
  2
STANDARD
 70
     0
 40
0.0
 41
1.0
 50
0.0
 71
     0
 42
0.2
  3
txt
  4

  0
ENDTAB
  0
TABLE
  2
VIEW
 70
     0
  0
ENDTAB
  0
TABLE
  2
UCS
 70
     0
  0
ENDTAB
  0
TABLE
  2
APPID
 70
    20
  0
APPID
  2
ACAD
 70
     0
  0
APPID
  2
GENIUS_GENODEF_13
 70
     0
  0
APPID
  2
ACAD_DSTYLE_DIMARC_LENGTH_
 70
     0
  0
APPID
  2
ACAD_DSTYLE_DIMJOGGED_JOGA
 70
     0
  0
APPID
  2
GENIUS_GENOBJ-N-FIL_13
 70
     0
  0
APPID
  2
ACAD_MLEADERVER
 70
     0
  0
APPID
  2
MCAD_NO_VIS
 70
     0
  0
APPID
  2
ACAD_TEMP_GRAPHIC
 70
     0
  0
APPID
  2
AD_DRAW
 70
     0
  0
APPID
  2
ACATTRIBSERVICES
 70
     0
  0
APPID
  2
DESIGNERASSEMBLIES
 70
     0
  0
APPID
  2
ACADM_DIM_EDIT
 70
     0
  0
APPID
  2
AMDT_DM_ADJ
 70
     0
  0
APPID
  2
GENIUS_GENSCREG_15
 70
     0
  0
APPID
  2
GENIUS_GENOBJ-N-SDF_13
 70
     0
  0
APPID
  2
ACAD_DSTYLE_DIM_LINETYPE
 70
     0
  0
APPID
  2
ACAD_DSTYLE_DIM_EXT1_LINETYPE
 70
     0
  0
APPID
  2
ACAD_DSTYLE_DIM_EXT2_LINETYPE
 70
     0
  0
APPID
  2
ACAD_EXEMPT_FROM_CAD_STANDARDS
 70
     0
  0
APPID
  2
ACAD_DSTYLE_DIMRADIAL_EXTENSION
 70
     0
  0
ENDTAB
  0
TABLE
  2
DIMSTYLE
 70
     1
  0
DIMSTYLE
  2
STANDARD
 70
     0
  3

  4

  5

  6

  7

 40
1.0
 41
0.18
 42
0.0625
 43
0.38
 44
0.18
 45
0.0
 46
0.0
 47
0.0
 48
0.0
140
0.18
141
0.09
142
0.0
143
25.399999999999999
144
1.0
145
0.0
146
1.0
147
0.09
 71
     0
 72
     0
 73
     1
 74
     1
 75
     0
 76
     0
 77
     0
 78
     0
170
     0
171
     2
172
     0
173
     0
174
     0
175
     0
176
     0
177
     0
178
     0
  0
ENDTAB
  0
ENDSEC
  0
SECTION
  2
BLOCKS
  0
BLOCK
  8
0
  2
$MODEL_SPACE
 70
     0
 10
0.0
 20
0.0
 30
0.0
  3
$MODEL_SPACE
  1

  0
ENDBLK
  5
21
  8
0
  0
BLOCK
 67
     1
  8
0
  2
$PAPER_SPACE
 70
     0
 10
0.0
 20
0.0
 30
0.0
  3
$PAPER_SPACE
  1

  0
ENDBLK
  5
60
 67
     1
  8
0
  0
ENDSEC
  0
SECTION
  2
ENTITIES
  0
TEXT
  5
2C9C
  8
0
 10
40.930201093417963
 20
77.344016916450016
 30
0.0
 40
5.0
  1
13MHHM-LW 2S
  0
LINE
  5
305F
  8
0
  6
CENTER
 62
     7
 10
-59.598495000000007
 20
0.0000000000000568
 30
0.0
 11
59.598495000000007
 21
0.0000000000000568
 31
0.0
  0
LINE
  5
3060
  8
0
  6
CENTER
 62
     7
 10
0.0
 20
53.61305650000002
 30
0.0
 11
0.0
 21
-53.61305650000002
 31
0.0
  0
ARC
  5
3061
  8
0
 10
0.0
 20
0.0000000000000568
 30
0.0
 40
29.0
 50
190.82608900028521
 51
347.3643749069787
  0
ARC
  5
3062
  8
0
 10
0.0
 20
0.0000000000000568
 30
0.0
 40
40.0
 50
203.45771377690201
 51
335.25347541306172
  0
LINE
  5
3065
  8
0
  6
CENTER
 62
     7
 10
-40.0
 20
-15.73832999999996
 30
0.0
 11
-40.0
 21
15.73832999999996
 31
0.0
  0
LINE
  5
3066
  8
0
  6
CENTER
 62
     7
 10
-46.77688999999998
 20
-8.4999999999999432
 30
0.0
 11
-33.680239999999969
 21
-8.4999999999999432
 31
0.0
  0
LINE
  5
3067
  8
0
  6
CONTINUOUS
 62
     7
 10
-37.636149999999979
 20
-3.4568700000000372
 30
0.0
 11
-33.447938276364482
 21
-2.334639949655354
 31
0.0
  0
ARC
  5
3069
  8
0
  6
CONTINUOUS
 62
     7
 10
-40.0
 20
-8.4999999999999432
 30
0.0
 40
4.5
 50
215.88829999999919
 51
35.888315265846352
  0
LINE
  5
306B
  8
0
  6
CENTER
 62
     7
 10
-46.77688999999998
 20
8.5000000000000568
 30
0.0
 11
-33.680239999999969
 21
8.5000000000000568
 31
0.0
  0
ARC
  5
306E
  8
0
  6
CONTINUOUS
 62
     7
 10
-40.0
 20
8.5000000000000568
 30
0.0
 40
4.5
 50
324.1117029999977
 51
144.1117000000007
  0
ARC
  5
3070
  8
0
  6
CONTINUOUS
 62
     7
 10
-28.252659999999992
 20
0.0000000000000568
 30
0.0
 40
10.0
 50
144.1117099999984
 51
215.88828999999961
  0
ARC
  5
3071
  8
0
  6
CONTINUOUS
 62
     7
 10
-28.252659999999992
 20
0.0000000000000568
 30
0.0
 40
19.0
 50
144.1117099999984
 51
215.88828999999961
  0
CIRCLE
  5
3072
  8
0
 10
-40.0
 20
-8.4999999999999432
 30
0.0
 40
2.5999998999999989
  0
CIRCLE
  5
3073
  8
0
 10
-40.0
 20
8.5000000000000568
 30
0.0
 40
2.5999998999999989
  0
ARC
  5
3078
  8
0
 10
-41.280935170453347
 20
-17.913246256690339
 30
0.0
 40
5.0
 50
23.457713776902029
 51
82.250904896038406
  0
ARC
  5
3079
  8
0
 10
-32.412660287349858
 20
-6.1983427701971427
 30
0.0
 40
4.0
 50
10.826089000285251
 51
105.00002682023209
  0
LINE
  5
307A
  8
0
  6
CONTINUOUS
 62
     7
 10
31.224989991992
 20
-3.9999999999999432
 30
0.0
 11
51.5
 21
-3.9999999999999432
 31
0.0
  0
LINE
  5
307B
  8
0
  6
CONTINUOUS
 62
     7
 10
39.051248379533263
 20
-14.99999999999994
 30
0.0
 11
51.5
 21
-14.99999999999994
 31
0.0
  0
LINE
  5
307C
  8
0
  6
CONTINUOUS
 62
     7
 10
30.560670000000009
 20
51.999999999999943
 30
0.0
 11
58.439329999999977
 21
51.999999999999943
 31
0.0
  0
LINE
  5
307D
  8
0
  6
CONTINUOUS
 62
     7
 10
51.5
 20
14.99999999999994
 30
0.0
 11
51.5
 21
4.000000000000056
 31
0.0
  0
LINE
  5
307E
  8
0
  6
CONTINUOUS
 62
     7
 10
51.5
 20
-3.9999999999999432
 30
0.0
 11
51.5
 21
-14.99999999999994
 31
0.0
  0
LINE
  5
307F
  8
0
  6
CENTER
 62
     7
 10
34.355099999999993
 20
-9.4999999999999432
 30
0.0
 11
55.693270000000041
 21
-9.4999999999999432
 31
0.0
  0
LINE
  5
3080
  8
0
  6
CONTINUOUS
 62
     7
 10
36.75
 20
22.030059999999992
 30
0.0
 11
36.75
 21
17.899990000000059
 31
0.0
  0
LINE
  5
3081
  8
0
  6
CONTINUOUS
 62
     7
 10
52.25
 20
22.030059999999992
 30
0.0
 11
52.25
 21
17.899990000000059
 31
0.0
  0
LINE
  5
3082
  8
0
  6
CENTER
 62
     7
 10
44.5
 20
58.275050000000022
 30
0.0
 11
44.5
 21
-25.40791999999993
 31
0.0
  0
LINE
  5
3083
  8
0
  6
CONTINUOUS
 62
     7
 10
39.5
 20
42.999999999999943
 30
0.0
 11
39.5
 21
31.199999999999989
 31
0.0
  0
LINE
  5
3084
  8
0
  6
CONTINUOUS
 62
     7
 10
49.5
 20
42.999999999999943
 30
0.0
 11
49.5
 21
31.199999999999989
 31
0.0
  0
LINE
  5
3085
  8
0
  6
CONTINUOUS
 62
     7
 10
41.5
 20
29.199999999999989
 30
0.0
 11
47.5
 21
29.199999999999989
 31
0.0
  0
LINE
  5
3086
  8
0
  6
CONTINUOUS
 62
     7
 10
48.5
 20
39.428209999999979
 30
0.0
 11
48.5
 21
29.467960000000001
 31
0.0
  0
LINE
  5
3087
  8
0
  6
CONTINUOUS
 62
     7
 10
40.499999999999993
 20
39.428209999999979
 30
0.0
 11
40.499999999999993
 21
29.467960000000001
 31
0.0
  0
LINE
  5
308B
  8
0
  6
CONTINUOUS
 62
     7
 10
48.5
 20
4.000000000000056
 30
0.0
 11
48.5
 21
-3.9999999999999432
 31
0.0
  0
LINE
  5
308C
  8
0
  6
CONTINUOUS
 62
     7
 10
40.499999999999993
 20
4.000000000000056
 30
0.0
 11
40.499999999999993
 21
-3.9999999999999432
 31
0.0
  0
ARC
  5
308D
  8
0
  6
CONTINUOUS
 62
     7
 10
58.439329999999977
 20
49.999999999999943
 30
0.0
 40
2.0
 50
3.4746006999985561
 51
90.000003000000945
  0
ARC
  5
308E
  8
0
  6
CONTINUOUS
 62
     7
 10
30.560670000000009
 20
49.999999999999943
 30
0.0
 40
2.0
 50
90.000003000000945
 51
176.52540999999971
  0
ARC
  5
308F
  8
0
  6
CONTINUOUS
 62
     7
 10
44.5
 20
-9.4999999999999432
 30
0.0
 40
6.0
 50
246.4435399999993
 51
293.55647000000192
  0
ARC
  5
3091
  8
0
  6
CONTINUOUS
 62
     7
 10
44.5
 20
17.899990000000059
 30
0.0
 40
7.75
 50
180.0000099999977
 51
195.9891353593149
  0
ARC
  5
3092
  8
0
  6
CONTINUOUS
 62
     7
 10
44.5
 20
17.899990000000059
 30
0.0
 40
7.75
 50
334.58537908483902
 51
0.0
  0
ARC
  5
3093
  8
0
  6
CONTINUOUS
 62
     7
 10
25.5
 20
47.999999999999943
 30
0.0
 40
35.0
 50
324.75248999999991
 51
3.4746006999985561
  0
ARC
  5
3094
  8
0
  6
CONTINUOUS
 62
     7
 10
62.25
 20
22.030059999999992
 30
0.0
 40
10.0
 50
144.75249999999849
 51
180.0000099999977
  0
ARC
  5
3095
  8
0
  6
CONTINUOUS
 62
     7
 10
26.75
 20
22.030059999999992
 30
0.0
 40
10.0
 50
0.0
 51
35.247505000000771
  0
ARC
  5
3096
  8
0
  6
CONTINUOUS
 62
     7
 10
63.5
 20
47.999999999999943
 30
0.0
 40
35.0
 50
176.52540999999971
 51
215.24751000000001
  0
ARC
  5
3097
  8
0
  6
CONTINUOUS
 62
     7
 10
44.5
 20
42.999999999999943
 30
0.0
 40
5.0
 50
0.0
 51
180.0000099999977
  0
ARC
  5
3098
  8
0
  6
CONTINUOUS
 62
     7
 10
47.5
 20
31.199999999999989
 30
0.0
 40
2.0
 50
270.0
 51
0.0
  0
ARC
  5
3099
  8
0
  6
CONTINUOUS
 62
     7
 10
41.5
 20
31.199999999999989
 30
0.0
 40
2.0
 50
179.99998999999889
 51
270.0
  0
ARC
  5
309A
  8
0
  6
CONTINUOUS
 62
     7
 10
44.5
 20
32.50000000000005
 30
0.0
 40
8.0
 50
60.000002000001302
 51
120.0000000000005
  0
LINE
  5
309C
  8
0
  6
CONTINUOUS
 62
     7
 10
31.224989991992
 20
4.000000000000056
 30
0.0
 11
51.5
 21
4.000000000000056
 31
0.0
  0
LINE
  5
309D
  8
0
  6
CONTINUOUS
 62
     7
 10
39.051248379533263
 20
15.00000000000005
 30
0.0
 11
51.5
 21
14.99999999999994
 31
0.0
  0
CIRCLE
  5
30A0
  8
0
 10
44.5
 20
-9.4999999999999432
 30
0.0
 40
3.5
  0
ARC
  5
30A1
  8
0
 10
39.051248379533263
 20
-17.99999999999994
 30
0.0
 40
3.0
 50
90.0
 51
155.25347541306161
  0
ARC
  5
30A2
  8
0
 10
31.224989991992
 20
-6.9999999999999432
 30
0.0
 40
3.0
 50
90.0
 51
167.3643749069787
  0
LINE
  5
30A5
  8
0
  6
CONTINUOUS
 62
     7
 10
147.29156916882241
 20
27.199999999999982
 30
0.0
 11
147.29156916882241
 21
17.899990000000059
 31
0.0
  0
LINE
  5
30A6
  8
0
  6
CONTINUOUS
 62
     7
 10
143.54156916882241
 20
39.428209999999979
 30
0.0
 11
143.54156916882241
 21
29.38960000000003
 31
0.0
  0
LINE
  5
30A7
  8
0
  6
CONTINUOUS
 62
     7
 10
143.54156916882241
 20
12.00000000000005
 30
0.0
 11
143.54156916882241
 21
-14.42819000000002
 31
0.0
  0
LINE
  5
30AC
  8
0
  6
CENTER
 62
     7
 10
127.4648491688224
 20
0.0000000000000568
 30
0.0
 11
151.6182891688224
 21
0.0000000000000568
 31
0.0
  0
LINE
  5
30AD
  8
0
  6
CONTINUOUS
 62
     7
 10
149.04156916882241
 20
15.00000000000005
 30
0.0
 11
149.04156916882241
 21
4.000000000000056
 31
0.0
  0
LINE
  5
30AE
  8
0
  6
CONTINUOUS
 62
     7
 10
149.04156916882241
 20
-3.9999999999999432
 30
0.0
 11
149.04156916882241
 21
-14.99999999999994
 31
0.0
  0
LINE
  5
30AF
  8
0
  6
CONTINUOUS
 62
     7
 10
143.79156916882249
 20
10.62368999999995
 30
0.0
 11
143.79156916882249
 21
4.000000000000056
 31
0.0
  0
LINE
  5
30B0
  8
0
  6
CONTINUOUS
 62
     7
 10
143.79156916882249
 20
-14.99999999999994
 30
0.0
 11
149.04156916882241
 21
-14.99999999999994
 31
0.0
  0
LINE
  5
30B1
  8
0
  6
CONTINUOUS
 62
     7
 10
143.79156916882249
 20
-3.9999999999999432
 30
0.0
 11
149.04156916882241
 21
-3.9999999999999432
 31
0.0
  0
LINE
  5
30B2
  8
0
  6
CONTINUOUS
 62
     7
 10
143.79156916882249
 20
-3.9999999999999432
 30
0.0
 11
143.79156916882249
 21
-14.99999999999994
 31
0.0
  0
LINE
  5
30B3
  8
0
  6
CONTINUOUS
 62
     7
 10
143.79156916882249
 20
4.000000000000056
 30
0.0
 11
149.04156916882241
 21
4.000000000000056
 31
0.0
  0
LINE
  5
30B4
  8
0
  6
CONTINUOUS
 62
     7
 10
147.76818916882249
 20
15.00000000000005
 30
0.0
 11
149.04156916882241
 21
15.00000000000005
 31
0.0
  0
LINE
  5
30B5
  8
0
  6
CONTINUOUS
 62
     7
 10
142.39157916882249
 20
50.999999999999943
 30
0.0
 11
142.39157916882249
 21
31.199999999999989
 31
0.0
  0
LINE
  5
30B6
  8
0
  6
CONTINUOUS
 62
     7
 10
148.0415591688224
 20
-31.99999999999994
 30
0.0
 11
146.49375916882241
 21
-37.776450000000011
 31
0.0
  0
LINE
  5
30B7
  8
0
  6
CONTINUOUS
 62
     7
 10
135.48714916882241
 20
-39.999999999999943
 30
0.0
 11
143.5959891688224
 21
-39.999999999999943
 31
0.0
  0
LINE
  5
30B8
  8
0
  6
CONTINUOUS
 62
     7
 10
131.0415591688224
 20
-31.99999999999994
 30
0.0
 11
132.5893591688224
 21
-37.776459999999979
 31
0.0
  0
LINE
  5
30B9
  8
0
  6
CONTINUOUS
 62
     7
 10
148.04156916882241
 20
-14.99999999999994
 30
0.0
 11
148.0415591688224
 21
-31.99999999999994
 31
0.0
  0
LINE
  5
30BA
  8
0
  6
CONTINUOUS
 62
     7
 10
129.04156916882249
 20
-12.99999999999994
 30
0.0
 11
130.04156916882249
 21
-12.99999999999994
 31
0.0
  0
LINE
  5
30BB
  8
0
  6
CONTINUOUS
 62
     7
 10
129.04156916882249
 20
13.00000000000005
 30
0.0
 11
130.04156916882249
 21
13.00000000000005
 31
0.0
  0
LINE
  5
30BC
  8
0
  6
CONTINUOUS
 62
     7
 10
129.04156916882249
 20
13.00000000000005
 30
0.0
 11
129.04156916882249
 21
-12.99999999999994
 31
0.0
  0
LINE
  5
30BD
  8
0
  6
CONTINUOUS
 62
     7
 10
149.04156916882241
 20
-6.3999899999999448
 30
0.0
 11
149.54156916882241
 21
-6.3999899999999448
 31
0.0
  0
LINE
  5
30BE
  8
0
  6
CONTINUOUS
 62
     7
 10
149.04156916882241
 20
-12.600009999999941
 30
0.0
 11
149.54156916882241
 21
-12.600009999999941
 31
0.0
  0
LINE
  5
30BF
  8
0
  6
CONTINUOUS
 62
     7
 10
144.5667591688225
 20
12.00000000000005
 30
0.0
 11
134.51638916882251
 21
12.00000000000005
 31
0.0
  0
LINE
  5
30C0
  8
0
  6
CONTINUOUS
 62
     7
 10
145.29156916882241
 20
29.199999999999989
 30
0.0
 11
133.79156916882241
 21
29.199999999999989
 31
0.0
  0
LINE
  5
30C1
  8
0
  6
CONTINUOUS
 62
     7
 10
131.79156916882241
 20
27.199999999999982
 30
0.0
 11
131.79156916882241
 21
17.899990000000059
 31
0.0
  0
LINE
  5
30C3
  8
0
  6
CONTINUOUS
 62
     7
 10
135.54156916882241
 20
39.428209999999979
 30
0.0
 11
135.54156916882241
 21
29.38960000000003
 31
0.0
  0
LINE
  5
30C4
  8
0
  6
CONTINUOUS
 62
     7
 10
135.54156916882241
 20
12.00000000000005
 30
0.0
 11
135.54156916882241
 21
-14.42819000000002
 31
0.0
  0
LINE
  5
30C9
  8
0
  6
CONTINUOUS
 62
     7
 10
130.04156916882249
 20
15.00000000000005
 30
0.0
 11
130.04156916882249
 21
4.000000000000056
 31
0.0
  0
LINE
  5
30CA
  8
0
  6
CONTINUOUS
 62
     7
 10
130.04156916882249
 20
-3.9999999999999432
 30
0.0
 11
130.04156916882249
 21
-14.99999999999994
 31
0.0
  0
LINE
  5
30CB
  8
0
  6
CONTINUOUS
 62
     7
 10
135.29156916882249
 20
10.62368999999995
 30
0.0
 11
135.29156916882249
 21
4.000000000000056
 31
0.0
  0
LINE
  5
30CC
  8
0
  6
CONTINUOUS
 62
     7
 10
135.29156916882249
 20
-14.99999999999994
 30
0.0
 11
130.04156916882249
 21
-14.99999999999994
 31
0.0
  0
LINE
  5
30CD
  8
0
  6
CONTINUOUS
 62
     7
 10
135.29156916882249
 20
-3.9999999999999432
 30
0.0
 11
130.04156916882249
 21
-3.9999999999999432
 31
0.0
  0
LINE
  5
30CE
  8
0
  6
CONTINUOUS
 62
     7
 10
135.29156916882249
 20
-3.9999999999999432
 30
0.0
 11
135.29156916882249
 21
-14.99999999999994
 31
0.0
  0
LINE
  5
30CF
  8
0
  6
CONTINUOUS
 62
     7
 10
135.29156916882249
 20
4.000000000000056
 30
0.0
 11
130.04156916882249
 21
4.000000000000056
 31
0.0
  0
LINE
  5
30D0
  8
0
  6
CONTINUOUS
 62
     7
 10
131.31494916882249
 20
15.00000000000005
 30
0.0
 11
130.04156916882249
 21
15.00000000000005
 31
0.0
  0
LINE
  5
30D1
  8
0
  6
CENTER
 62
     7
 10
151.49160916882241
 20
-9.4999999999999432
 30
0.0
 11
127.59153916882249
 21
-9.4999999999999432
 31
0.0
  0
LINE
  5
30D2
  8
0
  6
CONTINUOUS
 62
     7
 10
136.6915791688225
 20
50.999999999999943
 30
0.0
 11
136.6915791688225
 21
31.199999999999989
 31
0.0
  0
LINE
  5
30D3
  8
0
  6
CONTINUOUS
 62
     7
 10
141.39157916882249
 20
51.999999999999943
 30
0.0
 11
137.6915791688225
 21
51.999999999999943
 31
0.0
  0
LINE
  5
30D4
  8
0
  6
CONTINUOUS
 62
     7
 10
130.04156916882249
 20
-6.3999899999999448
 30
0.0
 11
129.54156916882241
 21
-6.3999899999999448
 31
0.0
  0
LINE
  5
30D5
  8
0
  6
CONTINUOUS
 62
     7
 10
130.04156916882249
 20
-12.600009999999941
 30
0.0
 11
129.54156916882241
 21
-12.600009999999941
 31
0.0
  0
LINE
  5
30D6
  8
0
  6
CONTINUOUS
 62
     7
 10
131.04156916882249
 20
-14.99999999999994
 30
0.0
 11
131.0415591688224
 21
-31.99999999999994
 31
0.0
  0
LINE
  5
30D7
  8
0
  6
CONTINUOUS
 62
     7
 10
150.04156916882249
 20
-12.99999999999994
 30
0.0
 11
149.04156916882241
 21
-12.99999999999994
 31
0.0
  0
LINE
  5
30D8
  8
0
  6
CONTINUOUS
 62
     7
 10
150.04156916882249
 20
13.00000000000005
 30
0.0
 11
150.04156916882249
 21
-12.99999999999994
 31
0.0
  0
LINE
  5
30D9
  8
0
  6
CONTINUOUS
 62
     7
 10
150.04156916882249
 20
13.00000000000005
 30
0.0
 11
149.04156916882241
 21
13.00000000000005
 31
0.0
  0
LINE
  5
30DA
  8
0
  6
CONTINUOUS
 62
     7
 10
144.04144916882251
 20
11.285009999999991
 30
0.0
 11
147.01807916882251
 21
14.66132999999996
 31
0.0
  0
LINE
  5
30DB
  8
0
  6
CONTINUOUS
 62
     7
 10
135.0416791688225
 20
11.28499000000005
 30
0.0
 11
132.0650491688225
 21
14.661319999999989
 31
0.0
  0
LINE
  5
30DC
  8
0
  6
CONTINUOUS
 62
     7
 10
145.89797916882239
 20
-14.99999999999994
 30
0.0
 11
145.89796916882241
 21
-37.645739999999989
 31
0.0
  0
LINE
  5
30DD
  8
0
  6
CONTINUOUS
 62
     7
 10
133.18516916882251
 20
-14.99999999999994
 30
0.0
 11
133.18515916882239
 21
-37.220579999999977
 31
0.0
  0
LINE
  5
30E6
  8
0
  6
CENTER
 62
     7
 10
139.54156916882241
 20
58.275050000000022
 30
0.0
 11
139.5415591688224
 21
-44.285331999999983
 31
0.0
  0
LINE
  5
30E7
  8
0
  6
CONTINUOUS
 62
     7
 10
129.04156916882249
 20
6.000000000000056
 30
0.0
 11
128.54156916882241
 21
6.000000000000056
 31
0.0
  0
LINE
  5
30E8
  8
0
  6
CONTINUOUS
 62
     7
 10
129.04156916882249
 20
11.00000000000005
 30
0.0
 11
128.54156916882241
 21
11.00000000000005
 31
0.0
  0
LINE
  5
30E9
  8
0
  6
CONTINUOUS
 62
     7
 10
129.04156916882249
 20
-10.99999999999994
 30
0.0
 11
128.54156916882241
 21
-10.99999999999994
 31
0.0
  0
LINE
  5
30EA
  8
0
  6
CONTINUOUS
 62
     7
 10
129.04156916882249
 20
-5.9999999999999432
 30
0.0
 11
128.54156916882241
 21
-5.9999999999999432
 31
0.0
  0
LINE
  5
30EB
  8
0
  6
CONTINUOUS
 62
     7
 10
128.04156916882241
 20
10.50000000000005
 30
0.0
 11
128.04156916882241
 21
6.500000000000056
 31
0.0
  0
LINE
  5
30EC
  8
0
  6
CONTINUOUS
 62
     7
 10
128.04156916882241
 20
-6.4999999999999432
 30
0.0
 11
128.04156916882241
 21
-10.49999999999994
 31
0.0
  0
ARC
  5
30ED
  8
0
  6
CONTINUOUS
 62
     7
 10
139.54156916882241
 20
17.899990000000059
 30
0.0
 40
7.75
 50
310.42192000000011
 51
0.0
  0
ARC
  5
30EE
  8
0
  6
CONTINUOUS
 62
     7
 10
139.54156916882241
 20
32.50000000000005
 30
0.0
 40
8.0
 50
60.000002000001302
 51
69.12992900000107
  0
ARC
  5
30EF
  8
0
  6
CONTINUOUS
 62
     7
 10
145.29156916882241
 20
27.199999999999982
 30
0.0
 40
2.0
 50
0.0
 51
90.000003000000945
  0
ARC
  5
30F0
  8
0
  6
CONTINUOUS
 62
     7
 10
144.39157916882249
 20
31.199999999999989
 30
0.0
 40
2.0
 50
179.99998999999889
 51
270.0
  0
ARC
  5
30F1
  8
0
  6
CONTINUOUS
 62
     7
 10
141.39157916882249
 20
50.999999999999943
 30
0.0
 40
1.0
 50
0.0
 51
90.000003000000945
  0
ARC
  5
30F2
  8
0
  6
CONTINUOUS
 62
     7
 10
135.48714916882241
 20
-36.999999999999943
 30
0.0
 40
3.0
 50
195.00001000000211
 51
270.0
  0
ARC
  5
30F3
  8
0
  6
CONTINUOUS
 62
     7
 10
143.5959891688224
 20
-36.999999999999943
 30
0.0
 40
3.0
 50
270.0
 51
344.9999999999992
  0
ARC
  5
30F4
  8
0
  6
CONTINUOUS
 62
     7
 10
137.6915791688225
 20
50.999999999999943
 30
0.0
 40
1.0
 50
89.999996000000905
 51
180.0000099999977
  0
ARC
  5
30F5
  8
0
  6
CONTINUOUS
 62
     7
 10
134.6915791688225
 20
31.199999999999989
 30
0.0
 40
2.0
 50
270.0
 51
0.0000050089536883
  0
ARC
  5
30F6
  8
0
  6
CONTINUOUS
 62
     7
 10
139.54156916882241
 20
-7.4999999999999432
 30
0.0
 40
8.0
 50
239.9999999999994
 51
300.00000000000051
  0
ARC
  5
30F7
  8
0
  6
CONTINUOUS
 62
     7
 10
139.54156916882241
 20
17.899990000000059
 30
0.0
 40
7.75
 50
180.0000099999977
 51
229.57809999999969
  0
ARC
  5
30F8
  8
0
  6
CONTINUOUS
 62
     7
 10
139.54156916882241
 20
32.50000000000005
 30
0.0
 40
8.0
 50
110.87007000000069
 51
120.0000000000005
  0
ARC
  5
30F9
  8
0
  6
CONTINUOUS
 62
     7
 10
133.79156916882241
 20
27.199999999999982
 30
0.0
 40
2.0
 50
89.999996000000905
 51
180.0000099999977
  0
ARC
  5
30FA
  8
0
  6
CONTINUOUS
 62
     7
 10
131.31494916882249
 20
14.00000000000005
 30
0.0
 40
1.0
 50
41.399999999998712
 51
90.000003000000945
  0
ARC
  5
30FB
  8
0
  6
CONTINUOUS
 62
     7
 10
134.29156916882241
 20
10.62368999999995
 30
0.0
 40
1.0
 50
0.0
 51
41.399999999998712
  0
ARC
  5
30FC
  8
0
  6
CONTINUOUS
 62
     7
 10
144.79156916882241
 20
10.62368999999995
 30
0.0
 40
1.0
 50
138.60000000000119
 51
180.0000099999977
  0
ARC
  5
30FD
  8
0
  6
CONTINUOUS
 62
     7
 10
147.76818916882249
 20
14.00000000000005
 30
0.0
 40
1.0
 50
90.000003000000945
 51
138.60000000000119
  0
ARC
  5
3100
  8
0
  6
CONTINUOUS
 62
     7
 10
128.54156916882241
 20
10.50000000000005
 30
0.0
 40
0.5
 50
90.000003000000945
 51
180.0000099999977
  0
ARC
  5
3101
  8
0
  6
CONTINUOUS
 62
     7
 10
128.54156916882241
 20
6.500000000000056
 30
0.0
 40
0.5
 50
179.99998999999889
 51
270.0
  0
ARC
  5
3102
  8
0
  6
CONTINUOUS
 62
     7
 10
147.41656916882241
 20
8.5000000000000568
 30
0.0
 40
3.625
 50
316.39717999999891
 51
43.602817999999878
  0
ARC
  5
3103
  8
0
  6
CONTINUOUS
 62
     7
 10
128.54156916882241
 20
-10.49999999999994
 30
0.0
 40
0.5
 50
179.99998999999889
 51
270.0
  0
ARC
  5
3104
  8
0
  6
CONTINUOUS
 62
     7
 10
128.54156916882241
 20
-6.4999999999999432
 30
0.0
 40
0.5
 50
90.000003000000945
 51
180.0000099999977
  0
ARC
  5
3105
  8
0
  6
CONTINUOUS
 62
     7
 10
147.41656916882241
 20
-8.4999999999999432
 30
0.0
 40
3.625
 50
316.39717999999891
 51
43.602817999999878
  0
ARC
  5
3106
  8
0
  6
CONTINUOUS
 62
     7
 10
129.54156916882241
 20
-12.100009999999941
 30
0.0
 40
0.5
 50
179.99998999999889
 51
270.0
  0
ARC
  5
3107
  8
0
  6
CONTINUOUS
 62
     7
 10
129.54156916882241
 20
-6.8999899999999448
 30
0.0
 40
0.5
 50
90.000003000000945
 51
180.0000099999977
  0
ARC
  5
3108
  8
0
  6
CONTINUOUS
 62
     7
 10
149.54156916882241
 20
-6.8999899999999448
 30
0.0
 40
0.5
 50
0.0
 51
90.000003000000945
  0
ARC
  5
3109
  8
0
  6
CONTINUOUS
 62
     7
 10
149.54156916882241
 20
-12.100009999999941
 30
0.0
 40
0.5
 50
270.0
 51
0.0
  0
LINE
  5
310C
  8
0
  6
CONTINUOUS
 62
     7
 10
148.0415591688224
 20
32.00000000000005
 30
0.0
 11
146.49375916882241
 21
37.776450000000011
 31
0.0
  0
LINE
  5
310D
  8
0
  6
CONTINUOUS
 62
     7
 10
135.48714916882241
 20
40.000000000000057
 30
0.0
 11
136.6915791688225
 21
40.000000000000057
 31
0.0
  0
LINE
  5
310E
  8
0
  6
CONTINUOUS
 62
     7
 10
131.0415591688224
 20
32.00000000000005
 30
0.0
 11
132.5893591688224
 21
37.776459999999979
 31
0.0
  0
LINE
  5
310F
  8
0
  6
CONTINUOUS
 62
     7
 10
148.04156916882241
 20
15.00000000000005
 30
0.0
 11
148.0415591688224
 21
32.00000000000005
 31
0.0
  0
LINE
  5
3110
  8
0
  6
CONTINUOUS
 62
     7
 10
131.04156916882249
 20
15.00000000000005
 30
0.0
 11
131.0415591688224
 21
32.00000000000005
 31
0.0
  0
LINE
  5
3111
  8
0
  6
CONTINUOUS
 62
     7
 10
145.89797293990139
 20
29.105852687492241
 30
0.0
 11
145.89796916882241
 21
37.645739999999989
 31
0.0
  0
LINE
  5
3112
  8
0
  6
CONTINUOUS
 62
     7
 10
133.18516282072
 20
29.105851867533541
 30
0.0
 11
133.18515916882239
 21
37.220579999999977
 31
0.0
  0
ARC
  5
3113
  8
0
  6
CONTINUOUS
 62
     7
 10
135.48714916882241
 20
37.00000000000005
 30
0.0
 40
3.0
 50
90.0
 51
164.99998999999781
  0
ARC
  5
3114
  8
0
  6
CONTINUOUS
 62
     7
 10
143.5959891688224
 20
37.00000000000005
 30
0.0
 40
3.0
 50
15.000000000001579
 51
90.0
  0
LINE
  5
3115
  8
0
  6
CONTINUOUS
 62
     7
 10
142.39157916882249
 20
40.000000000000057
 30
0.0
 11
143.5959891688224
 21
40.000000000000057
 31
0.0
  0
ARC
  5
3117
  8
0
 10
0.0
 20
0.0000000000000568
 30
0.0
 40
32.0
 50
183.99336815079141
 51
352.81924421854183
  0
ARC
  5
3118
  8
0
 10
0.0
 20
0.0000000000000568
 30
0.0
 40
29.0
 50
12.635625093021259
 51
169.17391099971471
  0
ARC
  5
3119
  8
0
 10
31.224989991992
 20
7.000000000000056
 30
0.0
 40
3.0
 50
192.63562509302119
 51
270.0
  0
ARC
  5
311A
  8
0
 10
-32.412660287349858
 20
6.1983427701971427
 30
0.0
 40
4.0
 50
254.99997317976789
 51
349.17391099971468
  0
ARC
  5
311B
  8
0
 10
0.0
 20
0.0000000000000568
 30
0.0
 40
40.0
 50
24.74652458693965
 51
156.54228622309489
  0
ARC
  5
311C
  8
0
 10
39.051248379533263
 20
18.00000000000005
 30
0.0
 40
3.0
 50
204.74652458693961
 51
270.0
  0
LINE
  5
311D
  8
0
  6
CONTINUOUS
 62
     7
 10
-37.636149999999979
 20
3.4568700000000372
 30
0.0
 11
-33.447938276364482
 21
2.3346399496554682
 31
0.0
  0
ARC
  5
311E
  8
0
 10
-41.280935170453347
 20
17.913246256690449
 30
0.0
 40
5.0
 50
277.74909510396151
 51
336.54228622309489
  0
ARC
  5
311F
  8
0
 10
0.0
 20
0.0000000000000568
 30
0.0
 40
32.0
 50
7.1807557814581537
 51
176.00663184920529
  0
VIEWPORT
  5
79
 67
     1
  8
0
 10
5.2499996395561617
 20
3.9999998836066761
 30
0.0
 40
15.015580297613511
 41
8.5939224089826052
 68
     1
 69
     1
1001
ACAD
1000
MVIEW
1002
{
1070
    16
1010
0.0
1020
0.0
1030
0.0
1010
0.0
1020
0.0
1030
1.0
1040
0.0
1040
8.5939224089826052
1040
5.2499996395561617
1040
3.9999998836066761
1040
50.0
1040
0.0
1040
0.0
1070
     0
1070
   100
1070
     1
1070
     1
1070
     0
1070
     0
1070
     0
1070
     0
1040
0.0
1040
0.0
1040
0.0
1040
10.0
1040
10.0
1040
10.0
1040
10.0
1070
     0
1002
{
1002
}
1002
}
1001
GENIUS_GENOBJ-N-SDF_13
1002
{
1000
OWNER
1000
GEN
1002
}
1001
GENIUS_GENODEF_13
1002
{
1000
HIER
1070
     0
1002
}
1002
{
1000
MANEDIT
1070
     0
1002
}
1002
{
1000
NOSEL
1070
     0
1002
}
1002
{
1000
BEHIND
1070
     0
1002
}
1002
{
1000
OTHER
1070
     0
1002
}
1002
{
1000
REACTOR
1002
}
1001
GENIUS_GENSCREG_15
1000
PF
1040
1.0
1000
DF
1040
1.0
1000
MIN
1011
-2.2577905092505972
1021
-2.9747518744473066E+123
1031
0.0
1021
-0.2969613208846251
1031
0.0
1000
MAX
1011
12.757789788362921
1021
-2.9747518744473066E+123
1031
0.0
1021
8.2969610880979801
1031
0.0
1000
FLAGS
1070
     4
  0
VIEWPORT
  5
7B
 67
     1
  8
0
 10
5.24999976158142
 20
3.99999976158142
 30
0.0
 40
8.3999996185302717
 41
6.3999996185302717
 68
     2
 69
     2
1001
ACAD
1000
MVIEW
1002
{
1070
    16
1010
0.0
1020
0.0
1030
0.0
1010
0.0
1020
0.0
1030
1.0
1040
0.0
1040
9.2590797717467002
1040
6.0
1040
4.5
1040
50.0
1040
0.0
1040
0.0
1070
     0
1070
   100
1070
     1
1070
     3
1070
     0
1070
     0
1070
     0
1070
     0
1040
0.0
1040
0.0
1040
0.0
1040
0.5
1040
0.5
1040
0.5
1040
0.5
1070
     0
1002
{
1002
}
1002
}
1001
GENIUS_GENODEF_13
1002
{
1000
HIER
1070
     0
1002
}
1002
{
1000
MANEDIT
1070
     0
1002
}
1002
{
1000
NOSEL
1070
     0
1002
}
1002
{
1000
BEHIND
1070
     0
1002
}
1002
{
1000
OTHER
1070
     0
1002
}
1002
{
1000
REACTOR
1002
}
1001
GENIUS_GENOBJ-N-SDF_13
1002
{
1000
OWNER
1000
GEN
1002
}
1001
GENIUS_GENSCREG_15
1000
PF
1040
0.0
1000
DF
1040
0.0
1000
MIN
1011
1.049999952316284
1021
-2.9747518744473066E+123
1031
0.0
1021
0.7999999523162842
1031
0.0
1000
MAX
1011
9.4499995708465558
1021
-2.9747518744473066E+123
1031
0.0
1021
7.1999995708465558
1031
0.0
1000
FLAGS
1070
     4
  0
ENDSEC
  0
EOF
