  0
SECTION
  2
HEADER
  9
$ACADVER
  1
AC1009
  9
$INSBASE
 10
0.0
 20
0.0
 30
0.0
  9
$EXTMIN
 10
-51.258149794771157
 20
-39.61288296208852
 30
0.0
  9
$EXTMAX
 10
151.6182891688224
 20
82.344016916450045
 30
0.0
  9
$LIMMIN
 10
0.0
 20
0.0
  9
$LIMMAX
 10
12.0
 20
9.0
  9
$ORTHOMODE
 70
     0
  9
$REGENMODE
 70
     1
  9
$FILLMODE
 70
     1
  9
$QTEXTMODE
 70
     0
  9
$MIRRTEXT
 70
     1
  9
$DRAGMODE
 70
     2
  9
$LTSCALE
 40
1.0
  9
$OSMODE
 70
    37
  9
$ATTMODE
 70
     1
  9
$TEXTSIZE
 40
0.2
  9
$TRACEWID
 40
0.05
  9
$TEXTSTYLE
  7
STANDARD
  9
$CLAYER
  8
0
  9
$CELTYPE
  6
BYLAYER
  9
$CECOLOR
 62
   256
  9
$DIMSCALE
 40
1.0
  9
$DIMASZ
 40
0.18
  9
$DIMEXO
 40
0.0625
  9
$DIMDLI
 40
0.38
  9
$DIMRND
 40
0.0
  9
$DIMDLE
 40
0.0
  9
$DIMEXE
 40
0.18
  9
$DIMTP
 40
0.0
  9
$DIMTM
 40
0.0
  9
$DIMTXT
 40
0.18
  9
$DIMCEN
 40
0.09
  9
$DIMTSZ
 40
0.0
  9
$DIMTOL
 70
     0
  9
$DIMLIM
 70
     0
  9
$DIMTIH
 70
     1
  9
$DIMTOH
 70
     1
  9
$DIMSE1
 70
     0
  9
$DIMSE2
 70
     0
  9
$DIMTAD
 70
     0
  9
$DIMZIN
 70
     0
  9
$DIMBLK
  1

  9
$DIMASO
 70
     1
  9
$DIMSHO
 70
     1
  9
$DIMPOST
  1

  9
$DIMAPOST
  1

  9
$DIMALT
 70
     0
  9
$DIMALTD
 70
     2
  9
$DIMALTF
 40
25.399999999999999
  9
$DIMLFAC
 40
1.0
  9
$DIMTOFL
 70
     0
  9
$DIMTVP
 40
0.0
  9
$DIMTIX
 70
     0
  9
$DIMSOXD
 70
     0
  9
$DIMSAH
 70
     0
  9
$DIMBLK1
  1

  9
$DIMBLK2
  1

  9
$DIMSTYLE
  2
STANDARD
  9
$DIMCLRD
 70
     0
  9
$DIMCLRE
 70
     0
  9
$DIMCLRT
 70
     0
  9
$DIMTFAC
 40
1.0
  9
$DIMGAP
 40
0.09
  9
$LUNITS
 70
     2
  9
$LUPREC
 70
     4
  9
$SKETCHINC
 40
0.1
  9
$FILLETRAD
 40
0.0
  9
$AUNITS
 70
     0
  9
$AUPREC
 70
     0
  9
$MENU
  1
.
  9
$ELEVATION
 40
0.0
  9
$PELEVATION
 40
0.0
  9
$THICKNESS
 40
0.0
  9
$LIMCHECK
 70
     0
  9
$BLIPMODE
 70
     0
  9
$CHAMFERA
 40
0.5
  9
$CHAMFERB
 40
0.5
  9
$SKPOLY
 70
     0
  9
$TDCREATE
 40
2451955.1727028699
  9
$TDUPDATE
 40
2454737.3996742941
  9
$TDINDWG
 40
0.1623041435
  9
$TDUSRTIMER
 40
0.1623039699
  9
$USRTIMER
 70
     1
  9
$ANGBASE
 50
0.0
  9
$ANGDIR
 70
     0
  9
$PDMODE
 70
     0
  9
$PDSIZE
 40
0.0
  9
$PLINEWID
 40
0.0
  9
$COORDS
 70
     1
  9
$SPLFRAME
 70
     0
  9
$SPLINETYPE
 70
     6
  9
$SPLINESEGS
 70
     8
  9
$ATTDIA
 70
     0
  9
$ATTREQ
 70
     1
  9
$HANDLING
 70
 22529
  9
$HANDSEED
  5
3A4C
  9
$SURFTAB1
 70
     6
  9
$SURFTAB2
 70
     6
  9
$SURFTYPE
 70
     6
  9
$SURFU
 70
     6
  9
$SURFV
 70
     6
  9
$UCSNAME
  2

  9
$UCSORG
 10
0.0
 20
0.0
 30
0.0
  9
$UCSXDIR
 10
1.0
 20
0.0
 30
0.0
  9
$UCSYDIR
 10
0.0
 20
1.0
 30
0.0
  9
$PUCSNAME
  2

  9
$PUCSORG
 10
0.0
 20
0.0
 30
0.0
  9
$PUCSXDIR
 10
1.0
 20
0.0
 30
0.0
  9
$PUCSYDIR
 10
0.0
 20
1.0
 30
0.0
  9
$USERI1
 70
     0
  9
$USERI2
 70
     0
  9
$USERI3
 70
     0
  9
$USERI4
 70
     0
  9
$USERI5
 70
     0
  9
$USERR1
 40
0.0
  9
$USERR2
 40
0.0
  9
$USERR3
 40
0.0
  9
$USERR4
 40
0.0
  9
$USERR5
 40
0.0
  9
$WORLDVIEW
 70
     1
  9
$SHADEDGE
 70
     3
  9
$SHADEDIF
 70
    70
  9
$TILEMODE
 70
     1
  9
$MAXACTVP
 70
    48
  9
$PLIMCHECK
 70
     0
  9
$PEXTMIN
 10
1.049636599258096
 20
0.7996597240971113
 30
-0.0015258207003583
  9
$PEXTMAX
 10
9.4503627310769716
 20
7.2003400826974584
 30
0.0000000349246037
  9
$PLIMMIN
 10
-0.2500002402958907
 20
-0.2499999962453767
  9
$PLIMMAX
 10
10.74999951940821
 20
8.2499997634587316
  9
$UNITMODE
 70
     0
  9
$VISRETAIN
 70
     1
  9
$PLINEGEN
 70
     0
  9
$PSLTSCALE
 70
     1
  0
ENDSEC
  0
SECTION
  2
TABLES
  0
TABLE
  2
VPORT
 70
     2
  0
VPORT
  2
*ACTIVE
 70
     0
 10
0.0
 20
0.0
 11
1.0
 21
1.0
 12
50.178146094638841
 22
21.36240132609392
 13
0.0
 23
0.0
 14
0.5
 24
0.5
 15
0.5
 25
0.5
 16
0.0
 26
0.0
 36
1.0
 17
0.0
 27
0.0
 37
0.0
 40
133.1207371391038
 41
1.531806615776081
 42
50.0
 43
0.0
 44
0.0
 50
0.0
 51
0.0
 71
     0
 72
   100
 73
     1
 74
     3
 75
     0
 76
     0
 77
     0
 78
     0
  0
ENDTAB
  0
TABLE
  2
LTYPE
 70
     2
  0
LTYPE
  2
CONTINUOUS
 70
     0
  3
Solid line
 72
    65
 73
     0
 40
0.0
  0
LTYPE
  2
CENTER
 70
     0
  3
__ . __
 72
    65
 73
     4
 40
7.0
 49
4.0
 49
-1.0
 49
1.0
 49
-1.0
  0
ENDTAB
  0
TABLE
  2
LAYER
 70
     1
  0
LAYER
  2
0
 70
     0
 62
     7
  6
CONTINUOUS
  0
ENDTAB
  0
TABLE
  2
STYLE
 70
     1
  0
STYLE
  2
STANDARD
 70
     0
 40
0.0
 41
1.0
 50
0.0
 71
     0
 42
0.2
  3
txt
  4

  0
ENDTAB
  0
TABLE
  2
VIEW
 70
     0
  0
ENDTAB
  0
TABLE
  2
UCS
 70
     0
  0
ENDTAB
  0
TABLE
  2
APPID
 70
    20
  0
APPID
  2
ACAD
 70
     0
  0
APPID
  2
GENIUS_GENODEF_13
 70
     0
  0
APPID
  2
ACAD_DSTYLE_DIMARC_LENGTH_
 70
     0
  0
APPID
  2
ACAD_DSTYLE_DIMJOGGED_JOGA
 70
     0
  0
APPID
  2
GENIUS_GENOBJ-N-FIL_13
 70
     0
  0
APPID
  2
ACAD_MLEADERVER
 70
     0
  0
APPID
  2
MCAD_NO_VIS
 70
     0
  0
APPID
  2
ACAD_TEMP_GRAPHIC
 70
     0
  0
APPID
  2
AD_DRAW
 70
     0
  0
APPID
  2
ACATTRIBSERVICES
 70
     0
  0
APPID
  2
DESIGNERASSEMBLIES
 70
     0
  0
APPID
  2
ACADM_DIM_EDIT
 70
     0
  0
APPID
  2
AMDT_DM_ADJ
 70
     0
  0
APPID
  2
GENIUS_GENSCREG_15
 70
     0
  0
APPID
  2
GENIUS_GENOBJ-N-SDF_13
 70
     0
  0
APPID
  2
ACAD_DSTYLE_DIM_LINETYPE
 70
     0
  0
APPID
  2
ACAD_DSTYLE_DIM_EXT1_LINETYPE
 70
     0
  0
APPID
  2
ACAD_DSTYLE_DIM_EXT2_LINETYPE
 70
     0
  0
APPID
  2
ACAD_EXEMPT_FROM_CAD_STANDARDS
 70
     0
  0
APPID
  2
ACAD_DSTYLE_DIMRADIAL_EXTENSION
 70
     0
  0
ENDTAB
  0
TABLE
  2
DIMSTYLE
 70
     1
  0
DIMSTYLE
  2
STANDARD
 70
     0
  3

  4

  5

  6

  7

 40
1.0
 41
0.18
 42
0.0625
 43
0.38
 44
0.18
 45
0.0
 46
0.0
 47
0.0
 48
0.0
140
0.18
141
0.09
142
0.0
143
25.399999999999999
144
1.0
145
0.0
146
1.0
147
0.09
 71
     0
 72
     0
 73
     1
 74
     1
 75
     0
 76
     0
 77
     0
 78
     0
170
     0
171
     2
172
     0
173
     0
174
     0
175
     0
176
     0
177
     0
178
     0
  0
ENDTAB
  0
ENDSEC
  0
SECTION
  2
BLOCKS
  0
BLOCK
  8
0
  2
$MODEL_SPACE
 70
     0
 10
0.0
 20
0.0
 30
0.0
  3
$MODEL_SPACE
  1

  0
ENDBLK
  5
21
  8
0
  0
BLOCK
 67
     1
  8
0
  2
$PAPER_SPACE
 70
     0
 10
0.0
 20
0.0
 30
0.0
  3
$PAPER_SPACE
  1

  0
ENDBLK
  5
60
 67
     1
  8
0
  0
ENDSEC
  0
SECTION
  2
ENTITIES
  0
TEXT
  5
2C9C
  8
0
 10
11.47545942518593
 20
77.344016916450016
 30
0.0
 40
5.0
  1
13MHHM-LW 1S-1.5S
  0
LINE
  5
3120
  8
0
  6
CENTER
 62
     7
 10
-51.258149794771157
 20
0.0
 30
0.0
 11
51.258149794771157
 21
0.0
 31
0.0
  0
LINE
  5
3121
  8
0
  6
CENTER
 62
     7
 10
0.0
 20
39.61288296208852
 30
0.0
 11
0.0
 21
-39.61288296208852
 31
0.0
  0
ARC
  5
3462
  8
0
 10
0.0
 20
0.0
 30
0.0
 40
22.25
 50
193.7117927164845
 51
343.90518400866068
  0
ARC
  5
3463
  8
0
 10
0.0
 20
0.0
 30
0.0
 40
33.25
 50
208.0199188013963
 51
330.22787507006808
  0
LINE
  5
3467
  8
0
  6
CENTER
 62
     7
 10
-33.0
 20
-15.738330000000021
 30
0.0
 11
-33.0
 21
15.7383299999999
 31
0.0
  0
LINE
  5
3468
  8
0
  6
CENTER
 62
     7
 10
-39.77688999999998
 20
-8.5
 30
0.0
 11
-26.680239999999969
 21
-8.5
 31
0.0
  0
LINE
  5
3469
  8
0
  6
CONTINUOUS
 62
     7
 10
-30.636149999999979
 20
-3.456870000000094
 30
0.0
 11
-26.537162254799568
 21
-2.3585474873869989
 31
0.0
  0
ARC
  5
346A
  8
0
  6
CONTINUOUS
 62
     7
 10
-33.0
 20
-8.5
 30
0.0
 40
4.5
 50
215.8882999999966
 51
35.127741746825677
  0
LINE
  5
346C
  8
0
  6
CENTER
 62
     7
 10
-39.77688999999998
 20
8.5
 30
0.0
 11
-26.680239999999969
 21
8.5
 31
0.0
  0
ARC
  5
346D
  8
0
  6
CONTINUOUS
 62
     7
 10
-33.0
 20
8.5
 30
0.0
 40
4.5
 50
324.1117029999977
 51
144.11170000000331
  0
ARC
  5
346E
  8
0
  6
CONTINUOUS
 62
     7
 10
-21.252659999999992
 20
0.0
 30
0.0
 40
10.0
 50
144.11171000000101
 51
215.88828999999691
  0
ARC
  5
346F
  8
0
  6
CONTINUOUS
 62
     7
 10
-21.252659999999992
 20
0.0
 30
0.0
 40
19.0
 50
144.11171000000101
 51
215.88828999999691
  0
CIRCLE
  5
3470
  8
0
 10
-33.0
 20
-8.5
 30
0.0
 40
2.5999998999999989
  0
CIRCLE
  5
3471
  8
0
 10
-33.0
 20
8.5
 30
0.0
 40
2.5999998999999989
  0
LINE
  5
3476
  8
0
  6
CONTINUOUS
 62
     7
 10
24.26030708791626
 20
-4.0
 30
0.0
 11
45.0
 21
-4.0
 31
0.0
  0
LINE
  5
3477
  8
0
  6
CONTINUOUS
 62
     7
 10
31.465258619626809
 20
-15.0
 30
0.0
 11
45.0
 21
-15.0
 31
0.0
  0
LINE
  5
3478
  8
0
  6
CONTINUOUS
 62
     7
 10
24.060670000000009
 20
51.999999999999879
 30
0.0
 11
51.939329999999977
 21
51.999999999999879
 31
0.0
  0
LINE
  5
3479
  8
0
  6
CONTINUOUS
 62
     7
 10
45.0
 20
14.999999999999879
 30
0.0
 11
45.0
 21
4.0
 31
0.0
  0
LINE
  5
347A
  8
0
  6
CONTINUOUS
 62
     7
 10
45.0
 20
-4.0
 30
0.0
 11
45.0
 21
-15.0
 31
0.0
  0
LINE
  5
347B
  8
0
  6
CONTINUOUS
 62
     7
 10
30.25
 20
22.030059999999931
 30
0.0
 11
30.25
 21
17.899989999999999
 31
0.0
  0
LINE
  5
347C
  8
0
  6
CONTINUOUS
 62
     7
 10
45.75
 20
22.030059999999931
 30
0.0
 11
45.75
 21
17.899989999999999
 31
0.0
  0
LINE
  5
347D
  8
0
  6
CENTER
 62
     7
 10
38.0
 20
58.275049999999958
 30
0.0
 11
38.0
 21
-25.40791999999999
 31
0.0
  0
LINE
  5
347E
  8
0
  6
CONTINUOUS
 62
     7
 10
33.0
 20
42.999999999999893
 30
0.0
 11
33.0
 21
31.199999999999928
 31
0.0
  0
LINE
  5
347F
  8
0
  6
CONTINUOUS
 62
     7
 10
43.0
 20
42.999999999999893
 30
0.0
 11
43.0
 21
31.199999999999928
 31
0.0
  0
LINE
  5
3480
  8
0
  6
CONTINUOUS
 62
     7
 10
35.0
 20
29.199999999999928
 30
0.0
 11
41.0
 21
29.199999999999928
 31
0.0
  0
LINE
  5
3481
  8
0
  6
CONTINUOUS
 62
     7
 10
42.0
 20
39.428209999999922
 30
0.0
 11
42.0
 21
29.467959999999952
 31
0.0
  0
LINE
  5
3482
  8
0
  6
CONTINUOUS
 62
     7
 10
34.0
 20
39.428209999999922
 30
0.0
 11
34.0
 21
29.467959999999952
 31
0.0
  0
LINE
  5
3483
  8
0
  6
CONTINUOUS
 62
     7
 10
42.0
 20
4.0
 30
0.0
 11
42.0
 21
-4.0
 31
0.0
  0
LINE
  5
3484
  8
0
  6
CONTINUOUS
 62
     7
 10
34.0
 20
4.0
 30
0.0
 11
34.0
 21
-4.0
 31
0.0
  0
ARC
  5
3485
  8
0
  6
CONTINUOUS
 62
     7
 10
51.939329999999977
 20
49.999999999999893
 30
0.0
 40
2.0
 50
3.4746006999985561
 51
90.000003000000945
  0
ARC
  5
3486
  8
0
  6
CONTINUOUS
 62
     7
 10
24.060670000000009
 20
49.999999999999893
 30
0.0
 40
2.0
 50
90.000003000000945
 51
176.52540999999641
  0
ARC
  5
3487
  8
0
  6
CONTINUOUS
 62
     7
 10
38.0
 20
-9.5
 30
0.0
 40
6.0
 50
246.4435399999993
 51
293.55647000000192
  0
ARC
  5
3488
  8
0
  6
CONTINUOUS
 62
     7
 10
38.0
 20
17.899989999999999
 30
0.0
 40
7.75
 50
180.000010000001
 51
201.3466386488906
  0
ARC
  5
3489
  8
0
  6
CONTINUOUS
 62
     7
 10
38.0
 20
17.899989999999999
 30
0.0
 40
7.75
 50
334.58537908483902
 51
0.0
  0
ARC
  5
348A
  8
0
  6
CONTINUOUS
 62
     7
 10
19.0
 20
47.999999999999893
 30
0.0
 40
35.0
 50
324.75248999999729
 51
3.4746006999985561
  0
ARC
  5
348B
  8
0
  6
CONTINUOUS
 62
     7
 10
55.75
 20
22.030059999999931
 30
0.0
 40
10.0
 50
144.75250000000111
 51
180.000010000001
  0
ARC
  5
348C
  8
0
  6
CONTINUOUS
 62
     7
 10
20.249999999999989
 20
22.030059999999931
 30
0.0
 40
10.0
 50
0.0
 51
35.247505000000771
  0
ARC
  5
348D
  8
0
  6
CONTINUOUS
 62
     7
 10
57.0
 20
47.999999999999893
 30
0.0
 40
35.0
 50
176.52540999999641
 51
215.24750999999731
  0
ARC
  5
348E
  8
0
  6
CONTINUOUS
 62
     7
 10
38.0
 20
42.999999999999893
 30
0.0
 40
5.0
 50
0.0
 51
180.000010000001
  0
ARC
  5
348F
  8
0
  6
CONTINUOUS
 62
     7
 10
41.0
 20
31.199999999999928
 30
0.0
 40
2.0
 50
270.0
 51
0.0
  0
ARC
  5
3490
  8
0
  6
CONTINUOUS
 62
     7
 10
35.0
 20
31.199999999999928
 30
0.0
 40
2.0
 50
179.99998999999889
 51
270.0
  0
ARC
  5
3491
  8
0
  6
CONTINUOUS
 62
     7
 10
38.0
 20
32.5
 30
0.0
 40
8.0
 50
60.000002000001302
 51
120.0000000000005
  0
LINE
  5
3492
  8
0
  6
CONTINUOUS
 62
     7
 10
24.26030708791626
 20
4.0
 30
0.0
 11
45.0
 21
4.0
 31
0.0
  0
LINE
  5
3493
  8
0
  6
CONTINUOUS
 62
     7
 10
31.465258619626809
 20
15.0
 30
0.0
 11
45.0
 21
14.999999999999879
 31
0.0
  0
CIRCLE
  5
3494
  8
0
 10
38.0
 20
-9.5
 30
0.0
 40
3.5
  0
ARC
  5
3496
  8
0
 10
31.465258619626809
 20
-18.0
 30
0.0
 40
3.0
 50
90.0
 51
150.22787507006819
  0
ARC
  5
3497
  8
0
 10
24.26030708791626
 20
-7.0
 30
0.0
 40
3.0
 50
90.0
 51
163.90518400866071
  0
ARC
  5
3498
  8
0
 10
-25.501884265784721
 20
-6.2222503079289018
 30
0.0
 40
4.0
 50
13.711792716484579
 51
105.00002682023209
  0
ARC
  5
349B
  8
0
 10
-33.766500559107953
 20
-17.969027241110211
 30
0.0
 40
5.0
 50
28.019918801396368
 51
85.372101366254526
  0
LINE
  5
349E
  8
0
  6
CONTINUOUS
 62
     7
 10
147.29156916882249
 20
27.199999999999928
 30
0.0
 11
147.29156916882249
 21
17.899989999999999
 31
0.0
  0
LINE
  5
349F
  8
0
  6
CONTINUOUS
 62
     7
 10
143.54156916882249
 20
39.428209999999922
 30
0.0
 11
143.54156916882249
 21
29.38959999999997
 31
0.0
  0
LINE
  5
34A0
  8
0
  6
CONTINUOUS
 62
     7
 10
143.54156916882249
 20
12.0
 30
0.0
 11
143.54156916882249
 21
-14.428190000000081
 31
0.0
  0
LINE
  5
34A1
  8
0
  6
CENTER
 62
     7
 10
127.4648491688224
 20
0.0
 30
0.0
 11
151.6182891688224
 21
0.0
 31
0.0
  0
LINE
  5
34A2
  8
0
  6
CONTINUOUS
 62
     7
 10
149.04156916882249
 20
15.0
 30
0.0
 11
149.04156916882249
 21
4.0
 31
0.0
  0
LINE
  5
34A3
  8
0
  6
CONTINUOUS
 62
     7
 10
149.04156916882249
 20
-4.0
 30
0.0
 11
149.04156916882249
 21
-15.0
 31
0.0
  0
LINE
  5
34A4
  8
0
  6
CONTINUOUS
 62
     7
 10
143.79156916882249
 20
10.62368999999989
 30
0.0
 11
143.79156916882249
 21
4.0
 31
0.0
  0
LINE
  5
34A5
  8
0
  6
CONTINUOUS
 62
     7
 10
143.79156916882249
 20
-15.0
 30
0.0
 11
149.04156916882249
 21
-15.0
 31
0.0
  0
LINE
  5
34A6
  8
0
  6
CONTINUOUS
 62
     7
 10
143.79156916882249
 20
-4.0
 30
0.0
 11
149.04156916882249
 21
-4.0
 31
0.0
  0
LINE
  5
34A7
  8
0
  6
CONTINUOUS
 62
     7
 10
143.79156916882249
 20
-4.0
 30
0.0
 11
143.79156916882249
 21
-15.0
 31
0.0
  0
LINE
  5
34A8
  8
0
  6
CONTINUOUS
 62
     7
 10
143.79156916882249
 20
4.0
 30
0.0
 11
149.04156916882249
 21
4.0
 31
0.0
  0
LINE
  5
34A9
  8
0
  6
CONTINUOUS
 62
     7
 10
147.76818916882249
 20
15.0
 30
0.0
 11
149.04156916882249
 21
15.0
 31
0.0
  0
LINE
  5
34AA
  8
0
  6
CONTINUOUS
 62
     7
 10
142.39157916882249
 20
50.999999999999879
 30
0.0
 11
142.39157916882249
 21
31.199999999999928
 31
0.0
  0
LINE
  5
34AB
  8
0
  6
CONTINUOUS
 62
     7
 10
147.54156306896391
 20
-25.25
 30
0.0
 11
145.99376306896389
 21
-31.026450000000061
 31
0.0
  0
LINE
  5
34AC
  8
0
  6
CONTINUOUS
 62
     7
 10
135.98715306896389
 20
-33.25
 30
0.0
 11
143.09599306896391
 21
-33.25
 31
0.0
  0
LINE
  5
34AD
  8
0
  6
CONTINUOUS
 62
     7
 10
131.54156306896391
 20
-25.25
 30
0.0
 11
133.08936306896391
 21
-31.026460000000039
 31
0.0
  0
LINE
  5
34AE
  8
0
  6
CONTINUOUS
 62
     7
 10
147.54156916882249
 20
-15.0
 30
0.0
 11
147.54156306896391
 21
-25.25
 31
0.0
  0
LINE
  5
34AF
  8
0
  6
CONTINUOUS
 62
     7
 10
129.04156916882249
 20
-13.0
 30
0.0
 11
130.04156916882249
 21
-13.0
 31
0.0
  0
LINE
  5
34B0
  8
0
  6
CONTINUOUS
 62
     7
 10
129.04156916882249
 20
13.0
 30
0.0
 11
130.04156916882249
 21
13.0
 31
0.0
  0
LINE
  5
34B1
  8
0
  6
CONTINUOUS
 62
     7
 10
129.04156916882249
 20
13.0
 30
0.0
 11
129.04156916882249
 21
-13.0
 31
0.0
  0
LINE
  5
34B2
  8
0
  6
CONTINUOUS
 62
     7
 10
149.04156916882249
 20
-6.3999900000000016
 30
0.0
 11
149.54156916882249
 21
-6.3999900000000016
 31
0.0
  0
LINE
  5
34B3
  8
0
  6
CONTINUOUS
 62
     7
 10
149.04156916882249
 20
-12.60000999999999
 30
0.0
 11
149.54156916882249
 21
-12.60000999999999
 31
0.0
  0
LINE
  5
34B4
  8
0
  6
CONTINUOUS
 62
     7
 10
144.5667591688225
 20
12.0
 30
0.0
 11
134.51638916882251
 21
12.0
 31
0.0
  0
LINE
  5
34B5
  8
0
  6
CONTINUOUS
 62
     7
 10
145.29156916882249
 20
29.199999999999928
 30
0.0
 11
133.79156916882249
 21
29.199999999999928
 31
0.0
  0
LINE
  5
34B6
  8
0
  6
CONTINUOUS
 62
     7
 10
131.79156916882249
 20
27.199999999999928
 30
0.0
 11
131.79156916882249
 21
17.899989999999999
 31
0.0
  0
LINE
  5
34B7
  8
0
  6
CONTINUOUS
 62
     7
 10
135.54156916882249
 20
39.428209999999922
 30
0.0
 11
135.54156916882249
 21
29.38959999999997
 31
0.0
  0
LINE
  5
34B8
  8
0
  6
CONTINUOUS
 62
     7
 10
135.54156916882249
 20
12.0
 30
0.0
 11
135.54156916882249
 21
-14.428190000000081
 31
0.0
  0
LINE
  5
34B9
  8
0
  6
CONTINUOUS
 62
     7
 10
130.04156916882249
 20
15.0
 30
0.0
 11
130.04156916882249
 21
4.0
 31
0.0
  0
LINE
  5
34BA
  8
0
  6
CONTINUOUS
 62
     7
 10
130.04156916882249
 20
-4.0
 30
0.0
 11
130.04156916882249
 21
-15.0
 31
0.0
  0
LINE
  5
34BB
  8
0
  6
CONTINUOUS
 62
     7
 10
135.29156916882249
 20
10.62368999999989
 30
0.0
 11
135.29156916882249
 21
4.0
 31
0.0
  0
LINE
  5
34BC
  8
0
  6
CONTINUOUS
 62
     7
 10
135.29156916882249
 20
-15.0
 30
0.0
 11
130.04156916882249
 21
-15.0
 31
0.0
  0
LINE
  5
34BD
  8
0
  6
CONTINUOUS
 62
     7
 10
135.29156916882249
 20
-4.0
 30
0.0
 11
130.04156916882249
 21
-4.0
 31
0.0
  0
LINE
  5
34BE
  8
0
  6
CONTINUOUS
 62
     7
 10
135.29156916882249
 20
-4.0
 30
0.0
 11
135.29156916882249
 21
-15.0
 31
0.0
  0
LINE
  5
34BF
  8
0
  6
CONTINUOUS
 62
     7
 10
135.29156916882249
 20
4.0
 30
0.0
 11
130.04156916882249
 21
4.0
 31
0.0
  0
LINE
  5
34C0
  8
0
  6
CONTINUOUS
 62
     7
 10
131.31494916882249
 20
15.0
 30
0.0
 11
130.04156916882249
 21
15.0
 31
0.0
  0
LINE
  5
34C1
  8
0
  6
CENTER
 62
     7
 10
151.49160916882249
 20
-9.5
 30
0.0
 11
127.59153916882249
 21
-9.5
 31
0.0
  0
LINE
  5
34C2
  8
0
  6
CONTINUOUS
 62
     7
 10
136.6915791688225
 20
50.999999999999879
 30
0.0
 11
136.6915791688225
 21
31.199999999999928
 31
0.0
  0
LINE
  5
34C3
  8
0
  6
CONTINUOUS
 62
     7
 10
141.39157916882249
 20
51.999999999999879
 30
0.0
 11
137.6915791688225
 21
51.999999999999879
 31
0.0
  0
LINE
  5
34C4
  8
0
  6
CONTINUOUS
 62
     7
 10
130.04156916882249
 20
-6.3999900000000016
 30
0.0
 11
129.54156916882249
 21
-6.3999900000000016
 31
0.0
  0
LINE
  5
34C5
  8
0
  6
CONTINUOUS
 62
     7
 10
130.04156916882249
 20
-12.60000999999999
 30
0.0
 11
129.54156916882249
 21
-12.60000999999999
 31
0.0
  0
LINE
  5
34C6
  8
0
  6
CONTINUOUS
 62
     7
 10
131.54156916882249
 20
-15.0
 30
0.0
 11
131.54156306896391
 21
-25.25
 31
0.0
  0
LINE
  5
34C7
  8
0
  6
CONTINUOUS
 62
     7
 10
150.04156916882249
 20
-13.0
 30
0.0
 11
149.04156916882249
 21
-13.0
 31
0.0
  0
LINE
  5
34C8
  8
0
  6
CONTINUOUS
 62
     7
 10
150.04156916882249
 20
13.0
 30
0.0
 11
150.04156916882249
 21
-13.0
 31
0.0
  0
LINE
  5
34C9
  8
0
  6
CONTINUOUS
 62
     7
 10
150.04156916882249
 20
13.0
 30
0.0
 11
149.04156916882249
 21
13.0
 31
0.0
  0
LINE
  5
34CA
  8
0
  6
CONTINUOUS
 62
     7
 10
144.04144916882251
 20
11.285009999999939
 30
0.0
 11
147.01807916882251
 21
14.6613299999999
 31
0.0
  0
LINE
  5
34CB
  8
0
  6
CONTINUOUS
 62
     7
 10
135.0416791688225
 20
11.28498999999999
 30
0.0
 11
132.0650491688225
 21
14.661319999999931
 31
0.0
  0
LINE
  5
34CC
  8
0
  6
CONTINUOUS
 62
     7
 10
145.3979791688225
 20
-15.0
 30
0.0
 11
145.39797306896389
 21
-30.895740000000039
 31
0.0
  0
LINE
  5
34CD
  8
0
  6
CONTINUOUS
 62
     7
 10
133.68516916882251
 20
-15.0
 30
0.0
 11
133.6851630689639
 21
-30.470580000000041
 31
0.0
  0
LINE
  5
34CE
  8
0
  6
CENTER
 62
     7
 10
139.54156916882249
 20
58.275049999999958
 30
0.0
 11
139.54156306896391
 21
-37.535332000000039
 31
0.0
  0
LINE
  5
34CF
  8
0
  6
CONTINUOUS
 62
     7
 10
129.04156916882249
 20
6.0
 30
0.0
 11
128.54156916882249
 21
6.0
 31
0.0
  0
LINE
  5
34D0
  8
0
  6
CONTINUOUS
 62
     7
 10
129.04156916882249
 20
11.0
 30
0.0
 11
128.54156916882249
 21
11.0
 31
0.0
  0
LINE
  5
34D1
  8
0
  6
CONTINUOUS
 62
     7
 10
129.04156916882249
 20
-11.0
 30
0.0
 11
128.54156916882249
 21
-11.0
 31
0.0
  0
LINE
  5
34D2
  8
0
  6
CONTINUOUS
 62
     7
 10
129.04156916882249
 20
-6.0
 30
0.0
 11
128.54156916882249
 21
-6.0
 31
0.0
  0
LINE
  5
34D3
  8
0
  6
CONTINUOUS
 62
     7
 10
128.04156916882249
 20
10.5
 30
0.0
 11
128.04156916882249
 21
6.5
 31
0.0
  0
LINE
  5
34D4
  8
0
  6
CONTINUOUS
 62
     7
 10
128.04156916882249
 20
-6.5
 30
0.0
 11
128.04156916882249
 21
-10.5
 31
0.0
  0
ARC
  5
34D5
  8
0
  6
CONTINUOUS
 62
     7
 10
139.54156916882249
 20
17.899989999999999
 30
0.0
 40
7.75
 50
310.42192000000011
 51
0.0
  0
ARC
  5
34D6
  8
0
  6
CONTINUOUS
 62
     7
 10
139.54156916882249
 20
32.5
 30
0.0
 40
8.0
 50
60.000002000001302
 51
69.129929000002221
  0
ARC
  5
34D7
  8
0
  6
CONTINUOUS
 62
     7
 10
145.29156916882249
 20
27.199999999999928
 30
0.0
 40
2.0
 50
0.0
 51
90.000003000000945
  0
ARC
  5
34D8
  8
0
  6
CONTINUOUS
 62
     7
 10
144.39157916882249
 20
31.199999999999928
 30
0.0
 40
2.0
 50
179.99998999999889
 51
270.0
  0
ARC
  5
34D9
  8
0
  6
CONTINUOUS
 62
     7
 10
141.39157916882249
 20
50.999999999999879
 30
0.0
 40
1.0
 50
0.0
 51
90.000003000000945
  0
ARC
  5
34DA
  8
0
  6
CONTINUOUS
 62
     7
 10
135.98715306896389
 20
-30.25
 30
0.0
 40
3.0
 50
195.00001000000211
 51
270.0
  0
ARC
  5
34DB
  8
0
  6
CONTINUOUS
 62
     7
 10
143.09599306896391
 20
-30.25
 30
0.0
 40
3.0
 50
270.0
 51
344.9999999999992
  0
ARC
  5
34DC
  8
0
  6
CONTINUOUS
 62
     7
 10
137.6915791688225
 20
50.999999999999879
 30
0.0
 40
1.0
 50
89.999996000000905
 51
180.000010000001
  0
ARC
  5
34DD
  8
0
  6
CONTINUOUS
 62
     7
 10
134.6915791688225
 20
31.199999999999928
 30
0.0
 40
2.0
 50
270.0
 51
0.0000050089569452
  0
ARC
  5
34DE
  8
0
  6
CONTINUOUS
 62
     7
 10
139.54156916882249
 20
-7.5
 30
0.0
 40
8.0
 50
239.9999999999994
 51
300.00000000000051
  0
ARC
  5
34DF
  8
0
  6
CONTINUOUS
 62
     7
 10
139.54156916882249
 20
17.899989999999999
 30
0.0
 40
7.75
 50
180.000010000001
 51
229.5781000000018
  0
ARC
  5
34E0
  8
0
  6
CONTINUOUS
 62
     7
 10
139.54156916882249
 20
32.5
 30
0.0
 40
8.0
 50
110.8700700000019
 51
120.0000000000005
  0
ARC
  5
34E1
  8
0
  6
CONTINUOUS
 62
     7
 10
133.79156916882249
 20
27.199999999999928
 30
0.0
 40
2.0
 50
89.999996000000905
 51
180.000010000001
  0
ARC
  5
34E2
  8
0
  6
CONTINUOUS
 62
     7
 10
131.31494916882249
 20
14.0
 30
0.0
 40
1.0
 50
41.400000000001157
 51
90.000003000000945
  0
ARC
  5
34E3
  8
0
  6
CONTINUOUS
 62
     7
 10
134.29156916882249
 20
10.62368999999989
 30
0.0
 40
1.0
 50
0.0
 51
41.400000000001157
  0
ARC
  5
34E4
  8
0
  6
CONTINUOUS
 62
     7
 10
144.79156916882249
 20
10.62368999999989
 30
0.0
 40
1.0
 50
138.5999999999988
 51
180.000010000001
  0
ARC
  5
34E5
  8
0
  6
CONTINUOUS
 62
     7
 10
147.76818916882249
 20
14.0
 30
0.0
 40
1.0
 50
90.000003000000945
 51
138.5999999999988
  0
ARC
  5
34E6
  8
0
  6
CONTINUOUS
 62
     7
 10
128.54156916882249
 20
10.5
 30
0.0
 40
0.5
 50
90.000003000000945
 51
180.000010000001
  0
ARC
  5
34E7
  8
0
  6
CONTINUOUS
 62
     7
 10
128.54156916882249
 20
6.5
 30
0.0
 40
0.5
 50
179.99998999999889
 51
270.0
  0
ARC
  5
34E8
  8
0
  6
CONTINUOUS
 62
     7
 10
147.41656916882249
 20
8.5
 30
0.0
 40
3.625
 50
316.39717999999658
 51
43.602817999999878
  0
ARC
  5
34E9
  8
0
  6
CONTINUOUS
 62
     7
 10
128.54156916882249
 20
-10.5
 30
0.0
 40
0.5
 50
179.99998999999889
 51
270.0
  0
ARC
  5
34EA
  8
0
  6
CONTINUOUS
 62
     7
 10
128.54156916882249
 20
-6.5
 30
0.0
 40
0.5
 50
90.000003000000945
 51
180.000010000001
  0
ARC
  5
34EB
  8
0
  6
CONTINUOUS
 62
     7
 10
147.41656916882249
 20
-8.5
 30
0.0
 40
3.625
 50
316.39717999999658
 51
43.602817999999878
  0
ARC
  5
34EC
  8
0
  6
CONTINUOUS
 62
     7
 10
129.54156916882249
 20
-12.10000999999999
 30
0.0
 40
0.5
 50
179.99998999999889
 51
270.0
  0
ARC
  5
34ED
  8
0
  6
CONTINUOUS
 62
     7
 10
129.54156916882249
 20
-6.8999900000000016
 30
0.0
 40
0.5
 50
90.000003000000945
 51
180.000010000001
  0
ARC
  5
34EE
  8
0
  6
CONTINUOUS
 62
     7
 10
149.54156916882249
 20
-6.8999900000000016
 30
0.0
 40
0.5
 50
0.0
 51
90.000003000000945
  0
ARC
  5
34EF
  8
0
  6
CONTINUOUS
 62
     7
 10
149.54156916882249
 20
-12.10000999999999
 30
0.0
 40
0.5
 50
270.0
 51
0.0
  0
LINE
  5
34FB
  8
0
  6
CONTINUOUS
 62
     7
 10
147.54156306896391
 20
25.25
 30
0.0
 11
147.29156916882249
 21
26.182986990872219
 31
0.0
  0
LINE
  5
34FD
  8
0
  6
CONTINUOUS
 62
     7
 10
131.54156306896391
 20
25.25
 30
0.0
 11
131.79156916882241
 21
26.183034135927748
 31
0.0
  0
LINE
  5
34FE
  8
0
  6
CONTINUOUS
 62
     7
 10
147.54156916882249
 20
15.0
 30
0.0
 11
147.54156306896391
 21
25.25
 31
0.0
  0
LINE
  5
34FF
  8
0
  6
CONTINUOUS
 62
     7
 10
131.54156916882249
 20
15.0
 30
0.0
 11
131.54156306896391
 21
25.25
 31
0.0
  0
ARC
  5
3502
  8
0
  6
CONTINUOUS
 62
     7
 10
135.98715306896389
 20
30.25
 30
0.0
 40
3.0
 50
98.541629707744676
 51
164.99998999999781
  0
ARC
  5
3503
  8
0
  6
CONTINUOUS
 62
     7
 10
143.09599306896391
 20
30.25
 30
0.0
 40
3.0
 50
14.999999999994451
 51
81.458520937583174
  0
LINE
  5
3504
  8
0
  6
CONTINUOUS
 62
     7
 10
146.6179705857277
 20
28.696883188906661
 30
0.0
 11
145.99376306896389
 21
31.026450000000061
 31
0.0
  0
LINE
  5
3505
  8
0
  6
CONTINUOUS
 62
     7
 10
132.46514965691679
 20
28.696867154571692
 30
0.0
 11
133.08936306896391
 21
31.026460000000039
 31
0.0
  0
ARC
  5
3507
  8
0
 10
0.0
 20
0.0
 30
0.0
 40
25.25
 50
185.08432609681961
 51
350.88504204617118
  0
ARC
  5
3508
  8
0
 10
0.0
 20
0.0
 30
0.0
 40
22.25
 50
16.094815991340209
 51
166.2882072835217
  0
ARC
  5
3509
  8
0
 10
-25.501884265784721
 20
6.2222503079289018
 30
0.0
 40
4.0
 50
254.99997317976471
 51
346.28820728352167
  0
ARC
  5
350A
  8
0
 10
24.26030708791626
 20
7.0
 30
0.0
 40
3.0
 50
196.0948159913402
 51
270.0
  0
ARC
  5
350B
  8
0
 10
0.0
 20
0.0
 30
0.0
 40
33.25
 50
29.772124929937441
 51
151.98008119861089
  0
ARC
  5
350C
  8
0
 10
31.465258619626809
 20
18.0
 30
0.0
 40
3.0
 50
209.77212492993741
 51
270.0
  0
LINE
  5
350D
  8
0
  6
CONTINUOUS
 62
     7
 10
-30.636149999999979
 20
3.456870000000094
 30
0.0
 11
-26.537162254799568
 21
2.3585474873869989
 31
0.0
  0
ARC
  5
350E
  8
0
 10
-33.766500559107953
 20
17.969027241110211
 30
0.0
 40
5.0
 50
274.62789863374542
 51
331.98008119861078
  0
ARC
  5
350F
  8
0
 10
0.0
 20
0.0
 30
0.0
 40
25.25
 50
9.1149579538292542
 51
174.9156739031738
  0
LINE
  5
3510
  8
0
  6
CENTER
 62
     7
 10
27.85509999999999
 20
-9.5
 30
0.0
 11
49.193270000000041
 21
-9.5
 31
0.0
  0
VIEWPORT
  5
79
 67
     1
  8
0
 10
5.2499996395561617
 20
3.9999998836066761
 30
0.0
 40
15.015580297613511
 41
8.5939224089826052
 68
     1
 69
     1
1001
ACAD
1000
MVIEW
1002
{
1070
    16
1010
0.0
1020
0.0
1030
0.0
1010
0.0
1020
0.0
1030
1.0
1040
0.0
1040
8.5939224089826052
1040
5.2499996395561617
1040
3.9999998836066761
1040
50.0
1040
0.0
1040
0.0
1070
     0
1070
   100
1070
     1
1070
     1
1070
     0
1070
     0
1070
     0
1070
     0
1040
0.0
1040
0.0
1040
0.0
1040
10.0
1040
10.0
1040
10.0
1040
10.0
1070
     0
1002
{
1002
}
1002
}
1001
GENIUS_GENOBJ-N-SDF_13
1002
{
1000
OWNER
1000
GEN
1002
}
1001
GENIUS_GENODEF_13
1002
{
1000
HIER
1070
     0
1002
}
1002
{
1000
MANEDIT
1070
     0
1002
}
1002
{
1000
NOSEL
1070
     0
1002
}
1002
{
1000
BEHIND
1070
     0
1002
}
1002
{
1000
OTHER
1070
     0
1002
}
1002
{
1000
REACTOR
1002
}
1001
GENIUS_GENSCREG_15
1000
PF
1040
1.0
1000
DF
1040
1.0
1000
MIN
1011
-2.2577905092505972
1021
0.0
1031
0.0
1021
-0.2969613208846251
1031
0.0
1000
MAX
1011
12.757789788362921
1021
0.0
1031
0.0
1021
8.2969610880979801
1031
0.0
1000
FLAGS
1070
     4
  0
VIEWPORT
  5
7B
 67
     1
  8
0
 10
5.24999976158142
 20
3.99999976158142
 30
0.0
 40
8.3999996185302717
 41
6.3999996185302717
 68
     2
 69
     2
1001
ACAD
1000
MVIEW
1002
{
1070
    16
1010
0.0
1020
0.0
1030
0.0
1010
0.0
1020
0.0
1030
1.0
1040
0.0
1040
9.2590797717467002
1040
6.0
1040
4.5
1040
50.0
1040
0.0
1040
0.0
1070
     0
1070
   100
1070
     1
1070
     3
1070
     0
1070
     0
1070
     0
1070
     0
1040
0.0
1040
0.0
1040
0.0
1040
0.5
1040
0.5
1040
0.5
1040
0.5
1070
     0
1002
{
1002
}
1002
}
1001
GENIUS_GENODEF_13
1002
{
1000
HIER
1070
     0
1002
}
1002
{
1000
MANEDIT
1070
     0
1002
}
1002
{
1000
NOSEL
1070
     0
1002
}
1002
{
1000
BEHIND
1070
     0
1002
}
1002
{
1000
OTHER
1070
     0
1002
}
1002
{
1000
REACTOR
1002
}
1001
GENIUS_GENOBJ-N-SDF_13
1002
{
1000
OWNER
1000
GEN
1002
}
1001
GENIUS_GENSCREG_15
1000
PF
1040
0.0
1000
DF
1040
0.0
1000
MIN
1011
1.049999952316284
1021
0.0
1031
0.0
1021
0.7999999523162842
1031
0.0
1000
MAX
1011
9.4499995708465558
1021
0.0
1031
0.0
1021
7.1999995708465558
1031
0.0
1000
FLAGS
1070
     4
  0
ENDSEC
  0
EOF
