  0
SECTION
  2
HEADER
  9
$ACADVER
  1
AC1009
  9
$INSBASE
 10
0.0
 20
0.0
 30
0.0
  9
$EXTMIN
 10
-88.659564999999986
 20
-90.238855772152476
 30
0.0
  9
$EXTMAX
 10
185.2475646746949
 20
104.1968493569282
 30
0.0
  9
$LIMMIN
 10
0.0
 20
0.0
  9
$LIMMAX
 10
12.0
 20
9.0
  9
$ORTHOMODE
 70
     0
  9
$REGENMODE
 70
     1
  9
$FILLMODE
 70
     1
  9
$QTEXTMODE
 70
     0
  9
$MIRRTEXT
 70
     1
  9
$DRAGMODE
 70
     2
  9
$LTSCALE
 40
1.0
  9
$OSMODE
 70
    37
  9
$ATTMODE
 70
     1
  9
$TEXTSIZE
 40
0.2
  9
$TRACEWID
 40
0.05
  9
$TEXTSTYLE
  7
STANDARD
  9
$CLAYER
  8
0
  9
$CELTYPE
  6
BYLAYER
  9
$CECOLOR
 62
   256
  9
$DIMSCALE
 40
1.0
  9
$DIMASZ
 40
0.18
  9
$DIMEXO
 40
0.0625
  9
$DIMDLI
 40
0.38
  9
$DIMRND
 40
0.0
  9
$DIMDLE
 40
0.0
  9
$DIMEXE
 40
0.18
  9
$DIMTP
 40
0.0
  9
$DIMTM
 40
0.0
  9
$DIMTXT
 40
0.18
  9
$DIMCEN
 40
0.09
  9
$DIMTSZ
 40
0.0
  9
$DIMTOL
 70
     0
  9
$DIMLIM
 70
     0
  9
$DIMTIH
 70
     1
  9
$DIMTOH
 70
     1
  9
$DIMSE1
 70
     0
  9
$DIMSE2
 70
     0
  9
$DIMTAD
 70
     0
  9
$DIMZIN
 70
     0
  9
$DIMBLK
  1

  9
$DIMASO
 70
     1
  9
$DIMSHO
 70
     1
  9
$DIMPOST
  1

  9
$DIMAPOST
  1

  9
$DIMALT
 70
     0
  9
$DIMALTD
 70
     2
  9
$DIMALTF
 40
25.399999999999999
  9
$DIMLFAC
 40
1.0
  9
$DIMTOFL
 70
     0
  9
$DIMTVP
 40
0.0
  9
$DIMTIX
 70
     0
  9
$DIMSOXD
 70
     0
  9
$DIMSAH
 70
     0
  9
$DIMBLK1
  1

  9
$DIMBLK2
  1

  9
$DIMSTYLE
  2
STANDARD
  9
$DIMCLRD
 70
     0
  9
$DIMCLRE
 70
     0
  9
$DIMCLRT
 70
     0
  9
$DIMTFAC
 40
1.0
  9
$DIMGAP
 40
0.09
  9
$LUNITS
 70
     2
  9
$LUPREC
 70
     4
  9
$SKETCHINC
 40
0.1
  9
$FILLETRAD
 40
1.0
  9
$AUNITS
 70
     0
  9
$AUPREC
 70
     0
  9
$MENU
  1
.
  9
$ELEVATION
 40
0.0
  9
$PELEVATION
 40
0.0
  9
$THICKNESS
 40
0.0
  9
$LIMCHECK
 70
     0
  9
$BLIPMODE
 70
     0
  9
$CHAMFERA
 40
0.5
  9
$CHAMFERB
 40
0.5
  9
$SKPOLY
 70
     0
  9
$TDCREATE
 40
2451955.1727028699
  9
$TDUPDATE
 40
2454732.6788561451
  9
$TDINDWG
 40
0.1002038079
  9
$TDUSRTIMER
 40
0.1002036343
  9
$USRTIMER
 70
     1
  9
$ANGBASE
 50
0.0
  9
$ANGDIR
 70
     0
  9
$PDMODE
 70
     0
  9
$PDSIZE
 40
0.0
  9
$PLINEWID
 40
0.0
  9
$COORDS
 70
     1
  9
$SPLFRAME
 70
     0
  9
$SPLINETYPE
 70
     6
  9
$SPLINESEGS
 70
     8
  9
$ATTDIA
 70
     0
  9
$ATTREQ
 70
     1
  9
$HANDLING
 70
 22529
  9
$HANDSEED
  5
2FDD
  9
$SURFTAB1
 70
     6
  9
$SURFTAB2
 70
     6
  9
$SURFTYPE
 70
     6
  9
$SURFU
 70
     6
  9
$SURFV
 70
     6
  9
$UCSNAME
  2

  9
$UCSORG
 10
0.0
 20
0.0
 30
0.0
  9
$UCSXDIR
 10
1.0
 20
0.0
 30
0.0
  9
$UCSYDIR
 10
0.0
 20
1.0
 30
0.0
  9
$PUCSNAME
  2

  9
$PUCSORG
 10
0.0
 20
0.0
 30
0.0
  9
$PUCSXDIR
 10
1.0
 20
0.0
 30
0.0
  9
$PUCSYDIR
 10
0.0
 20
1.0
 30
0.0
  9
$USERI1
 70
     0
  9
$USERI2
 70
     0
  9
$USERI3
 70
     0
  9
$USERI4
 70
     0
  9
$USERI5
 70
     0
  9
$USERR1
 40
0.0
  9
$USERR2
 40
0.0
  9
$USERR3
 40
0.0
  9
$USERR4
 40
0.0
  9
$USERR5
 40
0.0
  9
$WORLDVIEW
 70
     1
  9
$SHADEDGE
 70
     3
  9
$SHADEDIF
 70
    70
  9
$TILEMODE
 70
     1
  9
$MAXACTVP
 70
    48
  9
$PLIMCHECK
 70
     0
  9
$PEXTMIN
 10
1.049636599258096
 20
0.7996597240971113
 30
-0.0015258207003583
  9
$PEXTMAX
 10
9.4503627310769716
 20
7.2003400826974584
 30
0.0000000349246037
  9
$PLIMMIN
 10
-0.2500002402958907
 20
-0.2499999962453767
  9
$PLIMMAX
 10
10.74999951940821
 20
8.2499997634587316
  9
$UNITMODE
 70
     0
  9
$VISRETAIN
 70
     1
  9
$PLINEGEN
 70
     0
  9
$PSLTSCALE
 70
     1
  0
ENDSEC
  0
SECTION
  2
TABLES
  0
TABLE
  2
VPORT
 70
     2
  0
VPORT
  2
*ACTIVE
 70
     0
 10
0.0
 20
0.0
 11
1.0
 21
1.0
 12
48.290806735490847
 22
6.9772481188904569
 13
0.0
 23
0.0
 14
0.5
 24
0.5
 15
0.5
 25
0.5
 16
0.0
 26
0.0
 36
1.0
 17
0.0
 27
0.0
 37
0.0
 40
196.01722600020719
 41
1.531806615776081
 42
50.0
 43
0.0
 44
0.0
 50
0.0
 51
0.0
 71
     0
 72
   100
 73
     1
 74
     3
 75
     0
 76
     0
 77
     0
 78
     0
  0
ENDTAB
  0
TABLE
  2
LTYPE
 70
     2
  0
LTYPE
  2
CONTINUOUS
 70
     0
  3
Solid line
 72
    65
 73
     0
 40
0.0
  0
LTYPE
  2
CENTER
 70
     0
  3
__ . __
 72
    65
 73
     4
 40
7.0
 49
4.0
 49
-1.0
 49
1.0
 49
-1.0
  0
ENDTAB
  0
TABLE
  2
LAYER
 70
     1
  0
LAYER
  2
0
 70
     0
 62
     7
  6
CONTINUOUS
  0
ENDTAB
  0
TABLE
  2
STYLE
 70
     1
  0
STYLE
  2
STANDARD
 70
     0
 40
0.0
 41
1.0
 50
0.0
 71
     0
 42
0.2
  3
txt
  4

  0
ENDTAB
  0
TABLE
  2
VIEW
 70
     0
  0
ENDTAB
  0
TABLE
  2
UCS
 70
     0
  0
ENDTAB
  0
TABLE
  2
APPID
 70
    19
  0
APPID
  2
ACAD
 70
     0
  0
APPID
  2
GENIUS_GENODEF_13
 70
     0
  0
APPID
  2
ACAD_DSTYLE_DIMARC_LENGTH_
 70
     0
  0
APPID
  2
ACAD_DSTYLE_DIMJOGGED_JOGA
 70
     0
  0
APPID
  2
GENIUS_GENOBJ-N-FIL_13
 70
     0
  0
APPID
  2
ACAD_MLEADERVER
 70
     0
  0
APPID
  2
MCAD_NO_VIS
 70
     0
  0
APPID
  2
ACAD_TEMP_GRAPHIC
 70
     0
  0
APPID
  2
AD_DRAW
 70
     0
  0
APPID
  2
ACATTRIBSERVICES
 70
     0
  0
APPID
  2
DESIGNERASSEMBLIES
 70
     0
  0
APPID
  2
ACADM_DIM_EDIT
 70
     0
  0
APPID
  2
AMDT_DM_ADJ
 70
     0
  0
APPID
  2
GENIUS_GENSCREG_15
 70
     0
  0
APPID
  2
GENIUS_GENOBJ-N-SDF_13
 70
     0
  0
APPID
  2
ACAD_DSTYLE_DIM_LINETYPE
 70
     0
  0
APPID
  2
ACAD_DSTYLE_DIM_EXT1_LINETYPE
 70
     0
  0
APPID
  2
ACAD_DSTYLE_DIM_EXT2_LINETYPE
 70
     0
  0
APPID
  2
ACAD_EXEMPT_FROM_CAD_STANDARDS
 70
     0
  0
ENDTAB
  0
TABLE
  2
DIMSTYLE
 70
     1
  0
DIMSTYLE
  2
STANDARD
 70
     0
  3

  4

  5

  6

  7

 40
1.0
 41
0.18
 42
0.0625
 43
0.38
 44
0.18
 45
0.0
 46
0.0
 47
0.0
 48
0.0
140
0.18
141
0.09
142
0.0
143
25.399999999999999
144
1.0
145
0.0
146
1.0
147
0.09
 71
     0
 72
     0
 73
     1
 74
     1
 75
     0
 76
     0
 77
     0
 78
     0
170
     0
171
     2
172
     0
173
     0
174
     0
175
     0
176
     0
177
     0
178
     0
  0
ENDTAB
  0
ENDSEC
  0
SECTION
  2
BLOCKS
  0
BLOCK
  8
0
  2
$MODEL_SPACE
 70
     0
 10
0.0
 20
0.0
 30
0.0
  3
$MODEL_SPACE
  1

  0
ENDBLK
  5
21
  8
0
  0
BLOCK
 67
     1
  8
0
  2
$PAPER_SPACE
 70
     0
 10
0.0
 20
0.0
 30
0.0
  3
$PAPER_SPACE
  1

  0
ENDBLK
  5
60
 67
     1
  8
0
  0
ENDSEC
  0
SECTION
  2
ENTITIES
  0
LINE
  5
2A04
  8
0
  6
CENTER
 10
185.2475646746949
 20
0.0
 30
0.0
 11
148.1831046746949
 21
0.0
 31
0.0
  0
LINE
  5
2A07
  8
0
 10
88.999949999999842
 20
-14.0
 30
0.0
 11
88.999949999999842
 21
-5.0
 31
0.0
  0
LINE
  5
2A08
  8
0
 10
88.999949999999842
 20
5.0
 30
0.0
 11
88.999949999999842
 21
14.0
 31
0.0
  0
LINE
  5
2A09
  8
0
  6
CENTER
 10
-0.0000000000000568
 20
0.0
 30
0.0
 11
-40.310890000000143
 21
-69.820510000000013
 31
0.0
  0
LINE
  5
2A0A
  8
0
  6
CENTER
 10
81.999949999999856
 20
-20.0
 30
0.0
 11
81.999949999999856
 21
58.44785000000001
 31
0.0
  0
LINE
  5
2A0D
  8
0
 10
85.999949999999828
 20
-4.0
 30
0.0
 11
85.999949999999728
 21
4.0
 31
0.0
  0
LINE
  5
2A0F
  8
0
 10
77.999949999999842
 20
-4.0
 30
0.0
 11
77.999949999999842
 21
4.0
 31
0.0
  0
LINE
  5
2A16
  8
0
 10
76.999949999999842
 20
43.000029999999917
 30
0.0
 11
76.999949999999842
 21
31.20001000000002
 31
0.0
  0
LINE
  5
2A17
  8
0
 10
86.999949999999856
 20
43.000029999999917
 30
0.0
 11
86.999949999999856
 21
31.20001000000002
 31
0.0
  0
LINE
  5
2A18
  8
0
 10
74.249949999999842
 20
27.20001000000024
 30
0.0
 11
74.249949999999842
 21
17.900030000000012
 31
0.0
  0
LINE
  5
2A1A
  8
0
 10
89.749949999999828
 20
27.200009999999789
 30
0.0
 11
89.749949999999828
 21
17.900030000000012
 31
0.0
  0
LINE
  5
2A1B
  8
0
 10
95.939279999999897
 20
52.000029999999917
 30
0.0
 11
68.06062999999989
 21
52.000029999999917
 31
0.0
  0
LINE
  5
2A1E
  8
0
 10
87.999949999999842
 20
4.0
 30
0.0
 11
64.621979999999823
 21
4.0
 31
0.0
  0
LINE
  5
2A20
  8
0
  6
CENTER
 10
166.08474467469489
 20
86.060030000000097
 30
0.0
 11
166.08474467469489
 21
-83.778958999999986
 31
0.0
  0
LINE
  5
2A21
  8
0
  6
CENTER
 10
88.659564999999986
 20
0.0
 30
0.0
 11
-88.659564999999986
 21
0.0
 31
0.0
  0
LINE
  5
2A22
  8
0
 10
175.83474467469489
 20
64.868379999999888
 30
0.0
 11
175.83474467469489
 21
-6.3999900000001162
 31
0.0
  0
LINE
  5
2A23
  8
0
 10
156.33474467469489
 20
64.868379999999888
 30
0.0
 11
156.33474467469489
 21
-6.2662900000000263
 31
0.0
  0
LINE
  5
2A24
  8
0
 10
171.3891646746948
 20
-72.999997000000121
 30
0.0
 11
160.7803346746949
 21
-72.999997000000121
 31
0.0
  0
LINE
  5
2A2A
  8
0
 10
161.83474467469489
 20
-4.0
 30
0.0
 11
156.58474467469489
 21
-4.0
 31
0.0
  0
LINE
  5
2A2B
  8
0
 10
177.1248146746949
 20
-9.5
 30
0.0
 11
152.8201946746949
 21
-9.5
 31
0.0
  0
LINE
  5
2A2C
  8
0
 10
171.3891646746948
 20
73.000029999999924
 30
0.0
 11
160.7803346746949
 21
73.000029999999924
 31
0.0
  0
LINE
  5
2A2D
  8
0
 10
87.999949999999842
 20
-4.0
 30
0.0
 11
65.513359999999864
 21
-4.0
 31
0.0
  0
LINE
  5
2A2E
  8
0
 10
87.999949999999842
 20
-15.0
 30
0.0
 11
73.837629999999933
 21
-15.0
 31
0.0
  0
LINE
  5
2A2F
  8
0
 10
156.3688146746949
 20
65.127179999999953
 30
0.0
 11
157.88253467469491
 21
70.776470000000018
 31
0.0
  0
LINE
  5
2A30
  8
0
 10
175.8006646746949
 20
65.127179999999953
 30
0.0
 11
174.28694467469481
 21
70.776470000000018
 31
0.0
  0
LINE
  5
2A31
  8
0
 10
174.28695467469481
 20
-70.776450000000068
 30
0.0
 11
175.80067467469499
 21
-65.12716300000011
 31
0.0
  0
LINE
  5
2A32
  8
0
 10
158.47833467469491
 20
-15.0
 30
0.0
 11
158.47833467469491
 21
-69.579648000000134
 31
0.0
  0
LINE
  5
2A33
  8
0
 10
173.69116467469499
 20
-15.0
 30
0.0
 11
173.69116467469499
 21
-69.957120000000032
 31
0.0
  0
LINE
  5
2A34
  8
0
 10
66.534449999999822
 20
-12.16647000000011
 30
0.0
 11
72.240229999999826
 21
-15.460700000000079
 31
0.0
  0
LINE
  5
2A36
  8
0
 10
161.5848646746949
 20
11.284999999999849
 30
0.0
 11
158.6082346746949
 21
14.6613299999999
 31
0.0
  0
LINE
  5
2A37
  8
0
 10
170.58462467469499
 20
11.285030000000001
 30
0.0
 11
173.5612446746949
 21
14.66134999999985
 31
0.0
  0
LINE
  5
2A38
  8
0
 10
164.2347746746949
 20
52.0
 30
0.0
 11
167.93475467469489
 21
52.0
 31
0.0
  0
LINE
  5
2A39
  8
0
 10
163.2347746746949
 20
51.0
 30
0.0
 11
163.2347746746949
 21
31.20001000000002
 31
0.0
  0
LINE
  5
2A3A
  8
0
 10
157.85812467469489
 20
15.0
 30
0.0
 11
156.58474467469489
 21
15.0
 31
0.0
  0
LINE
  5
2A3B
  8
0
 10
161.83474467469489
 20
4.0
 30
0.0
 11
156.58474467469489
 21
4.0
 31
0.0
  0
LINE
  5
2A3C
  8
0
 10
161.83474467469489
 20
-4.0
 30
0.0
 11
161.83474467469489
 21
-15.0
 31
0.0
  0
LINE
  5
2A3D
  8
0
 10
161.83474467469489
 20
-15.0
 30
0.0
 11
156.58474467469489
 21
-15.0
 31
0.0
  0
LINE
  5
2A3E
  8
0
 10
161.83474467469489
 20
10.62368999999989
 30
0.0
 11
161.83474467469489
 21
4.0
 31
0.0
  0
LINE
  5
2A43
  8
0
 10
162.08474467469489
 20
12.0
 30
0.0
 11
162.08474467469489
 21
-14.428190000000081
 31
0.0
  0
LINE
  5
2A44
  8
0
 10
162.08474467469489
 20
39.428229999999978
 30
0.0
 11
162.08474467469489
 21
29.389619999999919
 31
0.0
  0
LINE
  5
2A45
  8
0
 10
158.33474467469489
 20
27.20001000000002
 30
0.0
 11
158.33474467469489
 21
17.900000000000091
 31
0.0
  0
LINE
  5
2A46
  8
0
 10
160.33474467469489
 20
29.20001000000002
 30
0.0
 11
171.83474467469489
 21
29.20001000000002
 31
0.0
  0
LINE
  5
2A47
  8
0
 10
161.05957467469489
 20
12.0
 30
0.0
 11
171.1099546746949
 21
12.0
 31
0.0
  0
LINE
  5
2A48
  8
0
 10
175.58474467469489
 20
-12.5999999999999
 30
0.0
 11
176.08474467469489
 21
-12.5999999999999
 31
0.0
  0
LINE
  5
2A49
  8
0
 10
175.58474467469489
 20
-6.3999900000001162
 30
0.0
 11
176.08474467469489
 21
-6.3999900000001162
 31
0.0
  0
LINE
  5
2A4B
  8
0
 10
168.93475467469489
 20
51.0
 30
0.0
 11
168.93475467469489
 21
31.20001000000002
 31
0.0
  0
LINE
  5
2A4C
  8
0
 10
174.31137467469489
 20
15.0
 30
0.0
 11
175.58474467469489
 21
15.0
 31
0.0
  0
LINE
  5
2A4D
  8
0
 10
170.33474467469489
 20
4.0
 30
0.0
 11
175.58474467469489
 21
4.0
 31
0.0
  0
LINE
  5
2A4E
  8
0
 10
170.33474467469489
 20
-4.0
 30
0.0
 11
170.33474467469489
 21
-15.0
 31
0.0
  0
LINE
  5
2A4F
  8
0
 10
170.33474467469489
 20
-4.0
 30
0.0
 11
175.58474467469489
 21
-4.0
 31
0.0
  0
LINE
  5
2A50
  8
0
 10
170.33474467469489
 20
-15.0
 30
0.0
 11
175.58474467469489
 21
-15.0
 31
0.0
  0
LINE
  5
2A51
  8
0
 10
170.33474467469489
 20
10.62368999999989
 30
0.0
 11
170.33474467469489
 21
4.0
 31
0.0
  0
LINE
  5
2A56
  8
0
 10
170.08474467469489
 20
12.0
 30
0.0
 11
170.08474467469489
 21
-14.428190000000081
 31
0.0
  0
LINE
  5
2A57
  8
0
 10
170.08474467469489
 20
39.428229999999978
 30
0.0
 11
170.08474467469489
 21
29.389619999999919
 31
0.0
  0
LINE
  5
2A58
  8
0
 10
173.83474467469489
 20
27.20001000000002
 30
0.0
 11
173.83474467469489
 21
17.900000000000091
 31
0.0
  0
LINE
  5
2A5B
  8
0
 10
173.69116467469499
 20
28.391419999999918
 30
0.0
 11
173.69116467469499
 21
69.957159999999931
 31
0.0
  0
LINE
  5
2A5C
  8
0
 10
158.47833467469491
 20
28.391419999999918
 30
0.0
 11
158.47833467469491
 21
69.579649999999901
 31
0.0
  0
LINE
  5
2A5D
  8
0
 10
73.837629999999933
 20
15.0
 30
0.0
 11
87.999949999999842
 21
15.0
 31
0.0
  0
LINE
  5
2A5E
  8
0
  6
CENTER
 10
-0.0000000000000568
 20
-82.047207999999955
 30
0.0
 11
-0.0000000000000568
 21
82.047207999999955
 31
0.0
  0
LINE
  5
2A5F
  8
0
 10
176.58474467469489
 20
-6.8999900000001162
 30
0.0
 11
176.58474467469489
 21
-12.099999999999911
 31
0.0
  0
LINE
  5
2A60
  8
0
 10
176.83474467469489
 20
-61.226055999999971
 30
0.0
 11
176.83474467469489
 21
-66.426069000000098
 31
0.0
  0
LINE
  5
2A61
  8
0
 10
175.33474467469489
 20
-66.926069000000098
 30
0.0
 11
176.33474467469489
 21
-66.926069000000098
 31
0.0
  0
LINE
  5
2A62
  8
0
 10
175.83474467469489
 20
-60.726055999999971
 30
0.0
 11
176.33474467469489
 21
-60.726055999999971
 31
0.0
  0
LINE
  5
2A63
  8
0
  6
CENTER
 10
177.1248146746949
 20
-63.826062999999976
 30
0.0
 11
152.8201946746949
 21
-63.826062999999976
 31
0.0
  0
LINE
  5
2A64
  8
0
 10
176.83474467469489
 20
61.226059999999961
 30
0.0
 11
176.83474467469489
 21
66.426069999999982
 31
0.0
  0
LINE
  5
2A65
  8
0
  6
CENTER
 10
177.1248146746949
 20
63.826070000000072
 30
0.0
 11
152.8201946746949
 21
63.826070000000072
 31
0.0
  0
LINE
  5
2A66
  8
0
 10
175.83474467469489
 20
60.726059999999961
 30
0.0
 11
176.33474467469489
 21
60.726059999999961
 31
0.0
  0
LINE
  5
2A67
  8
0
 10
175.3186646746949
 20
66.926069999999982
 30
0.0
 11
176.33474467469489
 21
66.926069999999982
 31
0.0
  0
LINE
  5
2A68
  8
0
 10
156.58474467469489
 20
15.0
 30
0.0
 11
156.58474467469489
 21
-15.0
 31
0.0
  0
LINE
  5
2A69
  8
0
 10
175.58474467469489
 20
15.0
 30
0.0
 11
175.58474467469489
 21
-15.0
 31
0.0
  0
LINE
  5
2A6B
  8
0
 10
156.33474467469489
 20
-12.73369999999999
 30
0.0
 11
156.33474467469489
 21
-64.999997000000121
 31
0.0
  0
LINE
  5
2A6C
  8
0
 10
175.83474467469489
 20
-12.5999999999999
 30
0.0
 11
175.83474467469489
 21
-64.86834500000009
 31
0.0
  0
LINE
  5
2A6D
  8
0
 10
156.33474467469489
 20
-67.076062999999976
 30
0.0
 11
156.83474467469489
 21
-67.076062999999976
 31
0.0
  0
LINE
  5
2A6E
  8
0
 10
156.33474467469489
 20
67.076070000000072
 30
0.0
 11
156.83474467469489
 21
67.076070000000072
 31
0.0
  0
LINE
  5
2A6F
  8
0
 10
157.33474467469489
 20
-68.826062999999976
 30
0.0
 11
157.3599446746949
 21
-68.826062999999976
 31
0.0
  0
LINE
  5
2A70
  8
0
 10
156.33474467469489
 20
-67.076062999999976
 30
0.0
 11
156.33474467469489
 21
-67.826062999999976
 31
0.0
  0
LINE
  5
2A71
  8
0
 10
175.83474467469489
 20
-66.926069000000098
 30
0.0
 11
175.83474467469489
 21
-67.826062999999976
 31
0.0
  0
LINE
  5
2A72
  8
0
 10
174.80955467469479
 20
-68.826062999999976
 30
0.0
 11
174.83474467469489
 21
-68.826062999999976
 31
0.0
  0
LINE
  5
2A73
  8
0
 10
157.88254467469491
 20
-70.776460000000043
 30
0.0
 11
156.36882467469491
 21
-65.12715900000012
 31
0.0
  0
LINE
  5
2A74
  8
0
 10
156.33474467469489
 20
67.076070000000072
 30
0.0
 11
156.33474467469489
 21
67.826070000000072
 31
0.0
  0
LINE
  5
2A75
  8
0
 10
175.83474467469489
 20
66.926069999999982
 30
0.0
 11
175.83474467469489
 21
67.826070000000072
 31
0.0
  0
LINE
  5
2A78
  8
0
 10
-31.263080000000109
 20
-55.562830000000069
 30
0.0
 11
-30.63377000000008
 21
-55.269379999999948
 31
0.0
  0
LINE
  5
2A79
  8
0
 10
-32.505660000000091
 20
-54.646349999999977
 30
0.0
 11
-31.720210000000119
 21
-63.62401100000011
 31
0.0
  0
LINE
  5
2A7A
  8
0
 10
-29.870160000000109
 20
-66.609116000000085
 30
0.0
 11
-20.84680000000008
 21
-62.401454000000058
 31
0.0
  0
LINE
  5
2A7B
  8
0
  6
CENTER
 10
71.435179999999889
 20
-9.5
 30
0.0
 11
94.971169999999859
 21
-9.5
 31
0.0
  0
LINE
  5
2A7C
  8
0
 10
-31.83665000000013
 20
-56.55628999999999
 30
0.0
 11
-31.053009417117831
 21
-65.513362855293281
 31
0.0
  0
LINE
  5
2A7D
  8
0
 10
-36.53811000000001
 20
-69.365763000000015
 30
0.0
 11
-26.608050000000102
 21
-68.496996000000081
 31
0.0
  0
LINE
  5
2A7E
  8
0
 10
-41.803470000000111
 20
-66.325810999999931
 30
0.0
 11
-46.016140000000121
 21
-57.291699999999992
 31
0.0
  0
LINE
  5
2A87
  8
0
 10
-46.484990000000089
 20
-56.286280000000033
 30
0.0
 11
-39.852220000000038
 21
-53.193369999999959
 31
0.0
  0
ARC
  5
2A8A
  8
0
 10
-0.0000000000000568
 20
0.0
 30
0.0
 40
73.0
 50
245.3259499999964
 51
346.2997699999986
  0
ARC
  5
2A8D
  8
0
 10
87.999949999999842
 20
-14.0
 30
0.0
 40
1.0
 50
270.0
 51
0.0
  0
ARC
  5
2A8E
  8
0
 10
87.999949999999842
 20
-5.0
 30
0.0
 40
1.0
 50
0.0
 51
90.00000299999769
  0
ARC
  5
2A8F
  8
0
 10
87.999949999999842
 20
5.0
 30
0.0
 40
1.0
 50
270.0
 51
0.0
  0
ARC
  5
2A92
  8
0
 10
81.999949999999856
 20
32.500029999999917
 30
0.0
 40
8.0
 50
59.999994999994641
 51
119.9999999999972
  0
ARC
  5
2A93
  8
0
 10
84.999949999999842
 20
31.20001000000002
 30
0.0
 40
2.0
 50
270.0
 51
0.0000086514279086
  0
ARC
  5
2A94
  8
0
 10
78.999949999999842
 20
31.20001000000002
 30
0.0
 40
2.0
 50
180.000010000001
 51
270.0
  0
ARC
  5
2A95
  8
0
 10
81.999949999999856
 20
43.000029999999917
 30
0.0
 40
5.0
 50
359.999989999999
 51
180.000010000001
  0
ARC
  5
2A96
  8
0
 10
62.999969999999898
 20
48.000029999999931
 30
0.0
 40
35.0
 50
324.75248999999542
 51
3.4745943000043429
  0
ARC
  5
2A97
  8
0
 10
99.749949999999856
 20
22.030089999999969
 30
0.0
 40
10.0
 50
144.75250000000301
 51
180.000010000001
  0
ARC
  5
2A98
  8
0
 10
64.249969999999905
 20
22.030089999999969
 30
0.0
 40
10.0
 50
359.999989999999
 51
35.247501999994022
  0
ARC
  5
2A99
  8
0
 10
100.9999499999998
 20
48.000029999999931
 30
0.0
 40
35.0
 50
176.52540999999641
 51
215.2475100000045
  0
ARC
  5
2A9A
  8
0
 10
81.999949999999856
 20
17.900030000000012
 30
0.0
 40
7.75
 50
180.000010000001
 51
201.974717141838
  0
ARC
  5
2A9B
  8
0
 10
81.999949999999856
 20
17.900030000000012
 30
0.0
 40
7.75
 50
333.16897343824621
 51
359.999989999999
  0
ARC
  5
2A9C
  8
0
 10
81.999949999999856
 20
-9.5
 30
0.0
 40
6.0
 50
246.44354000000229
 51
293.5564643090994
  0
ARC
  5
2A9F
  8
0
 10
95.939279999999897
 20
50.000029999999917
 30
0.0
 40
2.0
 50
3.4745943000043429
 51
89.999996000000905
  0
ARC
  5
2AA0
  8
0
 10
68.06062999999989
 20
50.000029999999917
 30
0.0
 40
2.0
 50
89.999996000000905
 51
176.52540999999641
  0
ARC
  5
2AA1
  8
0
 10
157.33474467469489
 20
64.868379999999888
 30
0.0
 40
1.0
 50
164.99998999999781
 51
180.000010000001
  0
ARC
  5
2AA2
  8
0
 10
174.83474467469489
 20
64.868379999999888
 30
0.0
 40
1.0
 50
0.0
 51
14.999999999994451
  0
ARC
  5
2AA3
  8
0
 10
157.33474467469489
 20
-64.86834500000009
 30
0.0
 40
1.0
 50
179.99998999999889
 51
194.9999999999944
  0
ARC
  5
2AA4
  8
0
 10
174.83474467469489
 20
-64.86834500000009
 30
0.0
 40
1.0
 50
345.00000000000551
 51
0.0
  0
ARC
  5
2AA5
  8
0
 10
160.7803346746949
 20
70.000029999999924
 30
0.0
 40
3.0
 50
90.00000299999769
 51
164.99998999999781
  0
ARC
  5
2AA6
  8
0
 10
171.3891646746948
 20
70.000029999999924
 30
0.0
 40
3.0
 50
14.999999999994451
 51
90.00000299999769
  0
ARC
  5
2AA7
  8
0
 10
160.7803346746949
 20
-69.999997000000121
 30
0.0
 40
3.0
 50
195.00001000000211
 51
270.0
  0
ARC
  5
2AA8
  8
0
 10
171.3891646746948
 20
-69.999997000000121
 30
0.0
 40
3.0
 50
270.0
 51
345.00000000000551
  0
ARC
  5
2AA9
  8
0
 10
73.837629999999933
 20
-18.0
 30
0.0
 40
3.0
 50
90.00000299999769
 51
166.2997699999986
  0
ARC
  5
2AAA
  8
0
 10
73.837629999999933
 20
18.0
 30
0.0
 40
3.0
 50
193.70023000000131
 51
270.0
  0
ARC
  5
2AAB
  8
0
 10
160.83474467469489
 20
10.62368999999989
 30
0.0
 40
1.0
 50
0.0
 51
41.399999999995202
  0
ARC
  5
2AAC
  8
0
 10
171.33474467469489
 20
10.62368999999989
 30
0.0
 40
1.0
 50
138.6000000000048
 51
180.000010000001
  0
ARC
  5
2AAD
  8
0
 10
157.85812467469489
 20
14.0
 30
0.0
 40
1.0
 50
41.399999999995202
 51
90.00000299999769
  0
ARC
  5
2AAE
  8
0
 10
160.33474467469489
 20
27.20001000000002
 30
0.0
 40
2.0
 50
89.999996000000905
 51
180.000010000001
  0
ARC
  5
2AAF
  8
0
 10
166.08474467469489
 20
32.5
 30
0.0
 40
8.0
 50
110.8700699999996
 51
119.9999999999972
  0
ARC
  5
2AB0
  8
0
 10
166.08474467469489
 20
17.900000000000091
 30
0.0
 40
7.75
 50
180.000010000001
 51
229.57810000000421
  0
ARC
  5
2AB1
  8
0
 10
166.08474467469489
 20
-7.5
 30
0.0
 40
8.0
 50
240.0000000000027
 51
299.99999999999591
  0
ARC
  5
2AB2
  8
0
 10
161.2347746746949
 20
31.20001000000002
 30
0.0
 40
2.0
 50
270.0
 51
0.0000050089504314
  0
ARC
  5
2AB3
  8
0
 10
164.2347746746949
 20
51.0
 30
0.0
 40
1.0
 50
89.999996000000905
 51
180.000010000001
  0
ARC
  5
2AB5
  8
0
 10
167.93475467469489
 20
51.0
 30
0.0
 40
1.0
 50
0.0
 51
90.00000299999769
  0
ARC
  5
2AB6
  8
0
 10
170.93475467469489
 20
31.20001000000002
 30
0.0
 40
2.0
 50
179.99998999999889
 51
270.0
  0
ARC
  5
2AB7
  8
0
 10
171.83474467469489
 20
27.20001000000002
 30
0.0
 40
2.0
 50
0.0
 51
90.00000299999769
  0
ARC
  5
2AB8
  8
0
 10
166.08474467469489
 20
32.5
 30
0.0
 40
8.0
 50
60.000002000001302
 51
69.129929000002221
  0
ARC
  5
2AB9
  8
0
 10
166.08474467469489
 20
17.900000000000091
 30
0.0
 40
7.75
 50
310.42191999999761
 51
0.0
  0
ARC
  5
2ABA
  8
0
 10
176.08474467469489
 20
-12.099999999999911
 30
0.0
 40
0.5
 50
270.0
 51
0.0
  0
ARC
  5
2ABB
  8
0
 10
176.08474467469489
 20
-6.8999900000001162
 30
0.0
 40
0.5
 50
0.0
 51
90.00000299999769
  0
ARC
  5
2ABC
  8
0
 10
174.31137467469489
 20
14.0
 30
0.0
 40
1.0
 50
90.00000299999769
 51
138.6000000000048
  0
ARC
  5
2AC0
  8
0
 10
-0.0000000000000568
 20
0.0
 30
0.0
 40
62.0
 50
243.14186000000271
 51
352.93029000000212
  0
ARC
  5
2AC1
  8
0
 10
65.513359999999864
 20
-8.0
 30
0.0
 40
4.0
 50
90.00000299999769
 51
173.0379399999986
  0
ARC
  5
2AC4
  8
0
 10
64.621979999999823
 20
7.0
 30
0.0
 40
3.0
 50
186.18230000000159
 51
270.0
  0
ARC
  5
2AC8
  8
0
 10
-0.0000000000000568
 20
0.0
 30
0.0
 40
65.0
 50
253.26618000000079
 51
348.02395000000371
  0
ARC
  5
2AC9
  8
0
 10
65.54170999999991
 20
-13.902690000000121
 30
0.0
 40
2.0
 50
60.000002000001302
 51
168.02395000000371
  0
ARC
  5
2ACA
  8
0
 10
176.33474467469489
 20
-61.226055999999971
 30
0.0
 40
0.5
 50
0.0
 51
90.00000299999769
  0
ARC
  5
2ACB
  8
0
 10
176.33474467469489
 20
-66.426069000000098
 30
0.0
 40
0.5
 50
270.0
 51
0.0
  0
ARC
  5
2ACC
  8
0
 10
176.33474467469489
 20
61.226059999999961
 30
0.0
 40
0.5
 50
270.0
 51
0.0
  0
ARC
  5
2ACD
  8
0
 10
176.33474467469489
 20
66.426069999999982
 30
0.0
 40
0.5
 50
0.0
 51
90.00000299999769
  0
ARC
  5
2ACE
  8
0
 10
157.33474467469489
 20
-67.826062999999976
 30
0.0
 40
1.0
 50
179.99998999999889
 51
270.0
  0
ARC
  5
2ACF
  8
0
 10
174.83474467469489
 20
-67.826062999999976
 30
0.0
 40
1.0
 50
270.0
 51
0.0
  0
ARC
  5
2AD0
  8
0
 10
157.33474467469489
 20
67.826070000000072
 30
0.0
 40
1.0
 50
90.00000299999769
 51
180.000010000001
  0
ARC
  5
2AD1
  8
0
 10
174.83474467469489
 20
67.826070000000072
 30
0.0
 40
1.0
 50
0.0
 51
90.00000299999769
  0
ARC
  5
2AD8
  8
0
 10
-36.49045000000006
 20
-54.994979999999941
 30
0.0
 40
4.0
 50
4.999999899997543
 51
56.434809999997938
  0
ARC
  5
2ADA
  8
0
 10
-37.000030000000088
 20
-64.085935000000063
 30
0.0
 40
5.3000002000000004
 50
204.9999524080439
 51
5.0000087999997493
  0
ARC
  5
2ADC
  8
0
 10
-19.57895000000013
 20
-65.120382000000063
 30
0.0
 40
3.0
 50
73.266182000001137
 51
114.9999999999993
  0
ARC
  5
2ADE
  8
0
  6
CENTER
 10
-0.0000000000000568
 20
0.0
 30
0.0
 40
74.0
 50
232.44066999999839
 51
248.0591600000017
  0
ARC
  5
2ADF
  8
0
 10
-29.365910000000039
 20
-57.988299999999981
 30
0.0
 40
3.0
 50
63.14184799999984
 51
114.9999999999993
  0
ARC
  5
2AE0
  8
0
 10
-30.840460000000181
 20
-56.469139999999918
 30
0.0
 40
1.0
 50
114.9999999999993
 51
184.99999999999969
  0
ARC
  5
2AE1
  8
0
 10
-50.547670000000089
 20
-59.404813000000097
 30
0.0
 40
5.0
 50
24.999997999994068
 51
49.60546799999436
  0
ARC
  5
2AE2
  8
0
 10
-26.172280000000061
 20
-73.477971000000025
 30
0.0
 40
5.0
 50
70.394510999999198
 51
95.000001999999157
  0
ARC
  5
2AE3
  8
0
 10
-30.05680000000012
 20
-65.426206000000093
 30
0.0
 40
1.0
 50
184.9999899999992
 51
245.3259499999964
  0
ARC
  5
2AEA
  8
0
 10
-40.274840000000097
 20
-52.287070000000078
 30
0.0
 40
1.0
 50
294.99999999999932
 51
52.394240999993293
  0
POLYLINE
  5
2AEB
  8
0
 10
156.58474467469489
 20
-6.2499999000000006
 30
0.0
 66
     1
 70
     8
  0
VERTEX
  8
0
  5
2E57
 10
156.585
 20
-6.25000
 30
0.000000
  70
    32
  0
VERTEX
  8
0
  5
2E58
 10
156.523
 20
-6.25098
 30
0.000000
  70
    32
  0
VERTEX
  8
0
  5
2E59
 10
156.462
 20
-6.25391
 30
0.000000
  70
    32
  0
VERTEX
  8
0
  5
2E5A
 10
156.401
 20
-6.25881
 30
0.000000
  70
    32
  0
VERTEX
  8
0
  5
2E5B
 10
156.340
 20
-6.26565
 30
0.000000
  70
    32
  0
VERTEX
  8
0
  5
2E5C
 10
156.279
 20
-6.27444
 30
0.000000
  70
    32
  0
VERTEX
  8
0
  5
2E5D
 10
156.218
 20
-6.28518
 30
0.000000
  70
    32
  0
VERTEX
  8
0
  5
2E5E
 10
156.157
 20
-6.29785
 30
0.000000
  70
    32
  0
VERTEX
  8
0
  5
2E5F
 10
156.097
 20
-6.31245
 30
0.000000
  70
    32
  0
VERTEX
  8
0
  5
2E60
 10
156.037
 20
-6.32897
 30
0.000000
  70
    32
  0
VERTEX
  8
0
  5
2E61
 10
155.977
 20
-6.34740
 30
0.000000
  70
    32
  0
VERTEX
  8
0
  5
2E62
 10
155.918
 20
-6.36773
 30
0.000000
  70
    32
  0
VERTEX
  8
0
  5
2E63
 10
155.859
 20
-6.38994
 30
0.000000
  70
    32
  0
VERTEX
  8
0
  5
2E64
 10
155.801
 20
-6.41403
 30
0.000000
  70
    32
  0
VERTEX
  8
0
  5
2E65
 10
155.743
 20
-6.43998
 30
0.000000
  70
    32
  0
VERTEX
  8
0
  5
2E66
 10
155.685
 20
-6.46777
 30
0.000000
  70
    32
  0
VERTEX
  8
0
  5
2E67
 10
155.628
 20
-6.49739
 30
0.000000
  70
    32
  0
VERTEX
  8
0
  5
2E68
 10
155.572
 20
-6.52882
 30
0.000000
  70
    32
  0
VERTEX
  8
0
  5
2E69
 10
155.516
 20
-6.56203
 30
0.000000
  70
    32
  0
VERTEX
  8
0
  5
2E6A
 10
155.461
 20
-6.59702
 30
0.000000
  70
    32
  0
VERTEX
  8
0
  5
2E6B
 10
155.406
 20
-6.63376
 30
0.000000
  70
    32
  0
VERTEX
  8
0
  5
2E6C
 10
155.352
 20
-6.67222
 30
0.000000
  70
    32
  0
VERTEX
  8
0
  5
2E6D
 10
155.299
 20
-6.71238
 30
0.000000
  70
    32
  0
VERTEX
  8
0
  5
2E6E
 10
155.247
 20
-6.75423
 30
0.000000
  70
    32
  0
VERTEX
  8
0
  5
2E6F
 10
155.196
 20
-6.79772
 30
0.000000
  70
    32
  0
VERTEX
  8
0
  5
2E70
 10
155.145
 20
-6.84285
 30
0.000000
  70
    32
  0
VERTEX
  8
0
  5
2E71
 10
155.095
 20
-6.88958
 30
0.000000
  70
    32
  0
VERTEX
  8
0
  5
2E72
 10
155.047
 20
-6.93787
 30
0.000000
  70
    32
  0
VERTEX
  8
0
  5
2E73
 10
154.999
 20
-6.98772
 30
0.000000
  70
    32
  0
VERTEX
  8
0
  5
2E74
 10
154.952
 20
-7.03907
 30
0.000000
  70
    32
  0
VERTEX
  8
0
  5
2E75
 10
154.906
 20
-7.09191
 30
0.000000
  70
    32
  0
VERTEX
  8
0
  5
2E76
 10
154.861
 20
-7.14620
 30
0.000000
  70
    32
  0
VERTEX
  8
0
  5
2E77
 10
154.817
 20
-7.20190
 30
0.000000
  70
    32
  0
VERTEX
  8
0
  5
2E78
 10
154.774
 20
-7.25899
 30
0.000000
  70
    32
  0
VERTEX
  8
0
  5
2E79
 10
154.732
 20
-7.31743
 30
0.000000
  70
    32
  0
VERTEX
  8
0
  5
2E7A
 10
154.692
 20
-7.37719
 30
0.000000
  70
    32
  0
VERTEX
  8
0
  5
2E7B
 10
154.652
 20
-7.43822
 30
0.000000
  70
    32
  0
VERTEX
  8
0
  5
2E7C
 10
154.614
 20
-7.50050
 30
0.000000
  70
    32
  0
VERTEX
  8
0
  5
2E7D
 10
154.577
 20
-7.56398
 30
0.000000
  70
    32
  0
VERTEX
  8
0
  5
2E7E
 10
154.541
 20
-7.62862
 30
0.000000
  70
    32
  0
VERTEX
  8
0
  5
2E7F
 10
154.506
 20
-7.69440
 30
0.000000
  70
    32
  0
VERTEX
  8
0
  5
2E80
 10
154.473
 20
-7.76126
 30
0.000000
  70
    32
  0
VERTEX
  8
0
  5
2E81
 10
154.440
 20
-7.82917
 30
0.000000
  70
    32
  0
VERTEX
  8
0
  5
2E82
 10
154.410
 20
-7.89808
 30
0.000000
  70
    32
  0
VERTEX
  8
0
  5
2E83
 10
154.380
 20
-7.96796
 30
0.000000
  70
    32
  0
VERTEX
  8
0
  5
2E84
 10
154.352
 20
-8.03876
 30
0.000000
  70
    32
  0
VERTEX
  8
0
  5
2E85
 10
154.325
 20
-8.11045
 30
0.000000
  70
    32
  0
VERTEX
  8
0
  5
2E86
 10
154.299
 20
-8.18297
 30
0.000000
  70
    32
  0
VERTEX
  8
0
  5
2E87
 10
154.275
 20
-8.25628
 30
0.000000
  70
    32
  0
VERTEX
  8
0
  5
2E88
 10
154.252
 20
-8.33034
 30
0.000000
  70
    32
  0
VERTEX
  8
0
  5
2E89
 10
154.231
 20
-8.40511
 30
0.000000
  70
    32
  0
VERTEX
  8
0
  5
2E8A
 10
154.211
 20
-8.48053
 30
0.000000
  70
    32
  0
VERTEX
  8
0
  5
2E8B
 10
154.192
 20
-8.55657
 30
0.000000
  70
    32
  0
VERTEX
  8
0
  5
2E8C
 10
154.175
 20
-8.63318
 30
0.000000
  70
    32
  0
VERTEX
  8
0
  5
2E8D
 10
154.160
 20
-8.71031
 30
0.000000
  70
    32
  0
VERTEX
  8
0
  5
2E8E
 10
154.145
 20
-8.78792
 30
0.000000
  70
    32
  0
VERTEX
  8
0
  5
2E8F
 10
154.133
 20
-8.86596
 30
0.000000
  70
    32
  0
VERTEX
  8
0
  5
2E90
 10
154.122
 20
-8.94437
 30
0.000000
  70
    32
  0
VERTEX
  8
0
  5
2E91
 10
154.112
 20
-9.02313
 30
0.000000
  70
    32
  0
VERTEX
  8
0
  5
2E92
 10
154.104
 20
-9.10217
 30
0.000000
  70
    32
  0
VERTEX
  8
0
  5
2E93
 10
154.097
 20
-9.18144
 30
0.000000
  70
    32
  0
VERTEX
  8
0
  5
2E94
 10
154.092
 20
-9.26092
 30
0.000000
  70
    32
  0
VERTEX
  8
0
  5
2E95
 10
154.088
 20
-9.34053
 30
0.000000
  70
    32
  0
VERTEX
  8
0
  5
2E96
 10
154.085
 20
-9.42024
 30
0.000000
  70
    32
  0
VERTEX
  8
0
  5
2E97
 10
154.085
 20
-9.50000
 30
0.000000
  70
    32
  0
VERTEX
  8
0
  5
2E98
 10
154.085
 20
-9.57976
 30
0.000000
  70
    32
  0
VERTEX
  8
0
  5
2E99
 10
154.088
 20
-9.65947
 30
0.000000
  70
    32
  0
VERTEX
  8
0
  5
2E9A
 10
154.092
 20
-9.73908
 30
0.000000
  70
    32
  0
VERTEX
  8
0
  5
2E9B
 10
154.097
 20
-9.81856
 30
0.000000
  70
    32
  0
VERTEX
  8
0
  5
2E9C
 10
154.104
 20
-9.89783
 30
0.000000
  70
    32
  0
VERTEX
  8
0
  5
2E9D
 10
154.112
 20
-9.97687
 30
0.000000
  70
    32
  0
VERTEX
  8
0
  5
2E9E
 10
154.122
 20
-10.0556
 30
0.000000
  70
    32
  0
VERTEX
  8
0
  5
2E9F
 10
154.133
 20
-10.1340
 30
0.000000
  70
    32
  0
VERTEX
  8
0
  5
2EA0
 10
154.145
 20
-10.2121
 30
0.000000
  70
    32
  0
VERTEX
  8
0
  5
2EA1
 10
154.160
 20
-10.2897
 30
0.000000
  70
    32
  0
VERTEX
  8
0
  5
2EA2
 10
154.175
 20
-10.3668
 30
0.000000
  70
    32
  0
VERTEX
  8
0
  5
2EA3
 10
154.192
 20
-10.4434
 30
0.000000
  70
    32
  0
VERTEX
  8
0
  5
2EA4
 10
154.211
 20
-10.5195
 30
0.000000
  70
    32
  0
VERTEX
  8
0
  5
2EA5
 10
154.231
 20
-10.5949
 30
0.000000
  70
    32
  0
VERTEX
  8
0
  5
2EA6
 10
154.252
 20
-10.6697
 30
0.000000
  70
    32
  0
VERTEX
  8
0
  5
2EA7
 10
154.275
 20
-10.7437
 30
0.000000
  70
    32
  0
VERTEX
  8
0
  5
2EA8
 10
154.299
 20
-10.8170
 30
0.000000
  70
    32
  0
VERTEX
  8
0
  5
2EA9
 10
154.325
 20
-10.8896
 30
0.000000
  70
    32
  0
VERTEX
  8
0
  5
2EAA
 10
154.352
 20
-10.9612
 30
0.000000
  70
    32
  0
VERTEX
  8
0
  5
2EAB
 10
154.380
 20
-11.0320
 30
0.000000
  70
    32
  0
VERTEX
  8
0
  5
2EAC
 10
154.410
 20
-11.1019
 30
0.000000
  70
    32
  0
VERTEX
  8
0
  5
2EAD
 10
154.440
 20
-11.1708
 30
0.000000
  70
    32
  0
VERTEX
  8
0
  5
2EAE
 10
154.473
 20
-11.2387
 30
0.000000
  70
    32
  0
VERTEX
  8
0
  5
2EAF
 10
154.506
 20
-11.3056
 30
0.000000
  70
    32
  0
VERTEX
  8
0
  5
2EB0
 10
154.541
 20
-11.3714
 30
0.000000
  70
    32
  0
VERTEX
  8
0
  5
2EB1
 10
154.577
 20
-11.4360
 30
0.000000
  70
    32
  0
VERTEX
  8
0
  5
2EB2
 10
154.614
 20
-11.4995
 30
0.000000
  70
    32
  0
VERTEX
  8
0
  5
2EB3
 10
154.652
 20
-11.5618
 30
0.000000
  70
    32
  0
VERTEX
  8
0
  5
2EB4
 10
154.692
 20
-11.6228
 30
0.000000
  70
    32
  0
VERTEX
  8
0
  5
2EB5
 10
154.732
 20
-11.6826
 30
0.000000
  70
    32
  0
VERTEX
  8
0
  5
2EB6
 10
154.774
 20
-11.7410
 30
0.000000
  70
    32
  0
VERTEX
  8
0
  5
2EB7
 10
154.817
 20
-11.7981
 30
0.000000
  70
    32
  0
VERTEX
  8
0
  5
2EB8
 10
154.861
 20
-11.8538
 30
0.000000
  70
    32
  0
VERTEX
  8
0
  5
2EB9
 10
154.906
 20
-11.9081
 30
0.000000
  70
    32
  0
VERTEX
  8
0
  5
2EBA
 10
154.952
 20
-11.9609
 30
0.000000
  70
    32
  0
VERTEX
  8
0
  5
2EBB
 10
154.999
 20
-12.0123
 30
0.000000
  70
    32
  0
VERTEX
  8
0
  5
2EBC
 10
155.047
 20
-12.0621
 30
0.000000
  70
    32
  0
VERTEX
  8
0
  5
2EBD
 10
155.095
 20
-12.1104
 30
0.000000
  70
    32
  0
VERTEX
  8
0
  5
2EBE
 10
155.145
 20
-12.1572
 30
0.000000
  70
    32
  0
VERTEX
  8
0
  5
2EBF
 10
155.196
 20
-12.2023
 30
0.000000
  70
    32
  0
VERTEX
  8
0
  5
2EC0
 10
155.247
 20
-12.2458
 30
0.000000
  70
    32
  0
VERTEX
  8
0
  5
2EC1
 10
155.299
 20
-12.2876
 30
0.000000
  70
    32
  0
VERTEX
  8
0
  5
2EC2
 10
155.352
 20
-12.3278
 30
0.000000
  70
    32
  0
VERTEX
  8
0
  5
2EC3
 10
155.406
 20
-12.3662
 30
0.000000
  70
    32
  0
VERTEX
  8
0
  5
2EC4
 10
155.461
 20
-12.4030
 30
0.000000
  70
    32
  0
VERTEX
  8
0
  5
2EC5
 10
155.516
 20
-12.4380
 30
0.000000
  70
    32
  0
VERTEX
  8
0
  5
2EC6
 10
155.572
 20
-12.4712
 30
0.000000
  70
    32
  0
VERTEX
  8
0
  5
2EC7
 10
155.628
 20
-12.5026
 30
0.000000
  70
    32
  0
VERTEX
  8
0
  5
2EC8
 10
155.685
 20
-12.5322
 30
0.000000
  70
    32
  0
VERTEX
  8
0
  5
2EC9
 10
155.743
 20
-12.5600
 30
0.000000
  70
    32
  0
VERTEX
  8
0
  5
2ECA
 10
155.801
 20
-12.5860
 30
0.000000
  70
    32
  0
VERTEX
  8
0
  5
2ECB
 10
155.859
 20
-12.6101
 30
0.000000
  70
    32
  0
VERTEX
  8
0
  5
2ECC
 10
155.918
 20
-12.6323
 30
0.000000
  70
    32
  0
VERTEX
  8
0
  5
2ECD
 10
155.977
 20
-12.6526
 30
0.000000
  70
    32
  0
VERTEX
  8
0
  5
2ECE
 10
156.037
 20
-12.6710
 30
0.000000
  70
    32
  0
VERTEX
  8
0
  5
2ECF
 10
156.097
 20
-12.6876
 30
0.000000
  70
    32
  0
VERTEX
  8
0
  5
2ED0
 10
156.157
 20
-12.7022
 30
0.000000
  70
    32
  0
VERTEX
  8
0
  5
2ED1
 10
156.218
 20
-12.7148
 30
0.000000
  70
    32
  0
VERTEX
  8
0
  5
2ED2
 10
156.279
 20
-12.7256
 30
0.000000
  70
    32
  0
VERTEX
  8
0
  5
2ED3
 10
156.340
 20
-12.7344
 30
0.000000
  70
    32
  0
VERTEX
  8
0
  5
2ED4
 10
156.401
 20
-12.7412
 30
0.000000
  70
    32
  0
VERTEX
  8
0
  5
2ED5
 10
156.462
 20
-12.7461
 30
0.000000
  70
    32
  0
VERTEX
  8
0
  5
2ED6
 10
156.523
 20
-12.7490
 30
0.000000
  70
    32
  0
VERTEX
  8
0
  5
2ED7
 10
156.585
 20
-12.7500
 30
0.000000
  70
    32
  0
SEQEND
  8
0
  5
2ED8
  0
POLYLINE
  5
2AEC
  8
0
 10
156.33474467469489
 20
-60.576062899999975
 30
0.0
 66
     1
 70
     8
  0
VERTEX
  8
0
  5
2ED9
 10
156.335
 20
-60.5761
 30
0.000000
  70
    32
  0
VERTEX
  8
0
  5
2EDA
 10
156.273
 20
-60.5770
 30
0.000000
  70
    32
  0
VERTEX
  8
0
  5
2EDB
 10
156.212
 20
-60.5800
 30
0.000000
  70
    32
  0
VERTEX
  8
0
  5
2EDC
 10
156.151
 20
-60.5849
 30
0.000000
  70
    32
  0
VERTEX
  8
0
  5
2EDD
 10
156.090
 20
-60.5917
 30
0.000000
  70
    32
  0
VERTEX
  8
0
  5
2EDE
 10
156.029
 20
-60.6005
 30
0.000000
  70
    32
  0
VERTEX
  8
0
  5
2EDF
 10
155.968
 20
-60.6112
 30
0.000000
  70
    32
  0
VERTEX
  8
0
  5
2EE0
 10
155.907
 20
-60.6239
 30
0.000000
  70
    32
  0
VERTEX
  8
0
  5
2EE1
 10
155.847
 20
-60.6385
 30
0.000000
  70
    32
  0
VERTEX
  8
0
  5
2EE2
 10
155.787
 20
-60.6550
 30
0.000000
  70
    32
  0
VERTEX
  8
0
  5
2EE3
 10
155.727
 20
-60.6735
 30
0.000000
  70
    32
  0
VERTEX
  8
0
  5
2EE4
 10
155.668
 20
-60.6938
 30
0.000000
  70
    32
  0
VERTEX
  8
0
  5
2EE5
 10
155.609
 20
-60.7160
 30
0.000000
  70
    32
  0
VERTEX
  8
0
  5
2EE6
 10
155.551
 20
-60.7401
 30
0.000000
  70
    32
  0
VERTEX
  8
0
  5
2EE7
 10
155.493
 20
-60.7660
 30
0.000000
  70
    32
  0
VERTEX
  8
0
  5
2EE8
 10
155.435
 20
-60.7938
 30
0.000000
  70
    32
  0
VERTEX
  8
0
  5
2EE9
 10
155.378
 20
-60.8235
 30
0.000000
  70
    32
  0
VERTEX
  8
0
  5
2EEA
 10
155.322
 20
-60.8549
 30
0.000000
  70
    32
  0
VERTEX
  8
0
  5
2EEB
 10
155.266
 20
-60.8881
 30
0.000000
  70
    32
  0
VERTEX
  8
0
  5
2EEC
 10
155.211
 20
-60.9231
 30
0.000000
  70
    32
  0
VERTEX
  8
0
  5
2EED
 10
155.156
 20
-60.9598
 30
0.000000
  70
    32
  0
VERTEX
  8
0
  5
2EEE
 10
155.102
 20
-60.9983
 30
0.000000
  70
    32
  0
VERTEX
  8
0
  5
2EEF
 10
155.049
 20
-61.0384
 30
0.000000
  70
    32
  0
VERTEX
  8
0
  5
2EF0
 10
154.997
 20
-61.0803
 30
0.000000
  70
    32
  0
VERTEX
  8
0
  5
2EF1
 10
154.946
 20
-61.1238
 30
0.000000
  70
    32
  0
VERTEX
  8
0
  5
2EF2
 10
154.895
 20
-61.1689
 30
0.000000
  70
    32
  0
VERTEX
  8
0
  5
2EF3
 10
154.845
 20
-61.2156
 30
0.000000
  70
    32
  0
VERTEX
  8
0
  5
2EF4
 10
154.797
 20
-61.2639
 30
0.000000
  70
    32
  0
VERTEX
  8
0
  5
2EF5
 10
154.749
 20
-61.3138
 30
0.000000
  70
    32
  0
VERTEX
  8
0
  5
2EF6
 10
154.702
 20
-61.3651
 30
0.000000
  70
    32
  0
VERTEX
  8
0
  5
2EF7
 10
154.656
 20
-61.4180
 30
0.000000
  70
    32
  0
VERTEX
  8
0
  5
2EF8
 10
154.611
 20
-61.4723
 30
0.000000
  70
    32
  0
VERTEX
  8
0
  5
2EF9
 10
154.567
 20
-61.5280
 30
0.000000
  70
    32
  0
VERTEX
  8
0
  5
2EFA
 10
154.524
 20
-61.5851
 30
0.000000
  70
    32
  0
VERTEX
  8
0
  5
2EFB
 10
154.482
 20
-61.6435
 30
0.000000
  70
    32
  0
VERTEX
  8
0
  5
2EFC
 10
154.442
 20
-61.7033
 30
0.000000
  70
    32
  0
VERTEX
  8
0
  5
2EFD
 10
154.402
 20
-61.7643
 30
0.000000
  70
    32
  0
VERTEX
  8
0
  5
2EFE
 10
154.364
 20
-61.8266
 30
0.000000
  70
    32
  0
VERTEX
  8
0
  5
2EFF
 10
154.327
 20
-61.8900
 30
0.000000
  70
    32
  0
VERTEX
  8
0
  5
2F00
 10
154.291
 20
-61.9547
 30
0.000000
  70
    32
  0
VERTEX
  8
0
  5
2F01
 10
154.256
 20
-62.0205
 30
0.000000
  70
    32
  0
VERTEX
  8
0
  5
2F02
 10
154.223
 20
-62.0873
 30
0.000000
  70
    32
  0
VERTEX
  8
0
  5
2F03
 10
154.190
 20
-62.1552
 30
0.000000
  70
    32
  0
VERTEX
  8
0
  5
2F04
 10
154.160
 20
-62.2241
 30
0.000000
  70
    32
  0
VERTEX
  8
0
  5
2F05
 10
154.130
 20
-62.2940
 30
0.000000
  70
    32
  0
VERTEX
  8
0
  5
2F06
 10
154.102
 20
-62.3648
 30
0.000000
  70
    32
  0
VERTEX
  8
0
  5
2F07
 10
154.075
 20
-62.4365
 30
0.000000
  70
    32
  0
VERTEX
  8
0
  5
2F08
 10
154.049
 20
-62.5090
 30
0.000000
  70
    32
  0
VERTEX
  8
0
  5
2F09
 10
154.025
 20
-62.5823
 30
0.000000
  70
    32
  0
VERTEX
  8
0
  5
2F0A
 10
154.002
 20
-62.6564
 30
0.000000
  70
    32
  0
VERTEX
  8
0
  5
2F0B
 10
153.981
 20
-62.7312
 30
0.000000
  70
    32
  0
VERTEX
  8
0
  5
2F0C
 10
153.961
 20
-62.8066
 30
0.000000
  70
    32
  0
VERTEX
  8
0
  5
2F0D
 10
153.942
 20
-62.8826
 30
0.000000
  70
    32
  0
VERTEX
  8
0
  5
2F0E
 10
153.925
 20
-62.9592
 30
0.000000
  70
    32
  0
VERTEX
  8
0
  5
2F0F
 10
153.910
 20
-63.0364
 30
0.000000
  70
    32
  0
VERTEX
  8
0
  5
2F10
 10
153.895
 20
-63.1140
 30
0.000000
  70
    32
  0
VERTEX
  8
0
  5
2F11
 10
153.883
 20
-63.1920
 30
0.000000
  70
    32
  0
VERTEX
  8
0
  5
2F12
 10
153.872
 20
-63.2704
 30
0.000000
  70
    32
  0
VERTEX
  8
0
  5
2F13
 10
153.862
 20
-63.3492
 30
0.000000
  70
    32
  0
VERTEX
  8
0
  5
2F14
 10
153.854
 20
-63.4282
 30
0.000000
  70
    32
  0
VERTEX
  8
0
  5
2F15
 10
153.847
 20
-63.5075
 30
0.000000
  70
    32
  0
VERTEX
  8
0
  5
2F16
 10
153.842
 20
-63.5870
 30
0.000000
  70
    32
  0
VERTEX
  8
0
  5
2F17
 10
153.838
 20
-63.6666
 30
0.000000
  70
    32
  0
VERTEX
  8
0
  5
2F18
 10
153.835
 20
-63.7463
 30
0.000000
  70
    32
  0
VERTEX
  8
0
  5
2F19
 10
153.835
 20
-63.8261
 30
0.000000
  70
    32
  0
VERTEX
  8
0
  5
2F1A
 10
153.835
 20
-63.9058
 30
0.000000
  70
    32
  0
VERTEX
  8
0
  5
2F1B
 10
153.838
 20
-63.9855
 30
0.000000
  70
    32
  0
VERTEX
  8
0
  5
2F1C
 10
153.842
 20
-64.0651
 30
0.000000
  70
    32
  0
VERTEX
  8
0
  5
2F1D
 10
153.847
 20
-64.1446
 30
0.000000
  70
    32
  0
VERTEX
  8
0
  5
2F1E
 10
153.854
 20
-64.2239
 30
0.000000
  70
    32
  0
VERTEX
  8
0
  5
2F1F
 10
153.862
 20
-64.3029
 30
0.000000
  70
    32
  0
VERTEX
  8
0
  5
2F20
 10
153.872
 20
-64.3817
 30
0.000000
  70
    32
  0
VERTEX
  8
0
  5
2F21
 10
153.883
 20
-64.4601
 30
0.000000
  70
    32
  0
VERTEX
  8
0
  5
2F22
 10
153.895
 20
-64.5381
 30
0.000000
  70
    32
  0
VERTEX
  8
0
  5
2F23
 10
153.910
 20
-64.6157
 30
0.000000
  70
    32
  0
VERTEX
  8
0
  5
2F24
 10
153.925
 20
-64.6929
 30
0.000000
  70
    32
  0
VERTEX
  8
0
  5
2F25
 10
153.942
 20
-64.7695
 30
0.000000
  70
    32
  0
VERTEX
  8
0
  5
2F26
 10
153.961
 20
-64.8455
 30
0.000000
  70
    32
  0
VERTEX
  8
0
  5
2F27
 10
153.981
 20
-64.9210
 30
0.000000
  70
    32
  0
VERTEX
  8
0
  5
2F28
 10
154.002
 20
-64.9957
 30
0.000000
  70
    32
  0
VERTEX
  8
0
  5
2F29
 10
154.025
 20
-65.0698
 30
0.000000
  70
    32
  0
VERTEX
  8
0
  5
2F2A
 10
154.049
 20
-65.1431
 30
0.000000
  70
    32
  0
VERTEX
  8
0
  5
2F2B
 10
154.075
 20
-65.2156
 30
0.000000
  70
    32
  0
VERTEX
  8
0
  5
2F2C
 10
154.102
 20
-65.2873
 30
0.000000
  70
    32
  0
VERTEX
  8
0
  5
2F2D
 10
154.130
 20
-65.3581
 30
0.000000
  70
    32
  0
VERTEX
  8
0
  5
2F2E
 10
154.160
 20
-65.4280
 30
0.000000
  70
    32
  0
VERTEX
  8
0
  5
2F2F
 10
154.190
 20
-65.4969
 30
0.000000
  70
    32
  0
VERTEX
  8
0
  5
2F30
 10
154.223
 20
-65.5648
 30
0.000000
  70
    32
  0
VERTEX
  8
0
  5
2F31
 10
154.256
 20
-65.6317
 30
0.000000
  70
    32
  0
VERTEX
  8
0
  5
2F32
 10
154.291
 20
-65.6974
 30
0.000000
  70
    32
  0
VERTEX
  8
0
  5
2F33
 10
154.327
 20
-65.7621
 30
0.000000
  70
    32
  0
VERTEX
  8
0
  5
2F34
 10
154.364
 20
-65.8256
 30
0.000000
  70
    32
  0
VERTEX
  8
0
  5
2F35
 10
154.402
 20
-65.8878
 30
0.000000
  70
    32
  0
VERTEX
  8
0
  5
2F36
 10
154.442
 20
-65.9489
 30
0.000000
  70
    32
  0
VERTEX
  8
0
  5
2F37
 10
154.482
 20
-66.0086
 30
0.000000
  70
    32
  0
VERTEX
  8
0
  5
2F38
 10
154.524
 20
-66.0671
 30
0.000000
  70
    32
  0
VERTEX
  8
0
  5
2F39
 10
154.567
 20
-66.1242
 30
0.000000
  70
    32
  0
VERTEX
  8
0
  5
2F3A
 10
154.611
 20
-66.1799
 30
0.000000
  70
    32
  0
VERTEX
  8
0
  5
2F3B
 10
154.656
 20
-66.2342
 30
0.000000
  70
    32
  0
VERTEX
  8
0
  5
2F3C
 10
154.702
 20
-66.2870
 30
0.000000
  70
    32
  0
VERTEX
  8
0
  5
2F3D
 10
154.749
 20
-66.3383
 30
0.000000
  70
    32
  0
VERTEX
  8
0
  5
2F3E
 10
154.797
 20
-66.3882
 30
0.000000
  70
    32
  0
VERTEX
  8
0
  5
2F3F
 10
154.845
 20
-66.4365
 30
0.000000
  70
    32
  0
VERTEX
  8
0
  5
2F40
 10
154.895
 20
-66.4832
 30
0.000000
  70
    32
  0
VERTEX
  8
0
  5
2F41
 10
154.946
 20
-66.5283
 30
0.000000
  70
    32
  0
VERTEX
  8
0
  5
2F42
 10
154.997
 20
-66.5718
 30
0.000000
  70
    32
  0
VERTEX
  8
0
  5
2F43
 10
155.049
 20
-66.6137
 30
0.000000
  70
    32
  0
VERTEX
  8
0
  5
2F44
 10
155.102
 20
-66.6538
 30
0.000000
  70
    32
  0
VERTEX
  8
0
  5
2F45
 10
155.156
 20
-66.6923
 30
0.000000
  70
    32
  0
VERTEX
  8
0
  5
2F46
 10
155.211
 20
-66.7290
 30
0.000000
  70
    32
  0
VERTEX
  8
0
  5
2F47
 10
155.266
 20
-66.7640
 30
0.000000
  70
    32
  0
VERTEX
  8
0
  5
2F48
 10
155.322
 20
-66.7972
 30
0.000000
  70
    32
  0
VERTEX
  8
0
  5
2F49
 10
155.378
 20
-66.8287
 30
0.000000
  70
    32
  0
VERTEX
  8
0
  5
2F4A
 10
155.435
 20
-66.8583
 30
0.000000
  70
    32
  0
VERTEX
  8
0
  5
2F4B
 10
155.493
 20
-66.8861
 30
0.000000
  70
    32
  0
VERTEX
  8
0
  5
2F4C
 10
155.551
 20
-66.9120
 30
0.000000
  70
    32
  0
VERTEX
  8
0
  5
2F4D
 10
155.609
 20
-66.9361
 30
0.000000
  70
    32
  0
VERTEX
  8
0
  5
2F4E
 10
155.668
 20
-66.9583
 30
0.000000
  70
    32
  0
VERTEX
  8
0
  5
2F4F
 10
155.727
 20
-66.9787
 30
0.000000
  70
    32
  0
VERTEX
  8
0
  5
2F50
 10
155.787
 20
-66.9971
 30
0.000000
  70
    32
  0
VERTEX
  8
0
  5
2F51
 10
155.847
 20
-67.0136
 30
0.000000
  70
    32
  0
VERTEX
  8
0
  5
2F52
 10
155.907
 20
-67.0282
 30
0.000000
  70
    32
  0
VERTEX
  8
0
  5
2F53
 10
155.968
 20
-67.0409
 30
0.000000
  70
    32
  0
VERTEX
  8
0
  5
2F54
 10
156.029
 20
-67.0516
 30
0.000000
  70
    32
  0
VERTEX
  8
0
  5
2F55
 10
156.090
 20
-67.0604
 30
0.000000
  70
    32
  0
VERTEX
  8
0
  5
2F56
 10
156.151
 20
-67.0673
 30
0.000000
  70
    32
  0
VERTEX
  8
0
  5
2F57
 10
156.212
 20
-67.0721
 30
0.000000
  70
    32
  0
VERTEX
  8
0
  5
2F58
 10
156.273
 20
-67.0751
 30
0.000000
  70
    32
  0
VERTEX
  8
0
  5
2F59
 10
156.335
 20
-67.0761
 30
0.000000
  70
    32
  0
SEQEND
  8
0
  5
2F5A
  0
POLYLINE
  5
2AED
  8
0
 10
156.3347445854445
 20
67.076070100000067
 30
0.0
 66
     1
 70
     8
  0
VERTEX
  8
0
  5
2F5B
 10
156.335
 20
67.0761
 30
0.000000
  70
    32
  0
VERTEX
  8
0
  5
2F5C
 10
156.273
 20
67.0751
 30
0.000000
  70
    32
  0
VERTEX
  8
0
  5
2F5D
 10
156.212
 20
67.0722
 30
0.000000
  70
    32
  0
VERTEX
  8
0
  5
2F5E
 10
156.151
 20
67.0673
 30
0.000000
  70
    32
  0
VERTEX
  8
0
  5
2F5F
 10
156.090
 20
67.0604
 30
0.000000
  70
    32
  0
VERTEX
  8
0
  5
2F60
 10
156.029
 20
67.0516
 30
0.000000
  70
    32
  0
VERTEX
  8
0
  5
2F61
 10
155.968
 20
67.0409
 30
0.000000
  70
    32
  0
VERTEX
  8
0
  5
2F62
 10
155.907
 20
67.0282
 30
0.000000
  70
    32
  0
VERTEX
  8
0
  5
2F63
 10
155.847
 20
67.0136
 30
0.000000
  70
    32
  0
VERTEX
  8
0
  5
2F64
 10
155.787
 20
66.9971
 30
0.000000
  70
    32
  0
VERTEX
  8
0
  5
2F65
 10
155.727
 20
66.9787
 30
0.000000
  70
    32
  0
VERTEX
  8
0
  5
2F66
 10
155.668
 20
66.9583
 30
0.000000
  70
    32
  0
VERTEX
  8
0
  5
2F67
 10
155.609
 20
66.9361
 30
0.000000
  70
    32
  0
VERTEX
  8
0
  5
2F68
 10
155.551
 20
66.9120
 30
0.000000
  70
    32
  0
VERTEX
  8
0
  5
2F69
 10
155.493
 20
66.8861
 30
0.000000
  70
    32
  0
VERTEX
  8
0
  5
2F6A
 10
155.435
 20
66.8583
 30
0.000000
  70
    32
  0
VERTEX
  8
0
  5
2F6B
 10
155.378
 20
66.8287
 30
0.000000
  70
    32
  0
VERTEX
  8
0
  5
2F6C
 10
155.322
 20
66.7973
 30
0.000000
  70
    32
  0
VERTEX
  8
0
  5
2F6D
 10
155.266
 20
66.7640
 30
0.000000
  70
    32
  0
VERTEX
  8
0
  5
2F6E
 10
155.211
 20
66.7290
 30
0.000000
  70
    32
  0
VERTEX
  8
0
  5
2F6F
 10
155.156
 20
66.6923
 30
0.000000
  70
    32
  0
VERTEX
  8
0
  5
2F70
 10
155.102
 20
66.6539
 30
0.000000
  70
    32
  0
VERTEX
  8
0
  5
2F71
 10
155.049
 20
66.6137
 30
0.000000
  70
    32
  0
VERTEX
  8
0
  5
2F72
 10
154.997
 20
66.5718
 30
0.000000
  70
    32
  0
VERTEX
  8
0
  5
2F73
 10
154.946
 20
66.5283
 30
0.000000
  70
    32
  0
VERTEX
  8
0
  5
2F74
 10
154.895
 20
66.4832
 30
0.000000
  70
    32
  0
VERTEX
  8
0
  5
2F75
 10
154.845
 20
66.4365
 30
0.000000
  70
    32
  0
VERTEX
  8
0
  5
2F76
 10
154.797
 20
66.3882
 30
0.000000
  70
    32
  0
VERTEX
  8
0
  5
2F77
 10
154.749
 20
66.3384
 30
0.000000
  70
    32
  0
VERTEX
  8
0
  5
2F78
 10
154.702
 20
66.2870
 30
0.000000
  70
    32
  0
VERTEX
  8
0
  5
2F79
 10
154.656
 20
66.2342
 30
0.000000
  70
    32
  0
VERTEX
  8
0
  5
2F7A
 10
154.611
 20
66.1799
 30
0.000000
  70
    32
  0
VERTEX
  8
0
  5
2F7B
 10
154.567
 20
66.1242
 30
0.000000
  70
    32
  0
VERTEX
  8
0
  5
2F7C
 10
154.524
 20
66.0671
 30
0.000000
  70
    32
  0
VERTEX
  8
0
  5
2F7D
 10
154.482
 20
66.0086
 30
0.000000
  70
    32
  0
VERTEX
  8
0
  5
2F7E
 10
154.442
 20
65.9489
 30
0.000000
  70
    32
  0
VERTEX
  8
0
  5
2F7F
 10
154.402
 20
65.8878
 30
0.000000
  70
    32
  0
VERTEX
  8
0
  5
2F80
 10
154.364
 20
65.8256
 30
0.000000
  70
    32
  0
VERTEX
  8
0
  5
2F81
 10
154.327
 20
65.7621
 30
0.000000
  70
    32
  0
VERTEX
  8
0
  5
2F82
 10
154.291
 20
65.6974
 30
0.000000
  70
    32
  0
VERTEX
  8
0
  5
2F83
 10
154.256
 20
65.6317
 30
0.000000
  70
    32
  0
VERTEX
  8
0
  5
2F84
 10
154.223
 20
65.5648
 30
0.000000
  70
    32
  0
VERTEX
  8
0
  5
2F85
 10
154.190
 20
65.4969
 30
0.000000
  70
    32
  0
VERTEX
  8
0
  5
2F86
 10
154.160
 20
65.4280
 30
0.000000
  70
    32
  0
VERTEX
  8
0
  5
2F87
 10
154.130
 20
65.3581
 30
0.000000
  70
    32
  0
VERTEX
  8
0
  5
2F88
 10
154.102
 20
65.2873
 30
0.000000
  70
    32
  0
VERTEX
  8
0
  5
2F89
 10
154.075
 20
65.2156
 30
0.000000
  70
    32
  0
VERTEX
  8
0
  5
2F8A
 10
154.049
 20
65.1431
 30
0.000000
  70
    32
  0
VERTEX
  8
0
  5
2F8B
 10
154.025
 20
65.0698
 30
0.000000
  70
    32
  0
VERTEX
  8
0
  5
2F8C
 10
154.002
 20
64.9957
 30
0.000000
  70
    32
  0
VERTEX
  8
0
  5
2F8D
 10
153.981
 20
64.9210
 30
0.000000
  70
    32
  0
VERTEX
  8
0
  5
2F8E
 10
153.961
 20
64.8455
 30
0.000000
  70
    32
  0
VERTEX
  8
0
  5
2F8F
 10
153.942
 20
64.7695
 30
0.000000
  70
    32
  0
VERTEX
  8
0
  5
2F90
 10
153.925
 20
64.6929
 30
0.000000
  70
    32
  0
VERTEX
  8
0
  5
2F91
 10
153.910
 20
64.6158
 30
0.000000
  70
    32
  0
VERTEX
  8
0
  5
2F92
 10
153.895
 20
64.5381
 30
0.000000
  70
    32
  0
VERTEX
  8
0
  5
2F93
 10
153.883
 20
64.4601
 30
0.000000
  70
    32
  0
VERTEX
  8
0
  5
2F94
 10
153.872
 20
64.3817
 30
0.000000
  70
    32
  0
VERTEX
  8
0
  5
2F95
 10
153.862
 20
64.3029
 30
0.000000
  70
    32
  0
VERTEX
  8
0
  5
2F96
 10
153.854
 20
64.2239
 30
0.000000
  70
    32
  0
VERTEX
  8
0
  5
2F97
 10
153.847
 20
64.1446
 30
0.000000
  70
    32
  0
VERTEX
  8
0
  5
2F98
 10
153.842
 20
64.0652
 30
0.000000
  70
    32
  0
VERTEX
  8
0
  5
2F99
 10
153.838
 20
63.9855
 30
0.000000
  70
    32
  0
VERTEX
  8
0
  5
2F9A
 10
153.835
 20
63.9058
 30
0.000000
  70
    32
  0
VERTEX
  8
0
  5
2F9B
 10
153.835
 20
63.8261
 30
0.000000
  70
    32
  0
VERTEX
  8
0
  5
2F9C
 10
153.835
 20
63.7463
 30
0.000000
  70
    32
  0
VERTEX
  8
0
  5
2F9D
 10
153.838
 20
63.6666
 30
0.000000
  70
    32
  0
VERTEX
  8
0
  5
2F9E
 10
153.842
 20
63.5870
 30
0.000000
  70
    32
  0
VERTEX
  8
0
  5
2F9F
 10
153.847
 20
63.5075
 30
0.000000
  70
    32
  0
VERTEX
  8
0
  5
2FA0
 10
153.854
 20
63.4282
 30
0.000000
  70
    32
  0
VERTEX
  8
0
  5
2FA1
 10
153.862
 20
63.3492
 30
0.000000
  70
    32
  0
VERTEX
  8
0
  5
2FA2
 10
153.872
 20
63.2704
 30
0.000000
  70
    32
  0
VERTEX
  8
0
  5
2FA3
 10
153.883
 20
63.1920
 30
0.000000
  70
    32
  0
VERTEX
  8
0
  5
2FA4
 10
153.895
 20
63.1140
 30
0.000000
  70
    32
  0
VERTEX
  8
0
  5
2FA5
 10
153.910
 20
63.0364
 30
0.000000
  70
    32
  0
VERTEX
  8
0
  5
2FA6
 10
153.925
 20
62.9593
 30
0.000000
  70
    32
  0
VERTEX
  8
0
  5
2FA7
 10
153.942
 20
62.8826
 30
0.000000
  70
    32
  0
VERTEX
  8
0
  5
2FA8
 10
153.961
 20
62.8066
 30
0.000000
  70
    32
  0
VERTEX
  8
0
  5
2FA9
 10
153.981
 20
62.7312
 30
0.000000
  70
    32
  0
VERTEX
  8
0
  5
2FAA
 10
154.002
 20
62.6564
 30
0.000000
  70
    32
  0
VERTEX
  8
0
  5
2FAB
 10
154.025
 20
62.5823
 30
0.000000
  70
    32
  0
VERTEX
  8
0
  5
2FAC
 10
154.049
 20
62.5090
 30
0.000000
  70
    32
  0
VERTEX
  8
0
  5
2FAD
 10
154.075
 20
62.4365
 30
0.000000
  70
    32
  0
VERTEX
  8
0
  5
2FAE
 10
154.102
 20
62.3648
 30
0.000000
  70
    32
  0
VERTEX
  8
0
  5
2FAF
 10
154.130
 20
62.2940
 30
0.000000
  70
    32
  0
VERTEX
  8
0
  5
2FB0
 10
154.160
 20
62.2242
 30
0.000000
  70
    32
  0
VERTEX
  8
0
  5
2FB1
 10
154.190
 20
62.1552
 30
0.000000
  70
    32
  0
VERTEX
  8
0
  5
2FB2
 10
154.223
 20
62.0873
 30
0.000000
  70
    32
  0
VERTEX
  8
0
  5
2FB3
 10
154.256
 20
62.0205
 30
0.000000
  70
    32
  0
VERTEX
  8
0
  5
2FB4
 10
154.291
 20
61.9547
 30
0.000000
  70
    32
  0
VERTEX
  8
0
  5
2FB5
 10
154.327
 20
61.8900
 30
0.000000
  70
    32
  0
VERTEX
  8
0
  5
2FB6
 10
154.364
 20
61.8266
 30
0.000000
  70
    32
  0
VERTEX
  8
0
  5
2FB7
 10
154.402
 20
61.7643
 30
0.000000
  70
    32
  0
VERTEX
  8
0
  5
2FB8
 10
154.442
 20
61.7033
 30
0.000000
  70
    32
  0
VERTEX
  8
0
  5
2FB9
 10
154.482
 20
61.6435
 30
0.000000
  70
    32
  0
VERTEX
  8
0
  5
2FBA
 10
154.524
 20
61.5851
 30
0.000000
  70
    32
  0
VERTEX
  8
0
  5
2FBB
 10
154.567
 20
61.5280
 30
0.000000
  70
    32
  0
VERTEX
  8
0
  5
2FBC
 10
154.611
 20
61.4723
 30
0.000000
  70
    32
  0
VERTEX
  8
0
  5
2FBD
 10
154.656
 20
61.4180
 30
0.000000
  70
    32
  0
VERTEX
  8
0
  5
2FBE
 10
154.702
 20
61.3651
 30
0.000000
  70
    32
  0
VERTEX
  8
0
  5
2FBF
 10
154.749
 20
61.3138
 30
0.000000
  70
    32
  0
VERTEX
  8
0
  5
2FC0
 10
154.797
 20
61.2639
 30
0.000000
  70
    32
  0
VERTEX
  8
0
  5
2FC1
 10
154.845
 20
61.2156
 30
0.000000
  70
    32
  0
VERTEX
  8
0
  5
2FC2
 10
154.895
 20
61.1689
 30
0.000000
  70
    32
  0
VERTEX
  8
0
  5
2FC3
 10
154.946
 20
61.1238
 30
0.000000
  70
    32
  0
VERTEX
  8
0
  5
2FC4
 10
154.997
 20
61.0803
 30
0.000000
  70
    32
  0
VERTEX
  8
0
  5
2FC5
 10
155.049
 20
61.0385
 30
0.000000
  70
    32
  0
VERTEX
  8
0
  5
2FC6
 10
155.102
 20
60.9983
 30
0.000000
  70
    32
  0
VERTEX
  8
0
  5
2FC7
 10
155.156
 20
60.9598
 30
0.000000
  70
    32
  0
VERTEX
  8
0
  5
2FC8
 10
155.211
 20
60.9231
 30
0.000000
  70
    32
  0
VERTEX
  8
0
  5
2FC9
 10
155.266
 20
60.8881
 30
0.000000
  70
    32
  0
VERTEX
  8
0
  5
2FCA
 10
155.322
 20
60.8549
 30
0.000000
  70
    32
  0
VERTEX
  8
0
  5
2FCB
 10
155.378
 20
60.8235
 30
0.000000
  70
    32
  0
VERTEX
  8
0
  5
2FCC
 10
155.435
 20
60.7938
 30
0.000000
  70
    32
  0
VERTEX
  8
0
  5
2FCD
 10
155.493
 20
60.7661
 30
0.000000
  70
    32
  0
VERTEX
  8
0
  5
2FCE
 10
155.551
 20
60.7401
 30
0.000000
  70
    32
  0
VERTEX
  8
0
  5
2FCF
 10
155.609
 20
60.7160
 30
0.000000
  70
    32
  0
VERTEX
  8
0
  5
2FD0
 10
155.668
 20
60.6938
 30
0.000000
  70
    32
  0
VERTEX
  8
0
  5
2FD1
 10
155.727
 20
60.6735
 30
0.000000
  70
    32
  0
VERTEX
  8
0
  5
2FD2
 10
155.787
 20
60.6550
 30
0.000000
  70
    32
  0
VERTEX
  8
0
  5
2FD3
 10
155.847
 20
60.6385
 30
0.000000
  70
    32
  0
VERTEX
  8
0
  5
2FD4
 10
155.907
 20
60.6239
 30
0.000000
  70
    32
  0
VERTEX
  8
0
  5
2FD5
 10
155.968
 20
60.6112
 30
0.000000
  70
    32
  0
VERTEX
  8
0
  5
2FD6
 10
156.029
 20
60.6005
 30
0.000000
  70
    32
  0
VERTEX
  8
0
  5
2FD7
 10
156.090
 20
60.5917
 30
0.000000
  70
    32
  0
VERTEX
  8
0
  5
2FD8
 10
156.151
 20
60.5849
 30
0.000000
  70
    32
  0
VERTEX
  8
0
  5
2FD9
 10
156.212
 20
60.5800
 30
0.000000
  70
    32
  0
VERTEX
  8
0
  5
2FDA
 10
156.273
 20
60.5770
 30
0.000000
  70
    32
  0
VERTEX
  8
0
  5
2FDB
 10
156.335
 20
60.5761
 30
0.000000
  70
    32
  0
SEQEND
  8
0
  5
2FDC
  0
LINE
  5
2AF4
  8
0
  6
CENTER
 10
-0.0000000000000568
 20
0.0
 30
0.0
 11
-40.310890000000143
 21
69.820510000000013
 31
0.0
  0
LINE
  5
2AF5
  8
0
 10
66.534449999999822
 20
12.16647000000011
 30
0.0
 11
72.240229999999826
 21
15.460700000000079
 31
0.0
  0
LINE
  5
2AF7
  8
0
 10
-31.263080000000109
 20
55.562830000000069
 30
0.0
 11
-30.63377000000008
 21
55.269379999999948
 31
0.0
  0
LINE
  5
2AF8
  8
0
 10
-32.505660000000091
 20
54.646349999999977
 30
0.0
 11
-31.720210000000119
 21
63.62401100000011
 31
0.0
  0
LINE
  5
2AF9
  8
0
 10
-29.870160000000109
 20
66.609116000000085
 30
0.0
 11
-20.84680000000008
 21
62.401454000000058
 31
0.0
  0
LINE
  5
2AFA
  8
0
 10
-31.83665000000013
 20
56.55628999999999
 30
0.0
 11
-31.053009417117831
 21
65.513362855293281
 31
0.0
  0
LINE
  5
2AFB
  8
0
 10
-36.53811000000001
 20
69.365763000000015
 30
0.0
 11
-26.608050000000102
 21
68.496996000000081
 31
0.0
  0
LINE
  5
2AFC
  8
0
 10
-41.803470000000111
 20
66.325810999999931
 30
0.0
 11
-46.016140000000121
 21
57.291699999999992
 31
0.0
  0
LINE
  5
2AFD
  8
0
 10
-46.484990000000089
 20
56.286280000000033
 30
0.0
 11
-39.852220000000038
 21
53.193369999999959
 31
0.0
  0
ARC
  5
2AFE
  8
0
 10
-0.0000000000000568
 20
0.0
 30
0.0
 40
73.0
 50
130.39453000000401
 51
229.6054699999959
  0
ARC
  5
2AFF
  8
0
 10
-0.0000000000000568
 20
0.0
 30
0.0
 40
73.0
 50
13.700229999987929
 51
114.6740500000035
  0
ARC
  5
2B00
  8
0
 10
-0.0000000000000568
 20
0.0
 30
0.0
 40
62.0
 50
123.2853399999937
 51
236.7146600000008
  0
ARC
  5
2B01
  8
0
 10
-0.0000000000000568
 20
0.0
 30
0.0
 40
62.0
 50
6.1823042110522648
 51
116.85813999999731
  0
ARC
  5
2B02
  8
0
 10
-0.0000000000000568
 20
0.0
 30
0.0
 40
65.0
 50
127.6057599999927
 51
232.39423999999531
  0
ARC
  5
2B03
  8
0
 10
-0.0000000000000568
 20
0.0
 30
0.0
 40
65.0
 50
11.976050000009341
 51
106.7338199999991
  0
ARC
  5
2B04
  8
0
 10
65.54170999999991
 20
13.902690000000121
 30
0.0
 40
2.0
 50
191.97605000000931
 51
299.9999979999987
  0
ARC
  5
2B05
  8
0
 10
-36.49045000000006
 20
54.994979999999941
 30
0.0
 40
4.0
 50
303.56519000000202
 51
355.00000009998928
  0
ARC
  5
2B06
  8
0
 10
-37.000030000000088
 20
64.085935000000063
 30
0.0
 40
5.3000002000000004
 50
354.99999119998711
 51
155.00004759195531
  0
ARC
  5
2B07
  8
0
 10
-19.57895000000013
 20
65.120382000000063
 30
0.0
 40
3.0
 50
244.99999999999471
 51
286.73381799999891
  0
ARC
  5
2B08
  8
0
  6
CENTER
 10
-0.0000000000000568
 20
0.0
 30
0.0
 40
74.0
 50
111.9408399999982
 51
127.55933000000149
  0
ARC
  5
2B09
  8
0
 10
-29.365910000000039
 20
57.988299999999981
 30
0.0
 40
3.0
 50
244.99999999999471
 51
296.85815200000019
  0
ARC
  5
2B0A
  8
0
 10
-30.840460000000181
 20
56.469139999999918
 30
0.0
 40
1.0
 50
175.0000000000002
 51
244.99999999999471
  0
ARC
  5
2B0B
  8
0
 10
-50.547670000000089
 20
59.404813000000097
 30
0.0
 40
5.0
 50
310.39453199999338
 51
335.00000200000659
  0
ARC
  5
2B0C
  8
0
 10
-26.172280000000061
 20
73.477971000000025
 30
0.0
 40
5.0
 50
264.9999980000008
 51
289.60548900000077
  0
ARC
  5
2B0D
  8
0
 10
-30.05680000000012
 20
65.426206000000093
 30
0.0
 40
1.0
 50
114.6740500000035
 51
175.0000099999875
  0
ARC
  5
2B0E
  8
0
 10
-40.274840000000097
 20
52.287070000000078
 30
0.0
 40
1.0
 50
307.60575900000788
 51
64.999999999994742
  0
ARC
  5
2B15
  8
0
 10
87.999949999999842
 20
14.0
 30
0.0
 40
1.0
 50
0.0
 51
90.0
  0
LINE
  5
2B16
  8
0
 10
77.999949999999728
 20
29.467959192431181
 30
0.0
 11
77.999949999999842
 21
39.428229999999978
 31
0.0
  0
LINE
  5
2B17
  8
0
 10
85.999949999999956
 20
29.467959192431181
 30
0.0
 11
85.999949999999828
 21
39.428229999999978
 31
0.0
  0
LINE
  5
2B1A
  8
0
 10
76.249949999999842
 20
29.20001000000024
 30
0.0
 11
87.749949999999885
 21
29.200009999999789
 31
0.0
  0
ARC
  5
2B7F
  8
0
 10
76.249949999999842
 20
27.20001000000024
 30
0.0
 40
2.0
 50
90.0
 51
180.0
  0
ARC
  5
2B81
  8
0
 10
87.749949999999842
 20
27.200009999999789
 30
0.0
 40
2.0
 50
0.0
 51
89.999999999998366
  0
TEXT
  5
2C96
  8
0
 10
58.855084256403302
 20
99.196849356928169
 30
0.0
 40
5.0
  1
13MHHM-3LW 4.5S
  0
CIRCLE
  5
2D7B
  8
0
 10
-37.000030000000088
 20
-64.085935000000063
 30
0.0
 40
2.5999998999999989
  0
CIRCLE
  5
2D7C
  8
0
 10
-37.000030000000088
 20
64.085935000000063
 30
0.0
 40
2.5999998999999989
  0
CIRCLE
  5
2D7D
  8
0
 10
81.999949999999856
 20
-9.5
 30
0.0
 40
3.250000100000078
  0
VIEWPORT
  5
79
 67
     1
  8
0
 10
5.2499996395561617
 20
3.9999998836066761
 30
0.0
 40
15.015580297613511
 41
8.5939224089826052
 68
     1
 69
     1
1001
ACAD
1000
MVIEW
1002
{
1070
    16
1010
0.0
1020
0.0
1030
0.0
1010
0.0
1020
0.0
1030
1.0
1040
0.0
1040
8.5939224089826052
1040
5.2499996395561617
1040
3.9999998836066761
1040
50.0
1040
0.0
1040
0.0
1070
     0
1070
   100
1070
     1
1070
     1
1070
     0
1070
     0
1070
     0
1070
     0
1040
0.0
1040
0.0
1040
0.0
1040
10.0
1040
10.0
1040
10.0
1040
10.0
1070
     0
1002
{
1002
}
1002
}
1001
GENIUS_GENOBJ-N-SDF_13
1002
{
1000
OWNER
1000
GEN
1002
}
1001
GENIUS_GENODEF_13
1002
{
1000
HIER
1070
     0
1002
}
1002
{
1000
MANEDIT
1070
     0
1002
}
1002
{
1000
NOSEL
1070
     0
1002
}
1002
{
1000
BEHIND
1070
     0
1002
}
1002
{
1000
OTHER
1070
     0
1002
}
1002
{
1000
REACTOR
1002
}
1001
GENIUS_GENSCREG_15
1000
PF
1040
1.0
1000
DF
1040
1.0
1000
MIN
1011
-2.2577905092505972
1021
4.3982444327371447E+158
1031
6.8722569165617771E+156
1021
-0.2969613208846251
1031
0.0
1000
MAX
1011
12.757789788362921
1021
4.3982444327371447E+158
1031
6.8722569165617771E+156
1021
8.2969610880979801
1031
0.0
1000
FLAGS
1070
     4
  0
VIEWPORT
  5
7B
 67
     1
  8
0
 10
5.24999976158142
 20
3.99999976158142
 30
0.0
 40
8.3999996185302717
 41
6.3999996185302717
 68
     2
 69
     2
1001
ACAD
1000
MVIEW
1002
{
1070
    16
1010
0.0
1020
0.0
1030
0.0
1010
0.0
1020
0.0
1030
1.0
1040
0.0
1040
9.2590797717467002
1040
6.0
1040
4.5
1040
50.0
1040
0.0
1040
0.0
1070
     0
1070
   100
1070
     1
1070
     3
1070
     0
1070
     0
1070
     0
1070
     0
1040
0.0
1040
0.0
1040
0.0
1040
0.5
1040
0.5
1040
0.5
1040
0.5
1070
     0
1002
{
1002
}
1002
}
1001
GENIUS_GENODEF_13
1002
{
1000
HIER
1070
     0
1002
}
1002
{
1000
MANEDIT
1070
     0
1002
}
1002
{
1000
NOSEL
1070
     0
1002
}
1002
{
1000
BEHIND
1070
     0
1002
}
1002
{
1000
OTHER
1070
     0
1002
}
1002
{
1000
REACTOR
1002
}
1001
GENIUS_GENOBJ-N-SDF_13
1002
{
1000
OWNER
1000
GEN
1002
}
1001
GENIUS_GENSCREG_15
1000
PF
1040
0.0
1000
DF
1040
0.0
1000
MIN
1011
1.049999952316284
1021
4.3982444327371447E+158
1031
6.8722569165617771E+156
1021
0.7999999523162842
1031
0.0
1000
MAX
1011
9.4499995708465558
1021
4.3982444327371447E+158
1031
6.8722569165617771E+156
1021
7.1999995708465558
1031
0.0
1000
FLAGS
1070
     4
  0
ENDSEC
  0
EOF
