  0
SECTION
  2
HEADER
  9
$ACADVER
  1
AC1009
  9
$INSBASE
 10
0.0
 20
0.0
 30
0.0
  9
$EXTMIN
 10
-75.113255000000038
 20
-65.085031759471036
 30
0.0
  9
$EXTMAX
 10
148.54478739395151
 20
82.521757837525641
 30
0.0
  9
$LIMMIN
 10
0.0
 20
0.0
  9
$LIMMAX
 10
12.0
 20
9.0
  9
$ORTHOMODE
 70
     0
  9
$REGENMODE
 70
     1
  9
$FILLMODE
 70
     1
  9
$QTEXTMODE
 70
     0
  9
$MIRRTEXT
 70
     1
  9
$DRAGMODE
 70
     2
  9
$LTSCALE
 40
1.0
  9
$OSMODE
 70
    37
  9
$ATTMODE
 70
     1
  9
$TEXTSIZE
 40
0.2
  9
$TRACEWID
 40
0.05
  9
$TEXTSTYLE
  7
STANDARD
  9
$CLAYER
  8
0
  9
$CELTYPE
  6
BYLAYER
  9
$CECOLOR
 62
   256
  9
$DIMSCALE
 40
1.0
  9
$DIMASZ
 40
0.18
  9
$DIMEXO
 40
0.0625
  9
$DIMDLI
 40
0.38
  9
$DIMRND
 40
0.0
  9
$DIMDLE
 40
0.0
  9
$DIMEXE
 40
0.18
  9
$DIMTP
 40
0.0
  9
$DIMTM
 40
0.0
  9
$DIMTXT
 40
0.18
  9
$DIMCEN
 40
0.09
  9
$DIMTSZ
 40
0.0
  9
$DIMTOL
 70
     0
  9
$DIMLIM
 70
     0
  9
$DIMTIH
 70
     1
  9
$DIMTOH
 70
     1
  9
$DIMSE1
 70
     0
  9
$DIMSE2
 70
     0
  9
$DIMTAD
 70
     0
  9
$DIMZIN
 70
     0
  9
$DIMBLK
  1

  9
$DIMASO
 70
     1
  9
$DIMSHO
 70
     1
  9
$DIMPOST
  1

  9
$DIMAPOST
  1

  9
$DIMALT
 70
     0
  9
$DIMALTD
 70
     2
  9
$DIMALTF
 40
25.399999999999999
  9
$DIMLFAC
 40
1.0
  9
$DIMTOFL
 70
     0
  9
$DIMTVP
 40
0.0
  9
$DIMTIX
 70
     0
  9
$DIMSOXD
 70
     0
  9
$DIMSAH
 70
     0
  9
$DIMBLK1
  1

  9
$DIMBLK2
  1

  9
$DIMSTYLE
  2
STANDARD
  9
$DIMCLRD
 70
     0
  9
$DIMCLRE
 70
     0
  9
$DIMCLRT
 70
     0
  9
$DIMTFAC
 40
1.0
  9
$DIMGAP
 40
0.09
  9
$LUNITS
 70
     2
  9
$LUPREC
 70
     4
  9
$SKETCHINC
 40
0.1
  9
$FILLETRAD
 40
1.0
  9
$AUNITS
 70
     0
  9
$AUPREC
 70
     0
  9
$MENU
  1
.
  9
$ELEVATION
 40
0.0
  9
$PELEVATION
 40
0.0
  9
$THICKNESS
 40
0.0
  9
$LIMCHECK
 70
     0
  9
$BLIPMODE
 70
     0
  9
$CHAMFERA
 40
0.5
  9
$CHAMFERB
 40
0.5
  9
$SKPOLY
 70
     0
  9
$TDCREATE
 40
2451955.1727028699
  9
$TDUPDATE
 40
2454732.6788834599
  9
$TDINDWG
 40
0.1005242708
  9
$TDUSRTIMER
 40
0.1005240972
  9
$USRTIMER
 70
     1
  9
$ANGBASE
 50
0.0
  9
$ANGDIR
 70
     0
  9
$PDMODE
 70
     0
  9
$PDSIZE
 40
0.0
  9
$PLINEWID
 40
0.0
  9
$COORDS
 70
     1
  9
$SPLFRAME
 70
     0
  9
$SPLINETYPE
 70
     6
  9
$SPLINESEGS
 70
     8
  9
$ATTDIA
 70
     0
  9
$ATTREQ
 70
     1
  9
$HANDLING
 70
 22529
  9
$HANDSEED
  5
2FBE
  9
$SURFTAB1
 70
     6
  9
$SURFTAB2
 70
     6
  9
$SURFTYPE
 70
     6
  9
$SURFU
 70
     6
  9
$SURFV
 70
     6
  9
$UCSNAME
  2

  9
$UCSORG
 10
0.0
 20
0.0
 30
0.0
  9
$UCSXDIR
 10
1.0
 20
0.0
 30
0.0
  9
$UCSYDIR
 10
0.0
 20
1.0
 30
0.0
  9
$PUCSNAME
  2

  9
$PUCSORG
 10
0.0
 20
0.0
 30
0.0
  9
$PUCSXDIR
 10
1.0
 20
0.0
 30
0.0
  9
$PUCSYDIR
 10
0.0
 20
1.0
 30
0.0
  9
$USERI1
 70
     0
  9
$USERI2
 70
     0
  9
$USERI3
 70
     0
  9
$USERI4
 70
     0
  9
$USERI5
 70
     0
  9
$USERR1
 40
0.0
  9
$USERR2
 40
0.0
  9
$USERR3
 40
0.0
  9
$USERR4
 40
0.0
  9
$USERR5
 40
0.0
  9
$WORLDVIEW
 70
     1
  9
$SHADEDGE
 70
     3
  9
$SHADEDIF
 70
    70
  9
$TILEMODE
 70
     1
  9
$MAXACTVP
 70
    48
  9
$PLIMCHECK
 70
     0
  9
$PEXTMIN
 10
1.049636599258096
 20
0.7996597240971113
 30
-0.0015258207003583
  9
$PEXTMAX
 10
9.4503627310769716
 20
7.2003400826974584
 30
0.0000000349246037
  9
$PLIMMIN
 10
-0.2500002402958907
 20
-0.2499999962453767
  9
$PLIMMAX
 10
10.74999951940821
 20
8.2499997634587316
  9
$UNITMODE
 70
     0
  9
$VISRETAIN
 70
     1
  9
$PLINEGEN
 70
     0
  9
$PSLTSCALE
 70
     1
  0
ENDSEC
  0
SECTION
  2
TABLES
  0
TABLE
  2
VPORT
 70
     2
  0
VPORT
  2
*ACTIVE
 70
     0
 10
0.0
 20
0.0
 11
1.0
 21
1.0
 12
36.720957708447948
 22
8.7210265063215502
 13
0.0
 23
0.0
 14
0.5
 24
0.5
 15
0.5
 25
0.5
 16
0.0
 26
0.0
 36
1.0
 17
0.0
 27
0.0
 37
0.0
 40
148.77399835952599
 41
1.531806615776081
 42
50.0
 43
0.0
 44
0.0
 50
0.0
 51
0.0
 71
     0
 72
   100
 73
     1
 74
     3
 75
     0
 76
     0
 77
     0
 78
     0
  0
ENDTAB
  0
TABLE
  2
LTYPE
 70
     2
  0
LTYPE
  2
CONTINUOUS
 70
     0
  3
Solid line
 72
    65
 73
     0
 40
0.0
  0
LTYPE
  2
CENTER
 70
     0
  3
__ . __
 72
    65
 73
     4
 40
7.0
 49
4.0
 49
-1.0
 49
1.0
 49
-1.0
  0
ENDTAB
  0
TABLE
  2
LAYER
 70
     1
  0
LAYER
  2
0
 70
     0
 62
     7
  6
CONTINUOUS
  0
ENDTAB
  0
TABLE
  2
STYLE
 70
     1
  0
STYLE
  2
STANDARD
 70
     0
 40
0.0
 41
1.0
 50
0.0
 71
     0
 42
0.2
  3
txt
  4

  0
ENDTAB
  0
TABLE
  2
VIEW
 70
     0
  0
ENDTAB
  0
TABLE
  2
UCS
 70
     0
  0
ENDTAB
  0
TABLE
  2
APPID
 70
    19
  0
APPID
  2
ACAD
 70
     0
  0
APPID
  2
GENIUS_GENODEF_13
 70
     0
  0
APPID
  2
ACAD_DSTYLE_DIMARC_LENGTH_
 70
     0
  0
APPID
  2
ACAD_DSTYLE_DIMJOGGED_JOGA
 70
     0
  0
APPID
  2
GENIUS_GENOBJ-N-FIL_13
 70
     0
  0
APPID
  2
ACAD_MLEADERVER
 70
     0
  0
APPID
  2
MCAD_NO_VIS
 70
     0
  0
APPID
  2
ACAD_TEMP_GRAPHIC
 70
     0
  0
APPID
  2
AD_DRAW
 70
     0
  0
APPID
  2
ACATTRIBSERVICES
 70
     0
  0
APPID
  2
DESIGNERASSEMBLIES
 70
     0
  0
APPID
  2
ACADM_DIM_EDIT
 70
     0
  0
APPID
  2
AMDT_DM_ADJ
 70
     0
  0
APPID
  2
GENIUS_GENSCREG_15
 70
     0
  0
APPID
  2
GENIUS_GENOBJ-N-SDF_13
 70
     0
  0
APPID
  2
ACAD_DSTYLE_DIM_LINETYPE
 70
     0
  0
APPID
  2
ACAD_DSTYLE_DIM_EXT1_LINETYPE
 70
     0
  0
APPID
  2
ACAD_DSTYLE_DIM_EXT2_LINETYPE
 70
     0
  0
APPID
  2
ACAD_EXEMPT_FROM_CAD_STANDARDS
 70
     0
  0
ENDTAB
  0
TABLE
  2
DIMSTYLE
 70
     1
  0
DIMSTYLE
  2
STANDARD
 70
     0
  3

  4

  5

  6

  7

 40
1.0
 41
0.18
 42
0.0625
 43
0.38
 44
0.18
 45
0.0
 46
0.0
 47
0.0
 48
0.0
140
0.18
141
0.09
142
0.0
143
25.399999999999999
144
1.0
145
0.0
146
1.0
147
0.09
 71
     0
 72
     0
 73
     1
 74
     1
 75
     0
 76
     0
 77
     0
 78
     0
170
     0
171
     2
172
     0
173
     0
174
     0
175
     0
176
     0
177
     0
178
     0
  0
ENDTAB
  0
ENDSEC
  0
SECTION
  2
BLOCKS
  0
BLOCK
  8
0
  2
$MODEL_SPACE
 70
     0
 10
0.0
 20
0.0
 30
0.0
  3
$MODEL_SPACE
  1

  0
ENDBLK
  5
21
  8
0
  0
BLOCK
 67
     1
  8
0
  2
$PAPER_SPACE
 70
     0
 10
0.0
 20
0.0
 30
0.0
  3
$PAPER_SPACE
  1

  0
ENDBLK
  5
60
 67
     1
  8
0
  0
ENDSEC
  0
SECTION
  2
ENTITIES
  0
LINE
  5
17E1
  8
0
  6
CENTER
 10
148.54478739395151
 20
0.0
 30
0.0
 11
111.4803273939514
 21
0.0
 31
0.0
  0
LINE
  5
17E4
  8
0
 10
67.999939999999924
 20
-14.0
 30
0.0
 11
67.999939999999924
 21
-5.0
 31
0.0
  0
LINE
  5
17E5
  8
0
 10
67.999939999999924
 20
5.0
 30
0.0
 11
67.999939999999924
 21
13.999999999999771
 31
0.0
  0
LINE
  5
17E6
  8
0
  6
CENTER
 10
-0.0000400000000127
 20
0.0
 30
0.0
 11
-32.441430000000082
 21
-56.190139999999921
 31
0.0
  0
LINE
  5
17E7
  8
0
  6
CENTER
 10
60.999959999999987
 20
-20.0
 30
0.0
 11
60.999959999999987
 21
58.447849999999789
 31
0.0
  0
LINE
  5
17EA
  8
0
 10
64.999939999999924
 20
-4.0
 30
0.0
 11
64.999939999999924
 21
4.0
 31
0.0
  0
LINE
  5
17EC
  8
0
 10
56.99995999999998
 20
-4.0
 30
0.0
 11
56.99995999999998
 21
4.0
 31
0.0
  0
LINE
  5
17F3
  8
0
 10
55.999959999999987
 20
43.000029999999917
 30
0.0
 11
55.999959999999987
 21
31.200009999999789
 31
0.0
  0
LINE
  5
17F4
  8
0
 10
65.999939999999924
 20
43.000029999999917
 30
0.0
 11
65.999939999999924
 21
31.200009999999789
 31
0.0
  0
LINE
  5
17F5
  8
0
 10
53.24995999999998
 20
27.200009999999789
 30
0.0
 11
53.24995999999998
 21
17.900030000000012
 31
0.0
  0
LINE
  5
17F7
  8
0
 10
68.749939999999924
 20
27.200009999999789
 30
0.0
 11
68.749939999999924
 21
17.900030000000012
 31
0.0
  0
LINE
  5
17F8
  8
0
 10
74.939269999999965
 20
52.000029999999917
 30
0.0
 11
47.060619999999972
 21
52.000029999999917
 31
0.0
  0
LINE
  5
17FB
  8
0
 10
66.999939999999924
 20
4.0
 30
0.0
 11
44.95826999999997
 21
4.0
 31
0.0
  0
LINE
  5
17FD
  8
0
  6
CENTER
 10
129.3819673939515
 20
58.390349999999899
 30
0.0
 11
129.3819673939515
 21
-57.139490000000031
 31
0.0
  0
LINE
  5
17FE
  8
0
  6
CENTER
 10
-75.113255000000038
 20
0.0
 30
0.0
 11
75.113175000000012
 21
0.0
 31
0.0
  0
LINE
  5
17FF
  8
0
 10
138.1319673939515
 20
45.368380000000109
 30
0.0
 11
138.1319673939515
 21
-6.3999900000001162
 31
0.0
  0
LINE
  5
1800
  8
0
 10
120.6319673939515
 20
45.368380000000109
 30
0.0
 11
120.6319673939515
 21
-6.2662900000000263
 31
0.0
  0
LINE
  5
1801
  8
0
 10
133.68638739395149
 20
-53.5
 30
0.0
 11
125.07755739395149
 21
-53.5
 31
0.0
  0
LINE
  5
1805
  8
0
 10
125.1319673939515
 20
-4.0
 30
0.0
 11
120.8819673939515
 21
-4.0
 31
0.0
  0
LINE
  5
1806
  8
0
  6
CENTER
 10
140.42203739395151
 20
-9.5
 30
0.0
 11
116.1174173939515
 21
-9.5
 31
0.0
  0
LINE
  5
1807
  8
0
 10
133.68638739395149
 20
53.500029999999917
 30
0.0
 11
125.07755739395149
 21
53.500029999999917
 31
0.0
  0
LINE
  5
1808
  8
0
 10
66.999939999999924
 20
-4.0
 30
0.0
 11
44.95826999999997
 21
-4.0
 31
0.0
  0
LINE
  5
1809
  8
0
 10
66.999939999999924
 20
-15.0
 30
0.0
 11
52.832229999999981
 21
-15.0
 31
0.0
  0
LINE
  5
180A
  8
0
 10
120.6660373939515
 20
45.62718000000018
 30
0.0
 11
122.17975739395141
 21
51.276470000000018
 31
0.0
  0
LINE
  5
180B
  8
0
 10
138.09789739395151
 20
45.62718000000018
 30
0.0
 11
136.58417739395151
 21
51.276470000000018
 31
0.0
  0
LINE
  5
180C
  8
0
 10
136.58417739395151
 20
-51.276450000000068
 30
0.0
 11
138.09789739395151
 21
-45.627169999999978
 31
0.0
  0
LINE
  5
180D
  8
0
 10
122.7755573939515
 20
-15.0
 30
0.0
 11
122.7755573939515
 21
-49.688540000000103
 31
0.0
  0
LINE
  5
180E
  8
0
 10
135.98838739395151
 20
-15.0
 30
0.0
 11
135.98838739395151
 21
-49.610619999999919
 31
0.0
  0
LINE
  5
1810
  8
0
 10
124.88208739395149
 20
11.28500000000008
 30
0.0
 11
121.90545739395149
 21
14.6613299999999
 31
0.0
  0
LINE
  5
1811
  8
0
 10
133.88184739395149
 20
11.285030000000001
 30
0.0
 11
136.85846739395151
 21
14.66135000000008
 31
0.0
  0
LINE
  5
1812
  8
0
 10
127.5319973939515
 20
51.999999999999773
 30
0.0
 11
131.2319773939515
 21
51.999999999999773
 31
0.0
  0
LINE
  5
1813
  8
0
 10
126.5319973939515
 20
50.999999999999773
 30
0.0
 11
126.5319973939515
 21
31.200009999999789
 31
0.0
  0
LINE
  5
1814
  8
0
 10
121.1553473939515
 20
15.0
 30
0.0
 11
120.8819673939515
 21
15.0
 31
0.0
  0
LINE
  5
1815
  8
0
 10
125.1319673939515
 20
4.0
 30
0.0
 11
120.8819673939515
 21
4.0
 31
0.0
  0
LINE
  5
1816
  8
0
 10
125.1319673939515
 20
-4.0
 30
0.0
 11
125.1319673939515
 21
-15.0
 31
0.0
  0
LINE
  5
1817
  8
0
 10
125.1319673939515
 20
-15.0
 30
0.0
 11
120.8819673939515
 21
-15.0
 31
0.0
  0
LINE
  5
1818
  8
0
 10
125.1319673939515
 20
10.62368999999989
 30
0.0
 11
125.1319673939515
 21
4.0
 31
0.0
  0
LINE
  5
181D
  8
0
 10
125.3819673939515
 20
12.0
 30
0.0
 11
125.3819673939515
 21
-14.428190000000081
 31
0.0
  0
LINE
  5
181E
  8
0
 10
125.3819673939515
 20
39.428229999999751
 30
0.0
 11
125.3819673939515
 21
29.38962000000015
 31
0.0
  0
LINE
  5
181F
  8
0
 10
121.6319673939515
 20
27.200009999999789
 30
0.0
 11
121.6319673939515
 21
17.89999999999986
 31
0.0
  0
LINE
  5
1820
  8
0
 10
123.6319673939515
 20
29.200009999999789
 30
0.0
 11
135.1319673939515
 21
29.200009999999789
 31
0.0
  0
LINE
  5
1821
  8
0
 10
124.3567973939515
 20
12.0
 30
0.0
 11
134.40717739395151
 21
12.0
 31
0.0
  0
LINE
  5
1822
  8
0
 10
137.8819673939515
 20
-12.600000000000129
 30
0.0
 11
138.3819673939515
 21
-12.600000000000129
 31
0.0
  0
LINE
  5
1823
  8
0
 10
137.8819673939515
 20
-6.3999900000001162
 30
0.0
 11
138.3819673939515
 21
-6.3999900000001162
 31
0.0
  0
LINE
  5
1825
  8
0
 10
132.2319773939515
 20
50.999999999999773
 30
0.0
 11
132.2319773939515
 21
31.200009999999789
 31
0.0
  0
LINE
  5
1826
  8
0
 10
137.6085973939515
 20
15.0
 30
0.0
 11
137.8819673939515
 21
15.0
 31
0.0
  0
LINE
  5
1827
  8
0
 10
133.6319673939515
 20
4.0
 30
0.0
 11
137.8819673939515
 21
4.0
 31
0.0
  0
LINE
  5
1828
  8
0
 10
133.6319673939515
 20
-4.0
 30
0.0
 11
133.6319673939515
 21
-15.0
 31
0.0
  0
LINE
  5
1829
  8
0
 10
133.6319673939515
 20
-4.0
 30
0.0
 11
137.8819673939515
 21
-4.0
 31
0.0
  0
LINE
  5
182A
  8
0
 10
133.6319673939515
 20
-15.0
 30
0.0
 11
137.8819673939515
 21
-15.0
 31
0.0
  0
LINE
  5
182B
  8
0
 10
133.6319673939515
 20
10.62368999999989
 30
0.0
 11
133.6319673939515
 21
4.0
 31
0.0
  0
LINE
  5
1830
  8
0
 10
133.3819673939515
 20
12.0
 30
0.0
 11
133.3819673939515
 21
-14.428190000000081
 31
0.0
  0
LINE
  5
1831
  8
0
 10
133.3819673939515
 20
39.428229999999751
 30
0.0
 11
133.3819673939515
 21
29.38962000000015
 31
0.0
  0
LINE
  5
1832
  8
0
 10
137.1319673939515
 20
27.200009999999789
 30
0.0
 11
137.1319673939515
 21
17.89999999999986
 31
0.0
  0
LINE
  5
1835
  8
0
 10
135.98838739395151
 20
29.00737000000003
 30
0.0
 11
135.98838739395151
 21
50.632100000000037
 31
0.0
  0
LINE
  5
1836
  8
0
 10
122.7755573939515
 20
29.00737000000003
 30
0.0
 11
122.7755573939515
 21
50.219289999999773
 31
0.0
  0
LINE
  5
1837
  8
0
 10
66.999939999999924
 20
14.999999999999771
 30
0.0
 11
52.832229999999981
 21
15.0
 31
0.0
  0
LINE
  5
1838
  8
0
  6
CENTER
 10
0.0
 20
-59.160149999999931
 30
0.0
 11
0.0
 21
59.160149999999931
 31
0.0
  0
LINE
  5
183A
  8
0
 10
138.8819673939515
 20
-6.8999900000001162
 30
0.0
 11
138.8819673939515
 21
-12.100000000000129
 31
0.0
  0
LINE
  5
183B
  8
0
 10
139.1319673939515
 20
-41.726059999999961
 30
0.0
 11
139.1319673939515
 21
-46.926069999999967
 31
0.0
  0
LINE
  5
183C
  8
0
 10
137.6319673939515
 20
-47.426069999999982
 30
0.0
 11
138.6319673939515
 21
-47.426069999999982
 31
0.0
  0
LINE
  5
183D
  8
0
 10
138.1319673939515
 20
-41.226059999999961
 30
0.0
 11
138.6319673939515
 21
-41.226059999999961
 31
0.0
  0
LINE
  5
183E
  8
0
 10
139.1319673939515
 20
41.726059999999727
 30
0.0
 11
139.1319673939515
 21
46.926069999999747
 31
0.0
  0
LINE
  5
183F
  8
0
  6
CENTER
 10
140.42203739395151
 20
44.326069999999838
 30
0.0
 11
116.1174173939515
 21
44.326069999999838
 31
0.0
  0
LINE
  5
1840
  8
0
 10
138.1319673939515
 20
41.226059999999727
 30
0.0
 11
138.6319673939515
 21
41.226059999999727
 31
0.0
  0
LINE
  5
1841
  8
0
 10
137.61588739395151
 20
47.426069999999747
 30
0.0
 11
138.6319673939515
 21
47.426069999999747
 31
0.0
  0
LINE
  5
1842
  8
0
 10
120.8819673939515
 20
15.0
 30
0.0
 11
120.8819673939515
 21
-15.0
 31
0.0
  0
LINE
  5
1843
  8
0
 10
137.8819673939515
 20
15.0
 30
0.0
 11
137.8819673939515
 21
-15.0
 31
0.0
  0
LINE
  5
1845
  8
0
 10
120.6319673939515
 20
-12.73369999999999
 30
0.0
 11
120.6319673939515
 21
-45.368339999999982
 31
0.0
  0
LINE
  5
1846
  8
0
 10
138.1319673939515
 20
-12.600000000000129
 30
0.0
 11
138.1319673939515
 21
-45.368339999999982
 31
0.0
  0
LINE
  5
1847
  8
0
 10
120.6319673939515
 20
-47.576060000000091
 30
0.0
 11
121.1319673939515
 21
-47.576060000000091
 31
0.0
  0
LINE
  5
1848
  8
0
 10
120.6319673939515
 20
47.576069999999852
 30
0.0
 11
121.1319673939515
 21
47.576069999999852
 31
0.0
  0
LINE
  5
1849
  8
0
 10
121.6319673939515
 20
-49.326060000000098
 30
0.0
 11
121.6571673939515
 21
-49.326060000000098
 31
0.0
  0
LINE
  5
184A
  8
0
 10
120.6319673939515
 20
-47.576060000000091
 30
0.0
 11
120.6319673939515
 21
-48.326060000000091
 31
0.0
  0
LINE
  5
184B
  8
0
 10
138.1319673939515
 20
-47.426069999999982
 30
0.0
 11
138.1319673939515
 21
-48.326060000000091
 31
0.0
  0
LINE
  5
184C
  8
0
 10
122.17976739395149
 20
-51.276460000000043
 30
0.0
 11
120.6660373939515
 21
-45.627160000000003
 31
0.0
  0
LINE
  5
184D
  8
0
 10
120.6319673939515
 20
47.576069999999852
 30
0.0
 11
120.6319673939515
 21
48.326069999999852
 31
0.0
  0
LINE
  5
184E
  8
0
 10
138.1319673939515
 20
47.426069999999747
 30
0.0
 11
138.1319673939515
 21
48.326069999999852
 31
0.0
  0
LINE
  5
184F
  8
0
  6
CENTER
 10
50.435169999999971
 20
-9.5
 30
0.0
 11
73.971159999999941
 21
-9.5
 31
0.0
  0
LINE
  5
1851
  8
0
  6
CENTER
 10
140.42203739395151
 20
-44.326060000000091
 30
0.0
 11
116.1174173939515
 21
-44.326060000000091
 31
0.0
  0
LINE
  5
1859
  8
0
 10
-22.086660000000052
 20
-39.668730000000089
 30
0.0
 11
-21.262100000000029
 21
-49.093530000000101
 31
0.0
  0
LINE
  5
185A
  8
0
 10
-15.65633000000002
 20
-51.504300000000057
 30
0.0
 11
-26.78814999999997
 21
-52.47820999999999
 31
0.0
  0
LINE
  5
185D
  8
0
 10
-20.834699999999991
 20
-38.358920000000118
 30
0.0
 11
-21.513100000000001
 21
-38.675269999999948
 31
0.0
  0
LINE
  5
185E
  8
0
 10
-22.802569999999939
 20
-37.222770000000082
 30
0.0
 11
-21.970230000000011
 21
-46.736440000000123
 31
0.0
  0
LINE
  5
185F
  8
0
 10
-36.775979999999997
 20
-39.310850000000073
 30
0.0
 11
-32.053500000000092
 21
-49.438239999999951
 31
0.0
  0
LINE
  5
1860
  8
0
 10
-9.9785800000000791
 20
-44.992439999999988
 30
0.0
 11
-19.948870000000049
 21
-49.641660000000002
 31
0.0
  0
LINE
  5
1861
  8
0
 10
-30.683239999999952
 20
-35.470430000000071
 30
0.0
 11
-37.158739999999959
 21
-38.490009999999977
 31
0.0
  0
LINE
  5
1864
  8
0
 10
47.499259999999992
 20
-12.774400000000011
 30
0.0
 11
51.354089999999928
 21
-14.99999000000002
 31
0.0
  0
ARC
  5
1867
  8
0
 10
66.999939999999924
 20
-14.0
 30
0.0
 40
1.0
 50
270.0
 51
0.0
  0
ARC
  5
1868
  8
0
 10
66.999939999999924
 20
-5.0
 30
0.0
 40
1.0
 50
0.0
 51
90.00000299999769
  0
ARC
  5
1869
  8
0
 10
66.999939999999924
 20
5.0
 30
0.0
 40
1.0
 50
270.0
 51
0.0
  0
ARC
  5
186C
  8
0
 10
60.999959999999987
 20
32.500029999999917
 30
0.0
 40
8.0
 50
59.999995000003992
 51
119.99999999999579
  0
ARC
  5
186D
  8
0
 10
63.999939999999917
 20
31.200009999999789
 30
0.0
 40
2.0
 50
270.0
 51
0.0
  0
ARC
  5
186E
  8
0
 10
57.999959999999987
 20
31.200009999999789
 30
0.0
 40
2.0
 50
180.0
 51
270.0
  0
ARC
  5
186F
  8
0
 10
60.999959999999987
 20
43.000029999999917
 30
0.0
 40
5.0
 50
359.999989999999
 51
180.000010000001
  0
ARC
  5
1870
  8
0
 10
41.99995999999998
 20
48.000029999999931
 30
0.0
 40
35.0
 50
324.75248999999633
 51
3.4745943000043429
  0
ARC
  5
1871
  8
0
 10
78.749939999999924
 20
22.030089999999969
 30
0.0
 40
10.0
 50
144.7525000000021
 51
180.000010000001
  0
ARC
  5
1872
  8
0
 10
43.24995999999998
 20
22.030089999999969
 30
0.0
 40
10.0
 50
359.999989999999
 51
35.247501999993091
  0
ARC
  5
1873
  8
0
 10
79.999939999999924
 20
48.000029999999931
 30
0.0
 40
35.0
 50
176.52540999999641
 51
215.24751000000359
  0
ARC
  5
1874
  8
0
 10
60.999959999999987
 20
17.900030000000012
 30
0.0
 40
7.75
 50
180.000010000001
 51
201.974717141838
  0
ARC
  5
1875
  8
0
 10
60.999959999999987
 20
17.900030000000012
 30
0.0
 40
7.75
 50
333.16879806194407
 51
359.999989999999
  0
ARC
  5
1876
  8
0
 10
60.999959999999987
 20
-9.5
 30
0.0
 40
6.0
 50
246.4435399999993
 51
293.55646430909792
  0
ARC
  5
1879
  8
0
 10
74.939269999999965
 20
50.000029999999917
 30
0.0
 40
2.0
 50
3.4745943000043429
 51
89.999995999997637
  0
ARC
  5
187A
  8
0
 10
47.060619999999972
 20
50.000029999999917
 30
0.0
 40
2.0
 50
89.999995999997637
 51
176.52540999999641
  0
ARC
  5
187B
  8
0
 10
121.6319673939515
 20
45.368380000000109
 30
0.0
 40
1.0
 50
164.99998999999781
 51
180.000010000001
  0
ARC
  5
187C
  8
0
 10
137.1319673939515
 20
45.368380000000109
 30
0.0
 40
1.0
 50
0.0
 51
14.999999999994451
  0
ARC
  5
187D
  8
0
 10
121.6319673939515
 20
-45.368339999999982
 30
0.0
 40
1.0
 50
179.99998999999889
 51
194.9999999999944
  0
ARC
  5
187E
  8
0
 10
137.1319673939515
 20
-45.368339999999982
 30
0.0
 40
1.0
 50
345.00000000000551
 51
0.0
  0
ARC
  5
187F
  8
0
 10
125.07755739395149
 20
50.500029999999931
 30
0.0
 40
3.0
 50
90.00000299999769
 51
164.99998999999781
  0
ARC
  5
1880
  8
0
 10
133.68638739395149
 20
50.500029999999931
 30
0.0
 40
3.0
 50
14.999999999994451
 51
90.00000299999769
  0
ARC
  5
1881
  8
0
 10
125.07755739395149
 20
-50.5
 30
0.0
 40
3.0
 50
195.00001000000211
 51
270.0
  0
ARC
  5
1882
  8
0
 10
133.68638739395149
 20
-50.5
 30
0.0
 40
3.0
 50
270.0
 51
345.00000000000551
  0
ARC
  5
1883
  8
0
 10
124.1319673939515
 20
10.62368999999989
 30
0.0
 40
1.0
 50
0.0
 51
41.399999999995202
  0
ARC
  5
1884
  8
0
 10
134.6319673939515
 20
10.62368999999989
 30
0.0
 40
1.0
 50
138.6000000000048
 51
180.000010000001
  0
ARC
  5
1885
  8
0
 10
121.1553473939515
 20
14.0
 30
0.0
 40
1.0
 50
41.399999999995202
 51
90.00000299999769
  0
ARC
  5
1886
  8
0
 10
123.6319673939515
 20
27.200009999999789
 30
0.0
 40
2.0
 50
89.999995999997637
 51
180.000010000001
  0
ARC
  5
1887
  8
0
 10
129.3819673939515
 20
32.499999999999773
 30
0.0
 40
8.0
 50
110.870069999995
 51
119.99999999999579
  0
ARC
  5
1888
  8
0
 10
129.3819673939515
 20
17.89999999999986
 30
0.0
 40
7.75
 50
180.000010000001
 51
229.57810000000299
  0
ARC
  5
1889
  8
0
 10
129.3819673939515
 20
-7.5
 30
0.0
 40
8.0
 50
240.00000000000401
 51
299.99999999999591
  0
ARC
  5
188A
  8
0
 10
124.5319973939515
 20
31.200009999999789
 30
0.0
 40
2.0
 50
270.0
 51
0.0000050089504314
  0
ARC
  5
188B
  8
0
 10
127.5319973939515
 20
50.999999999999773
 30
0.0
 40
1.0
 50
89.999995999997637
 51
180.000010000001
  0
ARC
  5
188D
  8
0
 10
131.2319773939515
 20
50.999999999999773
 30
0.0
 40
1.0
 50
0.0
 51
90.00000299999769
  0
ARC
  5
188E
  8
0
 10
134.2319773939515
 20
31.200009999999789
 30
0.0
 40
2.0
 50
179.99998999999889
 51
270.0
  0
ARC
  5
188F
  8
0
 10
135.1319673939515
 20
27.200009999999789
 30
0.0
 40
2.0
 50
0.0
 51
90.00000299999769
  0
ARC
  5
1890
  8
0
 10
129.3819673939515
 20
32.499999999999773
 30
0.0
 40
8.0
 50
60.000002000001302
 51
69.129929000002221
  0
ARC
  5
1891
  8
0
 10
129.3819673939515
 20
17.89999999999986
 30
0.0
 40
7.75
 50
310.42192000000011
 51
0.0
  0
ARC
  5
1892
  8
0
 10
138.3819673939515
 20
-12.100000000000129
 30
0.0
 40
0.5
 50
270.0
 51
0.0
  0
ARC
  5
1893
  8
0
 10
138.3819673939515
 20
-6.8999900000001162
 30
0.0
 40
0.5
 50
0.0
 51
90.00000299999769
  0
ARC
  5
1894
  8
0
 10
137.6085973939515
 20
14.0
 30
0.0
 40
1.0
 50
90.00000299999769
 51
138.6000000000048
  0
ARC
  5
1895
  8
0
 10
138.6319673939515
 20
-41.726059999999961
 30
0.0
 40
0.5
 50
0.0
 51
90.00000299999769
  0
ARC
  5
1896
  8
0
 10
138.6319673939515
 20
-46.926069999999967
 30
0.0
 40
0.5
 50
270.0
 51
0.0
  0
ARC
  5
1897
  8
0
 10
138.6319673939515
 20
41.726059999999727
 30
0.0
 40
0.5
 50
270.0
 51
0.0
  0
ARC
  5
1898
  8
0
 10
138.6319673939515
 20
46.926069999999747
 30
0.0
 40
0.5
 50
0.0
 51
90.00000299999769
  0
ARC
  5
1899
  8
0
 10
121.6319673939515
 20
-48.326060000000091
 30
0.0
 40
1.0
 50
179.99998999999889
 51
270.0
  0
ARC
  5
189A
  8
0
 10
137.1319673939515
 20
-48.326060000000091
 30
0.0
 40
1.0
 50
270.0
 51
0.0
  0
ARC
  5
189B
  8
0
 10
121.6319673939515
 20
48.326069999999852
 30
0.0
 40
1.0
 50
90.00000299999769
 51
180.000010000001
  0
ARC
  5
189C
  8
0
 10
137.1319673939515
 20
48.326069999999852
 30
0.0
 40
1.0
 50
0.0
 51
90.00000299999769
  0
ARC
  5
18A1
  8
0
 10
-0.0000400000000127
 20
0.0
 30
0.0
 40
54.5
 50
228.5946699999962
 51
251.40527000000299
  0
ARC
  5
18AD
  8
0
 10
44.95826999999997
 20
7.0
 30
0.0
 40
3.0
 50
188.84988000000379
 51
270.0
  0
ARC
  5
18AE
  8
0
 10
44.95826999999997
 20
-7.0
 30
0.0
 40
3.0
 50
90.00000299999769
 51
171.15011999999609
  0
ARC
  5
18AF
  8
0
 10
-21.09050000000002
 20
-39.581580000000031
 30
0.0
 40
1.0
 50
114.9999999999993
 51
184.99999999999969
  0
ARC
  5
18B0
  8
0
 10
-19.566850000000041
 20
-41.077860000000101
 30
0.0
 40
3.0
 50
64.52993299999504
 51
114.9999999999993
  0
ARC
  5
18B1
  8
0
 10
-41.307540000000017
 20
-41.423930000000148
 30
0.0
 40
5.0
 50
24.99999999999276
 51
45.080656000002797
  0
ARC
  5
18B3
  8
0
 10
-15.22056000000009
 20
-56.485270000000121
 30
0.0
 40
5.0
 50
74.919273000000089
 51
95.000001999999157
  0
ARC
  5
18B4
  8
0
 10
-25.79118000000005
 20
-37.484239999999993
 30
0.0
 40
3.0
 50
4.999999899997543
 51
55.470008000002991
  0
ARC
  5
18BC
  8
0
 10
-0.0000400000000127
 20
0.0
 30
0.0
 40
45.499999999999993
 50
259.65346000000028
 51
341.52091999999908
  0
ARC
  5
18BD
  8
0
 10
-8.7107100000000628
 20
-47.711360000000013
 30
0.0
 40
3.0
 50
79.653467999998981
 51
114.9999999999993
  0
ARC
  5
18BE
  8
0
 10
-31.105850000000029
 20
-34.564120000000003
 30
0.0
 40
1.0
 50
294.99999999999932
 51
48.014539000003502
  0
ARC
  5
18BF
  8
0
 10
-0.0000400000000127
 20
0.0
 30
0.0
 40
42.5
 50
244.52992999999699
 51
351.15011999999609
  0
ARC
  5
18C0
  8
0
 10
52.832229999999981
 20
17.0
 30
0.0
 40
2.0
 50
197.83677000000651
 51
270.0
  0
ARC
  5
18C1
  8
0
 10
-0.0000400000000127
 20
0.0
 30
0.0
 40
53.5
 50
246.58290999999821
 51
342.1632299999934
  0
ARC
  5
18C2
  8
0
 10
52.832229999999981
 20
-17.0
 30
0.0
 40
2.0
 50
90.00000299999769
 51
162.1632299999934
  0
ARC
  5
18C3
  8
0
 10
45.999249999999961
 20
-15.372479999999991
 30
0.0
 40
3.0
 50
60.000002000001302
 51
161.52093000000099
  0
POLYLINE
  5
18C4
  8
0
 10
120.8819673939515
 20
-6.2499999000000006
 30
0.0
 66
     1
 70
     8
  0
VERTEX
  8
0
  5
2E38
 10
120.882
 20
-6.25000
 30
0.000000
  70
    32
  0
VERTEX
  8
0
  5
2E39
 10
120.821
 20
-6.25098
 30
0.000000
  70
    32
  0
VERTEX
  8
0
  5
2E3A
 10
120.759
 20
-6.25391
 30
0.000000
  70
    32
  0
VERTEX
  8
0
  5
2E3B
 10
120.698
 20
-6.25881
 30
0.000000
  70
    32
  0
VERTEX
  8
0
  5
2E3C
 10
120.637
 20
-6.26565
 30
0.000000
  70
    32
  0
VERTEX
  8
0
  5
2E3D
 10
120.576
 20
-6.27444
 30
0.000000
  70
    32
  0
VERTEX
  8
0
  5
2E3E
 10
120.515
 20
-6.28518
 30
0.000000
  70
    32
  0
VERTEX
  8
0
  5
2E3F
 10
120.455
 20
-6.29785
 30
0.000000
  70
    32
  0
VERTEX
  8
0
  5
2E40
 10
120.394
 20
-6.31245
 30
0.000000
  70
    32
  0
VERTEX
  8
0
  5
2E41
 10
120.334
 20
-6.32897
 30
0.000000
  70
    32
  0
VERTEX
  8
0
  5
2E42
 10
120.275
 20
-6.34740
 30
0.000000
  70
    32
  0
VERTEX
  8
0
  5
2E43
 10
120.215
 20
-6.36773
 30
0.000000
  70
    32
  0
VERTEX
  8
0
  5
2E44
 10
120.156
 20
-6.38994
 30
0.000000
  70
    32
  0
VERTEX
  8
0
  5
2E45
 10
120.098
 20
-6.41403
 30
0.000000
  70
    32
  0
VERTEX
  8
0
  5
2E46
 10
120.040
 20
-6.43998
 30
0.000000
  70
    32
  0
VERTEX
  8
0
  5
2E47
 10
119.982
 20
-6.46777
 30
0.000000
  70
    32
  0
VERTEX
  8
0
  5
2E48
 10
119.925
 20
-6.49739
 30
0.000000
  70
    32
  0
VERTEX
  8
0
  5
2E49
 10
119.869
 20
-6.52882
 30
0.000000
  70
    32
  0
VERTEX
  8
0
  5
2E4A
 10
119.813
 20
-6.56203
 30
0.000000
  70
    32
  0
VERTEX
  8
0
  5
2E4B
 10
119.758
 20
-6.59702
 30
0.000000
  70
    32
  0
VERTEX
  8
0
  5
2E4C
 10
119.703
 20
-6.63376
 30
0.000000
  70
    32
  0
VERTEX
  8
0
  5
2E4D
 10
119.650
 20
-6.67222
 30
0.000000
  70
    32
  0
VERTEX
  8
0
  5
2E4E
 10
119.597
 20
-6.71238
 30
0.000000
  70
    32
  0
VERTEX
  8
0
  5
2E4F
 10
119.544
 20
-6.75423
 30
0.000000
  70
    32
  0
VERTEX
  8
0
  5
2E50
 10
119.493
 20
-6.79772
 30
0.000000
  70
    32
  0
VERTEX
  8
0
  5
2E51
 10
119.442
 20
-6.84285
 30
0.000000
  70
    32
  0
VERTEX
  8
0
  5
2E52
 10
119.393
 20
-6.88958
 30
0.000000
  70
    32
  0
VERTEX
  8
0
  5
2E53
 10
119.344
 20
-6.93787
 30
0.000000
  70
    32
  0
VERTEX
  8
0
  5
2E54
 10
119.296
 20
-6.98772
 30
0.000000
  70
    32
  0
VERTEX
  8
0
  5
2E55
 10
119.249
 20
-7.03907
 30
0.000000
  70
    32
  0
VERTEX
  8
0
  5
2E56
 10
119.203
 20
-7.09191
 30
0.000000
  70
    32
  0
VERTEX
  8
0
  5
2E57
 10
119.158
 20
-7.14620
 30
0.000000
  70
    32
  0
VERTEX
  8
0
  5
2E58
 10
119.114
 20
-7.20190
 30
0.000000
  70
    32
  0
VERTEX
  8
0
  5
2E59
 10
119.071
 20
-7.25899
 30
0.000000
  70
    32
  0
VERTEX
  8
0
  5
2E5A
 10
119.030
 20
-7.31743
 30
0.000000
  70
    32
  0
VERTEX
  8
0
  5
2E5B
 10
118.989
 20
-7.37719
 30
0.000000
  70
    32
  0
VERTEX
  8
0
  5
2E5C
 10
118.949
 20
-7.43822
 30
0.000000
  70
    32
  0
VERTEX
  8
0
  5
2E5D
 10
118.911
 20
-7.50050
 30
0.000000
  70
    32
  0
VERTEX
  8
0
  5
2E5E
 10
118.874
 20
-7.56398
 30
0.000000
  70
    32
  0
VERTEX
  8
0
  5
2E5F
 10
118.838
 20
-7.62862
 30
0.000000
  70
    32
  0
VERTEX
  8
0
  5
2E60
 10
118.803
 20
-7.69440
 30
0.000000
  70
    32
  0
VERTEX
  8
0
  5
2E61
 10
118.770
 20
-7.76126
 30
0.000000
  70
    32
  0
VERTEX
  8
0
  5
2E62
 10
118.738
 20
-7.82917
 30
0.000000
  70
    32
  0
VERTEX
  8
0
  5
2E63
 10
118.707
 20
-7.89808
 30
0.000000
  70
    32
  0
VERTEX
  8
0
  5
2E64
 10
118.677
 20
-7.96796
 30
0.000000
  70
    32
  0
VERTEX
  8
0
  5
2E65
 10
118.649
 20
-8.03876
 30
0.000000
  70
    32
  0
VERTEX
  8
0
  5
2E66
 10
118.622
 20
-8.11045
 30
0.000000
  70
    32
  0
VERTEX
  8
0
  5
2E67
 10
118.596
 20
-8.18297
 30
0.000000
  70
    32
  0
VERTEX
  8
0
  5
2E68
 10
118.572
 20
-8.25628
 30
0.000000
  70
    32
  0
VERTEX
  8
0
  5
2E69
 10
118.549
 20
-8.33034
 30
0.000000
  70
    32
  0
VERTEX
  8
0
  5
2E6A
 10
118.528
 20
-8.40511
 30
0.000000
  70
    32
  0
VERTEX
  8
0
  5
2E6B
 10
118.508
 20
-8.48053
 30
0.000000
  70
    32
  0
VERTEX
  8
0
  5
2E6C
 10
118.490
 20
-8.55657
 30
0.000000
  70
    32
  0
VERTEX
  8
0
  5
2E6D
 10
118.473
 20
-8.63318
 30
0.000000
  70
    32
  0
VERTEX
  8
0
  5
2E6E
 10
118.457
 20
-8.71031
 30
0.000000
  70
    32
  0
VERTEX
  8
0
  5
2E6F
 10
118.443
 20
-8.78792
 30
0.000000
  70
    32
  0
VERTEX
  8
0
  5
2E70
 10
118.430
 20
-8.86596
 30
0.000000
  70
    32
  0
VERTEX
  8
0
  5
2E71
 10
118.419
 20
-8.94437
 30
0.000000
  70
    32
  0
VERTEX
  8
0
  5
2E72
 10
118.409
 20
-9.02313
 30
0.000000
  70
    32
  0
VERTEX
  8
0
  5
2E73
 10
118.401
 20
-9.10217
 30
0.000000
  70
    32
  0
VERTEX
  8
0
  5
2E74
 10
118.394
 20
-9.18144
 30
0.000000
  70
    32
  0
VERTEX
  8
0
  5
2E75
 10
118.389
 20
-9.26092
 30
0.000000
  70
    32
  0
VERTEX
  8
0
  5
2E76
 10
118.385
 20
-9.34053
 30
0.000000
  70
    32
  0
VERTEX
  8
0
  5
2E77
 10
118.383
 20
-9.42024
 30
0.000000
  70
    32
  0
VERTEX
  8
0
  5
2E78
 10
118.382
 20
-9.50000
 30
0.000000
  70
    32
  0
VERTEX
  8
0
  5
2E79
 10
118.383
 20
-9.57976
 30
0.000000
  70
    32
  0
VERTEX
  8
0
  5
2E7A
 10
118.385
 20
-9.65947
 30
0.000000
  70
    32
  0
VERTEX
  8
0
  5
2E7B
 10
118.389
 20
-9.73908
 30
0.000000
  70
    32
  0
VERTEX
  8
0
  5
2E7C
 10
118.394
 20
-9.81856
 30
0.000000
  70
    32
  0
VERTEX
  8
0
  5
2E7D
 10
118.401
 20
-9.89783
 30
0.000000
  70
    32
  0
VERTEX
  8
0
  5
2E7E
 10
118.409
 20
-9.97687
 30
0.000000
  70
    32
  0
VERTEX
  8
0
  5
2E7F
 10
118.419
 20
-10.0556
 30
0.000000
  70
    32
  0
VERTEX
  8
0
  5
2E80
 10
118.430
 20
-10.1340
 30
0.000000
  70
    32
  0
VERTEX
  8
0
  5
2E81
 10
118.443
 20
-10.2121
 30
0.000000
  70
    32
  0
VERTEX
  8
0
  5
2E82
 10
118.457
 20
-10.2897
 30
0.000000
  70
    32
  0
VERTEX
  8
0
  5
2E83
 10
118.473
 20
-10.3668
 30
0.000000
  70
    32
  0
VERTEX
  8
0
  5
2E84
 10
118.490
 20
-10.4434
 30
0.000000
  70
    32
  0
VERTEX
  8
0
  5
2E85
 10
118.508
 20
-10.5195
 30
0.000000
  70
    32
  0
VERTEX
  8
0
  5
2E86
 10
118.528
 20
-10.5949
 30
0.000000
  70
    32
  0
VERTEX
  8
0
  5
2E87
 10
118.549
 20
-10.6697
 30
0.000000
  70
    32
  0
VERTEX
  8
0
  5
2E88
 10
118.572
 20
-10.7437
 30
0.000000
  70
    32
  0
VERTEX
  8
0
  5
2E89
 10
118.596
 20
-10.8170
 30
0.000000
  70
    32
  0
VERTEX
  8
0
  5
2E8A
 10
118.622
 20
-10.8896
 30
0.000000
  70
    32
  0
VERTEX
  8
0
  5
2E8B
 10
118.649
 20
-10.9612
 30
0.000000
  70
    32
  0
VERTEX
  8
0
  5
2E8C
 10
118.677
 20
-11.0320
 30
0.000000
  70
    32
  0
VERTEX
  8
0
  5
2E8D
 10
118.707
 20
-11.1019
 30
0.000000
  70
    32
  0
VERTEX
  8
0
  5
2E8E
 10
118.738
 20
-11.1708
 30
0.000000
  70
    32
  0
VERTEX
  8
0
  5
2E8F
 10
118.770
 20
-11.2387
 30
0.000000
  70
    32
  0
VERTEX
  8
0
  5
2E90
 10
118.803
 20
-11.3056
 30
0.000000
  70
    32
  0
VERTEX
  8
0
  5
2E91
 10
118.838
 20
-11.3714
 30
0.000000
  70
    32
  0
VERTEX
  8
0
  5
2E92
 10
118.874
 20
-11.4360
 30
0.000000
  70
    32
  0
VERTEX
  8
0
  5
2E93
 10
118.911
 20
-11.4995
 30
0.000000
  70
    32
  0
VERTEX
  8
0
  5
2E94
 10
118.949
 20
-11.5618
 30
0.000000
  70
    32
  0
VERTEX
  8
0
  5
2E95
 10
118.989
 20
-11.6228
 30
0.000000
  70
    32
  0
VERTEX
  8
0
  5
2E96
 10
119.030
 20
-11.6826
 30
0.000000
  70
    32
  0
VERTEX
  8
0
  5
2E97
 10
119.071
 20
-11.7410
 30
0.000000
  70
    32
  0
VERTEX
  8
0
  5
2E98
 10
119.114
 20
-11.7981
 30
0.000000
  70
    32
  0
VERTEX
  8
0
  5
2E99
 10
119.158
 20
-11.8538
 30
0.000000
  70
    32
  0
VERTEX
  8
0
  5
2E9A
 10
119.203
 20
-11.9081
 30
0.000000
  70
    32
  0
VERTEX
  8
0
  5
2E9B
 10
119.249
 20
-11.9609
 30
0.000000
  70
    32
  0
VERTEX
  8
0
  5
2E9C
 10
119.296
 20
-12.0123
 30
0.000000
  70
    32
  0
VERTEX
  8
0
  5
2E9D
 10
119.344
 20
-12.0621
 30
0.000000
  70
    32
  0
VERTEX
  8
0
  5
2E9E
 10
119.393
 20
-12.1104
 30
0.000000
  70
    32
  0
VERTEX
  8
0
  5
2E9F
 10
119.442
 20
-12.1572
 30
0.000000
  70
    32
  0
VERTEX
  8
0
  5
2EA0
 10
119.493
 20
-12.2023
 30
0.000000
  70
    32
  0
VERTEX
  8
0
  5
2EA1
 10
119.544
 20
-12.2458
 30
0.000000
  70
    32
  0
VERTEX
  8
0
  5
2EA2
 10
119.597
 20
-12.2876
 30
0.000000
  70
    32
  0
VERTEX
  8
0
  5
2EA3
 10
119.650
 20
-12.3278
 30
0.000000
  70
    32
  0
VERTEX
  8
0
  5
2EA4
 10
119.703
 20
-12.3662
 30
0.000000
  70
    32
  0
VERTEX
  8
0
  5
2EA5
 10
119.758
 20
-12.4030
 30
0.000000
  70
    32
  0
VERTEX
  8
0
  5
2EA6
 10
119.813
 20
-12.4380
 30
0.000000
  70
    32
  0
VERTEX
  8
0
  5
2EA7
 10
119.869
 20
-12.4712
 30
0.000000
  70
    32
  0
VERTEX
  8
0
  5
2EA8
 10
119.925
 20
-12.5026
 30
0.000000
  70
    32
  0
VERTEX
  8
0
  5
2EA9
 10
119.982
 20
-12.5322
 30
0.000000
  70
    32
  0
VERTEX
  8
0
  5
2EAA
 10
120.040
 20
-12.5600
 30
0.000000
  70
    32
  0
VERTEX
  8
0
  5
2EAB
 10
120.098
 20
-12.5860
 30
0.000000
  70
    32
  0
VERTEX
  8
0
  5
2EAC
 10
120.156
 20
-12.6101
 30
0.000000
  70
    32
  0
VERTEX
  8
0
  5
2EAD
 10
120.215
 20
-12.6323
 30
0.000000
  70
    32
  0
VERTEX
  8
0
  5
2EAE
 10
120.275
 20
-12.6526
 30
0.000000
  70
    32
  0
VERTEX
  8
0
  5
2EAF
 10
120.334
 20
-12.6710
 30
0.000000
  70
    32
  0
VERTEX
  8
0
  5
2EB0
 10
120.394
 20
-12.6876
 30
0.000000
  70
    32
  0
VERTEX
  8
0
  5
2EB1
 10
120.455
 20
-12.7022
 30
0.000000
  70
    32
  0
VERTEX
  8
0
  5
2EB2
 10
120.515
 20
-12.7148
 30
0.000000
  70
    32
  0
VERTEX
  8
0
  5
2EB3
 10
120.576
 20
-12.7256
 30
0.000000
  70
    32
  0
VERTEX
  8
0
  5
2EB4
 10
120.637
 20
-12.7344
 30
0.000000
  70
    32
  0
VERTEX
  8
0
  5
2EB5
 10
120.698
 20
-12.7412
 30
0.000000
  70
    32
  0
VERTEX
  8
0
  5
2EB6
 10
120.759
 20
-12.7461
 30
0.000000
  70
    32
  0
VERTEX
  8
0
  5
2EB7
 10
120.821
 20
-12.7490
 30
0.000000
  70
    32
  0
VERTEX
  8
0
  5
2EB8
 10
120.882
 20
-12.7500
 30
0.000000
  70
    32
  0
SEQEND
  8
0
  5
2EB9
  0
POLYLINE
  5
18C5
  8
0
 10
120.6319673939515
 20
-41.076059900000089
 30
0.0
 66
     1
 70
     8
  0
VERTEX
  8
0
  5
2EBA
 10
120.632
 20
-41.0761
 30
0.000000
  70
    32
  0
VERTEX
  8
0
  5
2EBB
 10
120.571
 20
-41.0770
 30
0.000000
  70
    32
  0
VERTEX
  8
0
  5
2EBC
 10
120.509
 20
-41.0800
 30
0.000000
  70
    32
  0
VERTEX
  8
0
  5
2EBD
 10
120.448
 20
-41.0849
 30
0.000000
  70
    32
  0
VERTEX
  8
0
  5
2EBE
 10
120.387
 20
-41.0917
 30
0.000000
  70
    32
  0
VERTEX
  8
0
  5
2EBF
 10
120.326
 20
-41.1005
 30
0.000000
  70
    32
  0
VERTEX
  8
0
  5
2EC0
 10
120.265
 20
-41.1112
 30
0.000000
  70
    32
  0
VERTEX
  8
0
  5
2EC1
 10
120.205
 20
-41.1239
 30
0.000000
  70
    32
  0
VERTEX
  8
0
  5
2EC2
 10
120.144
 20
-41.1385
 30
0.000000
  70
    32
  0
VERTEX
  8
0
  5
2EC3
 10
120.084
 20
-41.1550
 30
0.000000
  70
    32
  0
VERTEX
  8
0
  5
2EC4
 10
120.025
 20
-41.1735
 30
0.000000
  70
    32
  0
VERTEX
  8
0
  5
2EC5
 10
119.965
 20
-41.1938
 30
0.000000
  70
    32
  0
VERTEX
  8
0
  5
2EC6
 10
119.906
 20
-41.2160
 30
0.000000
  70
    32
  0
VERTEX
  8
0
  5
2EC7
 10
119.848
 20
-41.2401
 30
0.000000
  70
    32
  0
VERTEX
  8
0
  5
2EC8
 10
119.790
 20
-41.2660
 30
0.000000
  70
    32
  0
VERTEX
  8
0
  5
2EC9
 10
119.732
 20
-41.2938
 30
0.000000
  70
    32
  0
VERTEX
  8
0
  5
2ECA
 10
119.675
 20
-41.3235
 30
0.000000
  70
    32
  0
VERTEX
  8
0
  5
2ECB
 10
119.619
 20
-41.3549
 30
0.000000
  70
    32
  0
VERTEX
  8
0
  5
2ECC
 10
119.563
 20
-41.3881
 30
0.000000
  70
    32
  0
VERTEX
  8
0
  5
2ECD
 10
119.508
 20
-41.4231
 30
0.000000
  70
    32
  0
VERTEX
  8
0
  5
2ECE
 10
119.453
 20
-41.4598
 30
0.000000
  70
    32
  0
VERTEX
  8
0
  5
2ECF
 10
119.400
 20
-41.4983
 30
0.000000
  70
    32
  0
VERTEX
  8
0
  5
2ED0
 10
119.347
 20
-41.5384
 30
0.000000
  70
    32
  0
VERTEX
  8
0
  5
2ED1
 10
119.294
 20
-41.5803
 30
0.000000
  70
    32
  0
VERTEX
  8
0
  5
2ED2
 10
119.243
 20
-41.6238
 30
0.000000
  70
    32
  0
VERTEX
  8
0
  5
2ED3
 10
119.192
 20
-41.6689
 30
0.000000
  70
    32
  0
VERTEX
  8
0
  5
2ED4
 10
119.143
 20
-41.7156
 30
0.000000
  70
    32
  0
VERTEX
  8
0
  5
2ED5
 10
119.094
 20
-41.7639
 30
0.000000
  70
    32
  0
VERTEX
  8
0
  5
2ED6
 10
119.046
 20
-41.8138
 30
0.000000
  70
    32
  0
VERTEX
  8
0
  5
2ED7
 10
118.999
 20
-41.8651
 30
0.000000
  70
    32
  0
VERTEX
  8
0
  5
2ED8
 10
118.953
 20
-41.9180
 30
0.000000
  70
    32
  0
VERTEX
  8
0
  5
2ED9
 10
118.908
 20
-41.9723
 30
0.000000
  70
    32
  0
VERTEX
  8
0
  5
2EDA
 10
118.864
 20
-42.0280
 30
0.000000
  70
    32
  0
VERTEX
  8
0
  5
2EDB
 10
118.821
 20
-42.0851
 30
0.000000
  70
    32
  0
VERTEX
  8
0
  5
2EDC
 10
118.780
 20
-42.1435
 30
0.000000
  70
    32
  0
VERTEX
  8
0
  5
2EDD
 10
118.739
 20
-42.2032
 30
0.000000
  70
    32
  0
VERTEX
  8
0
  5
2EDE
 10
118.699
 20
-42.2643
 30
0.000000
  70
    32
  0
VERTEX
  8
0
  5
2EDF
 10
118.661
 20
-42.3266
 30
0.000000
  70
    32
  0
VERTEX
  8
0
  5
2EE0
 10
118.624
 20
-42.3900
 30
0.000000
  70
    32
  0
VERTEX
  8
0
  5
2EE1
 10
118.588
 20
-42.4547
 30
0.000000
  70
    32
  0
VERTEX
  8
0
  5
2EE2
 10
118.553
 20
-42.5205
 30
0.000000
  70
    32
  0
VERTEX
  8
0
  5
2EE3
 10
118.520
 20
-42.5873
 30
0.000000
  70
    32
  0
VERTEX
  8
0
  5
2EE4
 10
118.488
 20
-42.6552
 30
0.000000
  70
    32
  0
VERTEX
  8
0
  5
2EE5
 10
118.457
 20
-42.7241
 30
0.000000
  70
    32
  0
VERTEX
  8
0
  5
2EE6
 10
118.427
 20
-42.7940
 30
0.000000
  70
    32
  0
VERTEX
  8
0
  5
2EE7
 10
118.399
 20
-42.8648
 30
0.000000
  70
    32
  0
VERTEX
  8
0
  5
2EE8
 10
118.372
 20
-42.9365
 30
0.000000
  70
    32
  0
VERTEX
  8
0
  5
2EE9
 10
118.346
 20
-43.0090
 30
0.000000
  70
    32
  0
VERTEX
  8
0
  5
2EEA
 10
118.322
 20
-43.0823
 30
0.000000
  70
    32
  0
VERTEX
  8
0
  5
2EEB
 10
118.299
 20
-43.1564
 30
0.000000
  70
    32
  0
VERTEX
  8
0
  5
2EEC
 10
118.278
 20
-43.2312
 30
0.000000
  70
    32
  0
VERTEX
  8
0
  5
2EED
 10
118.258
 20
-43.3066
 30
0.000000
  70
    32
  0
VERTEX
  8
0
  5
2EEE
 10
118.240
 20
-43.3826
 30
0.000000
  70
    32
  0
VERTEX
  8
0
  5
2EEF
 10
118.223
 20
-43.4592
 30
0.000000
  70
    32
  0
VERTEX
  8
0
  5
2EF0
 10
118.207
 20
-43.5364
 30
0.000000
  70
    32
  0
VERTEX
  8
0
  5
2EF1
 10
118.193
 20
-43.6140
 30
0.000000
  70
    32
  0
VERTEX
  8
0
  5
2EF2
 10
118.180
 20
-43.6920
 30
0.000000
  70
    32
  0
VERTEX
  8
0
  5
2EF3
 10
118.169
 20
-43.7704
 30
0.000000
  70
    32
  0
VERTEX
  8
0
  5
2EF4
 10
118.159
 20
-43.8492
 30
0.000000
  70
    32
  0
VERTEX
  8
0
  5
2EF5
 10
118.151
 20
-43.9282
 30
0.000000
  70
    32
  0
VERTEX
  8
0
  5
2EF6
 10
118.144
 20
-44.0075
 30
0.000000
  70
    32
  0
VERTEX
  8
0
  5
2EF7
 10
118.139
 20
-44.0870
 30
0.000000
  70
    32
  0
VERTEX
  8
0
  5
2EF8
 10
118.135
 20
-44.1666
 30
0.000000
  70
    32
  0
VERTEX
  8
0
  5
2EF9
 10
118.133
 20
-44.2463
 30
0.000000
  70
    32
  0
VERTEX
  8
0
  5
2EFA
 10
118.132
 20
-44.3261
 30
0.000000
  70
    32
  0
VERTEX
  8
0
  5
2EFB
 10
118.133
 20
-44.4058
 30
0.000000
  70
    32
  0
VERTEX
  8
0
  5
2EFC
 10
118.135
 20
-44.4855
 30
0.000000
  70
    32
  0
VERTEX
  8
0
  5
2EFD
 10
118.139
 20
-44.5651
 30
0.000000
  70
    32
  0
VERTEX
  8
0
  5
2EFE
 10
118.144
 20
-44.6446
 30
0.000000
  70
    32
  0
VERTEX
  8
0
  5
2EFF
 10
118.151
 20
-44.7239
 30
0.000000
  70
    32
  0
VERTEX
  8
0
  5
2F00
 10
118.159
 20
-44.8029
 30
0.000000
  70
    32
  0
VERTEX
  8
0
  5
2F01
 10
118.169
 20
-44.8817
 30
0.000000
  70
    32
  0
VERTEX
  8
0
  5
2F02
 10
118.180
 20
-44.9601
 30
0.000000
  70
    32
  0
VERTEX
  8
0
  5
2F03
 10
118.193
 20
-45.0381
 30
0.000000
  70
    32
  0
VERTEX
  8
0
  5
2F04
 10
118.207
 20
-45.1157
 30
0.000000
  70
    32
  0
VERTEX
  8
0
  5
2F05
 10
118.223
 20
-45.1929
 30
0.000000
  70
    32
  0
VERTEX
  8
0
  5
2F06
 10
118.240
 20
-45.2695
 30
0.000000
  70
    32
  0
VERTEX
  8
0
  5
2F07
 10
118.258
 20
-45.3455
 30
0.000000
  70
    32
  0
VERTEX
  8
0
  5
2F08
 10
118.278
 20
-45.4210
 30
0.000000
  70
    32
  0
VERTEX
  8
0
  5
2F09
 10
118.299
 20
-45.4957
 30
0.000000
  70
    32
  0
VERTEX
  8
0
  5
2F0A
 10
118.322
 20
-45.5698
 30
0.000000
  70
    32
  0
VERTEX
  8
0
  5
2F0B
 10
118.346
 20
-45.6431
 30
0.000000
  70
    32
  0
VERTEX
  8
0
  5
2F0C
 10
118.372
 20
-45.7156
 30
0.000000
  70
    32
  0
VERTEX
  8
0
  5
2F0D
 10
118.399
 20
-45.7873
 30
0.000000
  70
    32
  0
VERTEX
  8
0
  5
2F0E
 10
118.427
 20
-45.8581
 30
0.000000
  70
    32
  0
VERTEX
  8
0
  5
2F0F
 10
118.457
 20
-45.9280
 30
0.000000
  70
    32
  0
VERTEX
  8
0
  5
2F10
 10
118.488
 20
-45.9969
 30
0.000000
  70
    32
  0
VERTEX
  8
0
  5
2F11
 10
118.520
 20
-46.0648
 30
0.000000
  70
    32
  0
VERTEX
  8
0
  5
2F12
 10
118.553
 20
-46.1317
 30
0.000000
  70
    32
  0
VERTEX
  8
0
  5
2F13
 10
118.588
 20
-46.1974
 30
0.000000
  70
    32
  0
VERTEX
  8
0
  5
2F14
 10
118.624
 20
-46.2621
 30
0.000000
  70
    32
  0
VERTEX
  8
0
  5
2F15
 10
118.661
 20
-46.3256
 30
0.000000
  70
    32
  0
VERTEX
  8
0
  5
2F16
 10
118.699
 20
-46.3878
 30
0.000000
  70
    32
  0
VERTEX
  8
0
  5
2F17
 10
118.739
 20
-46.4489
 30
0.000000
  70
    32
  0
VERTEX
  8
0
  5
2F18
 10
118.780
 20
-46.5086
 30
0.000000
  70
    32
  0
VERTEX
  8
0
  5
2F19
 10
118.821
 20
-46.5671
 30
0.000000
  70
    32
  0
VERTEX
  8
0
  5
2F1A
 10
118.864
 20
-46.6242
 30
0.000000
  70
    32
  0
VERTEX
  8
0
  5
2F1B
 10
118.908
 20
-46.6799
 30
0.000000
  70
    32
  0
VERTEX
  8
0
  5
2F1C
 10
118.953
 20
-46.7342
 30
0.000000
  70
    32
  0
VERTEX
  8
0
  5
2F1D
 10
118.999
 20
-46.7870
 30
0.000000
  70
    32
  0
VERTEX
  8
0
  5
2F1E
 10
119.046
 20
-46.8383
 30
0.000000
  70
    32
  0
VERTEX
  8
0
  5
2F1F
 10
119.094
 20
-46.8882
 30
0.000000
  70
    32
  0
VERTEX
  8
0
  5
2F20
 10
119.143
 20
-46.9365
 30
0.000000
  70
    32
  0
VERTEX
  8
0
  5
2F21
 10
119.192
 20
-46.9832
 30
0.000000
  70
    32
  0
VERTEX
  8
0
  5
2F22
 10
119.243
 20
-47.0283
 30
0.000000
  70
    32
  0
VERTEX
  8
0
  5
2F23
 10
119.294
 20
-47.0718
 30
0.000000
  70
    32
  0
VERTEX
  8
0
  5
2F24
 10
119.347
 20
-47.1137
 30
0.000000
  70
    32
  0
VERTEX
  8
0
  5
2F25
 10
119.400
 20
-47.1538
 30
0.000000
  70
    32
  0
VERTEX
  8
0
  5
2F26
 10
119.453
 20
-47.1923
 30
0.000000
  70
    32
  0
VERTEX
  8
0
  5
2F27
 10
119.508
 20
-47.2290
 30
0.000000
  70
    32
  0
VERTEX
  8
0
  5
2F28
 10
119.563
 20
-47.2640
 30
0.000000
  70
    32
  0
VERTEX
  8
0
  5
2F29
 10
119.619
 20
-47.2972
 30
0.000000
  70
    32
  0
VERTEX
  8
0
  5
2F2A
 10
119.675
 20
-47.3287
 30
0.000000
  70
    32
  0
VERTEX
  8
0
  5
2F2B
 10
119.732
 20
-47.3583
 30
0.000000
  70
    32
  0
VERTEX
  8
0
  5
2F2C
 10
119.790
 20
-47.3861
 30
0.000000
  70
    32
  0
VERTEX
  8
0
  5
2F2D
 10
119.848
 20
-47.4120
 30
0.000000
  70
    32
  0
VERTEX
  8
0
  5
2F2E
 10
119.906
 20
-47.4361
 30
0.000000
  70
    32
  0
VERTEX
  8
0
  5
2F2F
 10
119.965
 20
-47.4583
 30
0.000000
  70
    32
  0
VERTEX
  8
0
  5
2F30
 10
120.025
 20
-47.4787
 30
0.000000
  70
    32
  0
VERTEX
  8
0
  5
2F31
 10
120.084
 20
-47.4971
 30
0.000000
  70
    32
  0
VERTEX
  8
0
  5
2F32
 10
120.144
 20
-47.5136
 30
0.000000
  70
    32
  0
VERTEX
  8
0
  5
2F33
 10
120.205
 20
-47.5282
 30
0.000000
  70
    32
  0
VERTEX
  8
0
  5
2F34
 10
120.265
 20
-47.5409
 30
0.000000
  70
    32
  0
VERTEX
  8
0
  5
2F35
 10
120.326
 20
-47.5516
 30
0.000000
  70
    32
  0
VERTEX
  8
0
  5
2F36
 10
120.387
 20
-47.5604
 30
0.000000
  70
    32
  0
VERTEX
  8
0
  5
2F37
 10
120.448
 20
-47.5673
 30
0.000000
  70
    32
  0
VERTEX
  8
0
  5
2F38
 10
120.509
 20
-47.5721
 30
0.000000
  70
    32
  0
VERTEX
  8
0
  5
2F39
 10
120.571
 20
-47.5751
 30
0.000000
  70
    32
  0
VERTEX
  8
0
  5
2F3A
 10
120.632
 20
-47.5761
 30
0.000000
  70
    32
  0
SEQEND
  8
0
  5
2F3B
  0
POLYLINE
  5
18C6
  8
0
 10
120.63196730470111
 20
47.576070099999832
 30
0.0
 66
     1
 70
     8
  0
VERTEX
  8
0
  5
2F3C
 10
120.632
 20
47.5761
 30
0.000000
  70
    32
  0
VERTEX
  8
0
  5
2F3D
 10
120.571
 20
47.5751
 30
0.000000
  70
    32
  0
VERTEX
  8
0
  5
2F3E
 10
120.509
 20
47.5722
 30
0.000000
  70
    32
  0
VERTEX
  8
0
  5
2F3F
 10
120.448
 20
47.5673
 30
0.000000
  70
    32
  0
VERTEX
  8
0
  5
2F40
 10
120.387
 20
47.5604
 30
0.000000
  70
    32
  0
VERTEX
  8
0
  5
2F41
 10
120.326
 20
47.5516
 30
0.000000
  70
    32
  0
VERTEX
  8
0
  5
2F42
 10
120.265
 20
47.5409
 30
0.000000
  70
    32
  0
VERTEX
  8
0
  5
2F43
 10
120.205
 20
47.5282
 30
0.000000
  70
    32
  0
VERTEX
  8
0
  5
2F44
 10
120.144
 20
47.5136
 30
0.000000
  70
    32
  0
VERTEX
  8
0
  5
2F45
 10
120.084
 20
47.4971
 30
0.000000
  70
    32
  0
VERTEX
  8
0
  5
2F46
 10
120.025
 20
47.4787
 30
0.000000
  70
    32
  0
VERTEX
  8
0
  5
2F47
 10
119.965
 20
47.4583
 30
0.000000
  70
    32
  0
VERTEX
  8
0
  5
2F48
 10
119.906
 20
47.4361
 30
0.000000
  70
    32
  0
VERTEX
  8
0
  5
2F49
 10
119.848
 20
47.4120
 30
0.000000
  70
    32
  0
VERTEX
  8
0
  5
2F4A
 10
119.790
 20
47.3861
 30
0.000000
  70
    32
  0
VERTEX
  8
0
  5
2F4B
 10
119.732
 20
47.3583
 30
0.000000
  70
    32
  0
VERTEX
  8
0
  5
2F4C
 10
119.675
 20
47.3287
 30
0.000000
  70
    32
  0
VERTEX
  8
0
  5
2F4D
 10
119.619
 20
47.2973
 30
0.000000
  70
    32
  0
VERTEX
  8
0
  5
2F4E
 10
119.563
 20
47.2640
 30
0.000000
  70
    32
  0
VERTEX
  8
0
  5
2F4F
 10
119.508
 20
47.2290
 30
0.000000
  70
    32
  0
VERTEX
  8
0
  5
2F50
 10
119.453
 20
47.1923
 30
0.000000
  70
    32
  0
VERTEX
  8
0
  5
2F51
 10
119.400
 20
47.1539
 30
0.000000
  70
    32
  0
VERTEX
  8
0
  5
2F52
 10
119.347
 20
47.1137
 30
0.000000
  70
    32
  0
VERTEX
  8
0
  5
2F53
 10
119.294
 20
47.0718
 30
0.000000
  70
    32
  0
VERTEX
  8
0
  5
2F54
 10
119.243
 20
47.0283
 30
0.000000
  70
    32
  0
VERTEX
  8
0
  5
2F55
 10
119.192
 20
46.9832
 30
0.000000
  70
    32
  0
VERTEX
  8
0
  5
2F56
 10
119.143
 20
46.9365
 30
0.000000
  70
    32
  0
VERTEX
  8
0
  5
2F57
 10
119.094
 20
46.8882
 30
0.000000
  70
    32
  0
VERTEX
  8
0
  5
2F58
 10
119.046
 20
46.8384
 30
0.000000
  70
    32
  0
VERTEX
  8
0
  5
2F59
 10
118.999
 20
46.7870
 30
0.000000
  70
    32
  0
VERTEX
  8
0
  5
2F5A
 10
118.953
 20
46.7342
 30
0.000000
  70
    32
  0
VERTEX
  8
0
  5
2F5B
 10
118.908
 20
46.6799
 30
0.000000
  70
    32
  0
VERTEX
  8
0
  5
2F5C
 10
118.864
 20
46.6242
 30
0.000000
  70
    32
  0
VERTEX
  8
0
  5
2F5D
 10
118.821
 20
46.5671
 30
0.000000
  70
    32
  0
VERTEX
  8
0
  5
2F5E
 10
118.780
 20
46.5086
 30
0.000000
  70
    32
  0
VERTEX
  8
0
  5
2F5F
 10
118.739
 20
46.4489
 30
0.000000
  70
    32
  0
VERTEX
  8
0
  5
2F60
 10
118.699
 20
46.3878
 30
0.000000
  70
    32
  0
VERTEX
  8
0
  5
2F61
 10
118.661
 20
46.3256
 30
0.000000
  70
    32
  0
VERTEX
  8
0
  5
2F62
 10
118.624
 20
46.2621
 30
0.000000
  70
    32
  0
VERTEX
  8
0
  5
2F63
 10
118.588
 20
46.1974
 30
0.000000
  70
    32
  0
VERTEX
  8
0
  5
2F64
 10
118.553
 20
46.1317
 30
0.000000
  70
    32
  0
VERTEX
  8
0
  5
2F65
 10
118.520
 20
46.0648
 30
0.000000
  70
    32
  0
VERTEX
  8
0
  5
2F66
 10
118.488
 20
45.9969
 30
0.000000
  70
    32
  0
VERTEX
  8
0
  5
2F67
 10
118.457
 20
45.9280
 30
0.000000
  70
    32
  0
VERTEX
  8
0
  5
2F68
 10
118.427
 20
45.8581
 30
0.000000
  70
    32
  0
VERTEX
  8
0
  5
2F69
 10
118.399
 20
45.7873
 30
0.000000
  70
    32
  0
VERTEX
  8
0
  5
2F6A
 10
118.372
 20
45.7156
 30
0.000000
  70
    32
  0
VERTEX
  8
0
  5
2F6B
 10
118.346
 20
45.6431
 30
0.000000
  70
    32
  0
VERTEX
  8
0
  5
2F6C
 10
118.322
 20
45.5698
 30
0.000000
  70
    32
  0
VERTEX
  8
0
  5
2F6D
 10
118.299
 20
45.4957
 30
0.000000
  70
    32
  0
VERTEX
  8
0
  5
2F6E
 10
118.278
 20
45.4210
 30
0.000000
  70
    32
  0
VERTEX
  8
0
  5
2F6F
 10
118.258
 20
45.3455
 30
0.000000
  70
    32
  0
VERTEX
  8
0
  5
2F70
 10
118.240
 20
45.2695
 30
0.000000
  70
    32
  0
VERTEX
  8
0
  5
2F71
 10
118.223
 20
45.1929
 30
0.000000
  70
    32
  0
VERTEX
  8
0
  5
2F72
 10
118.207
 20
45.1158
 30
0.000000
  70
    32
  0
VERTEX
  8
0
  5
2F73
 10
118.193
 20
45.0381
 30
0.000000
  70
    32
  0
VERTEX
  8
0
  5
2F74
 10
118.180
 20
44.9601
 30
0.000000
  70
    32
  0
VERTEX
  8
0
  5
2F75
 10
118.169
 20
44.8817
 30
0.000000
  70
    32
  0
VERTEX
  8
0
  5
2F76
 10
118.159
 20
44.8029
 30
0.000000
  70
    32
  0
VERTEX
  8
0
  5
2F77
 10
118.151
 20
44.7239
 30
0.000000
  70
    32
  0
VERTEX
  8
0
  5
2F78
 10
118.144
 20
44.6446
 30
0.000000
  70
    32
  0
VERTEX
  8
0
  5
2F79
 10
118.139
 20
44.5652
 30
0.000000
  70
    32
  0
VERTEX
  8
0
  5
2F7A
 10
118.135
 20
44.4855
 30
0.000000
  70
    32
  0
VERTEX
  8
0
  5
2F7B
 10
118.133
 20
44.4058
 30
0.000000
  70
    32
  0
VERTEX
  8
0
  5
2F7C
 10
118.132
 20
44.3261
 30
0.000000
  70
    32
  0
VERTEX
  8
0
  5
2F7D
 10
118.133
 20
44.2463
 30
0.000000
  70
    32
  0
VERTEX
  8
0
  5
2F7E
 10
118.135
 20
44.1666
 30
0.000000
  70
    32
  0
VERTEX
  8
0
  5
2F7F
 10
118.139
 20
44.0870
 30
0.000000
  70
    32
  0
VERTEX
  8
0
  5
2F80
 10
118.144
 20
44.0075
 30
0.000000
  70
    32
  0
VERTEX
  8
0
  5
2F81
 10
118.151
 20
43.9282
 30
0.000000
  70
    32
  0
VERTEX
  8
0
  5
2F82
 10
118.159
 20
43.8492
 30
0.000000
  70
    32
  0
VERTEX
  8
0
  5
2F83
 10
118.169
 20
43.7704
 30
0.000000
  70
    32
  0
VERTEX
  8
0
  5
2F84
 10
118.180
 20
43.6920
 30
0.000000
  70
    32
  0
VERTEX
  8
0
  5
2F85
 10
118.193
 20
43.6140
 30
0.000000
  70
    32
  0
VERTEX
  8
0
  5
2F86
 10
118.207
 20
43.5364
 30
0.000000
  70
    32
  0
VERTEX
  8
0
  5
2F87
 10
118.223
 20
43.4593
 30
0.000000
  70
    32
  0
VERTEX
  8
0
  5
2F88
 10
118.240
 20
43.3826
 30
0.000000
  70
    32
  0
VERTEX
  8
0
  5
2F89
 10
118.258
 20
43.3066
 30
0.000000
  70
    32
  0
VERTEX
  8
0
  5
2F8A
 10
118.278
 20
43.2312
 30
0.000000
  70
    32
  0
VERTEX
  8
0
  5
2F8B
 10
118.299
 20
43.1564
 30
0.000000
  70
    32
  0
VERTEX
  8
0
  5
2F8C
 10
118.322
 20
43.0823
 30
0.000000
  70
    32
  0
VERTEX
  8
0
  5
2F8D
 10
118.346
 20
43.0090
 30
0.000000
  70
    32
  0
VERTEX
  8
0
  5
2F8E
 10
118.372
 20
42.9365
 30
0.000000
  70
    32
  0
VERTEX
  8
0
  5
2F8F
 10
118.399
 20
42.8648
 30
0.000000
  70
    32
  0
VERTEX
  8
0
  5
2F90
 10
118.427
 20
42.7940
 30
0.000000
  70
    32
  0
VERTEX
  8
0
  5
2F91
 10
118.457
 20
42.7242
 30
0.000000
  70
    32
  0
VERTEX
  8
0
  5
2F92
 10
118.488
 20
42.6552
 30
0.000000
  70
    32
  0
VERTEX
  8
0
  5
2F93
 10
118.520
 20
42.5873
 30
0.000000
  70
    32
  0
VERTEX
  8
0
  5
2F94
 10
118.553
 20
42.5205
 30
0.000000
  70
    32
  0
VERTEX
  8
0
  5
2F95
 10
118.588
 20
42.4547
 30
0.000000
  70
    32
  0
VERTEX
  8
0
  5
2F96
 10
118.624
 20
42.3900
 30
0.000000
  70
    32
  0
VERTEX
  8
0
  5
2F97
 10
118.661
 20
42.3266
 30
0.000000
  70
    32
  0
VERTEX
  8
0
  5
2F98
 10
118.699
 20
42.2643
 30
0.000000
  70
    32
  0
VERTEX
  8
0
  5
2F99
 10
118.739
 20
42.2033
 30
0.000000
  70
    32
  0
VERTEX
  8
0
  5
2F9A
 10
118.780
 20
42.1435
 30
0.000000
  70
    32
  0
VERTEX
  8
0
  5
2F9B
 10
118.821
 20
42.0851
 30
0.000000
  70
    32
  0
VERTEX
  8
0
  5
2F9C
 10
118.864
 20
42.0280
 30
0.000000
  70
    32
  0
VERTEX
  8
0
  5
2F9D
 10
118.908
 20
41.9723
 30
0.000000
  70
    32
  0
VERTEX
  8
0
  5
2F9E
 10
118.953
 20
41.9180
 30
0.000000
  70
    32
  0
VERTEX
  8
0
  5
2F9F
 10
118.999
 20
41.8651
 30
0.000000
  70
    32
  0
VERTEX
  8
0
  5
2FA0
 10
119.046
 20
41.8138
 30
0.000000
  70
    32
  0
VERTEX
  8
0
  5
2FA1
 10
119.094
 20
41.7639
 30
0.000000
  70
    32
  0
VERTEX
  8
0
  5
2FA2
 10
119.143
 20
41.7156
 30
0.000000
  70
    32
  0
VERTEX
  8
0
  5
2FA3
 10
119.192
 20
41.6689
 30
0.000000
  70
    32
  0
VERTEX
  8
0
  5
2FA4
 10
119.243
 20
41.6238
 30
0.000000
  70
    32
  0
VERTEX
  8
0
  5
2FA5
 10
119.294
 20
41.5803
 30
0.000000
  70
    32
  0
VERTEX
  8
0
  5
2FA6
 10
119.347
 20
41.5385
 30
0.000000
  70
    32
  0
VERTEX
  8
0
  5
2FA7
 10
119.400
 20
41.4983
 30
0.000000
  70
    32
  0
VERTEX
  8
0
  5
2FA8
 10
119.453
 20
41.4598
 30
0.000000
  70
    32
  0
VERTEX
  8
0
  5
2FA9
 10
119.508
 20
41.4231
 30
0.000000
  70
    32
  0
VERTEX
  8
0
  5
2FAA
 10
119.563
 20
41.3881
 30
0.000000
  70
    32
  0
VERTEX
  8
0
  5
2FAB
 10
119.619
 20
41.3549
 30
0.000000
  70
    32
  0
VERTEX
  8
0
  5
2FAC
 10
119.675
 20
41.3235
 30
0.000000
  70
    32
  0
VERTEX
  8
0
  5
2FAD
 10
119.732
 20
41.2938
 30
0.000000
  70
    32
  0
VERTEX
  8
0
  5
2FAE
 10
119.790
 20
41.2661
 30
0.000000
  70
    32
  0
VERTEX
  8
0
  5
2FAF
 10
119.848
 20
41.2401
 30
0.000000
  70
    32
  0
VERTEX
  8
0
  5
2FB0
 10
119.906
 20
41.2160
 30
0.000000
  70
    32
  0
VERTEX
  8
0
  5
2FB1
 10
119.965
 20
41.1938
 30
0.000000
  70
    32
  0
VERTEX
  8
0
  5
2FB2
 10
120.025
 20
41.1735
 30
0.000000
  70
    32
  0
VERTEX
  8
0
  5
2FB3
 10
120.084
 20
41.1550
 30
0.000000
  70
    32
  0
VERTEX
  8
0
  5
2FB4
 10
120.144
 20
41.1385
 30
0.000000
  70
    32
  0
VERTEX
  8
0
  5
2FB5
 10
120.205
 20
41.1239
 30
0.000000
  70
    32
  0
VERTEX
  8
0
  5
2FB6
 10
120.265
 20
41.1112
 30
0.000000
  70
    32
  0
VERTEX
  8
0
  5
2FB7
 10
120.326
 20
41.1005
 30
0.000000
  70
    32
  0
VERTEX
  8
0
  5
2FB8
 10
120.387
 20
41.0917
 30
0.000000
  70
    32
  0
VERTEX
  8
0
  5
2FB9
 10
120.448
 20
41.0849
 30
0.000000
  70
    32
  0
VERTEX
  8
0
  5
2FBA
 10
120.509
 20
41.0800
 30
0.000000
  70
    32
  0
VERTEX
  8
0
  5
2FBB
 10
120.571
 20
41.0770
 30
0.000000
  70
    32
  0
VERTEX
  8
0
  5
2FBC
 10
120.632
 20
41.0761
 30
0.000000
  70
    32
  0
SEQEND
  8
0
  5
2FBD
  0
ARC
  5
2912
  8
0
 10
-27.25006999999993
 20
-47.198370000000068
 30
0.0
 40
5.3000002000000013
 50
204.94056897012521
 51
5.0000415134409613
  0
LINE
  5
2B83
  8
0
  6
CENTER
 10
-0.0000400000000127
 20
0.0
 30
0.0
 11
-32.441430000000082
 21
56.190139999999921
 31
0.0
  0
LINE
  5
2B85
  8
0
 10
-22.086660000000052
 20
39.668730000000089
 30
0.0
 11
-21.262100000000029
 21
49.093529999999873
 31
0.0
  0
LINE
  5
2B86
  8
0
 10
-15.65633000000002
 20
51.504300000000278
 30
0.0
 11
-26.78814999999997
 21
52.47820999999999
 31
0.0
  0
LINE
  5
2B87
  8
0
 10
-20.834699999999991
 20
38.358920000000353
 30
0.0
 11
-21.513100000000001
 21
38.675269999999948
 31
0.0
  0
LINE
  5
2B88
  8
0
 10
-22.802569999999939
 20
37.222770000000082
 30
0.0
 11
-21.970230000000011
 21
46.73644000000035
 31
0.0
  0
LINE
  5
2B89
  8
0
 10
-36.775979999999997
 20
39.310850000000073
 30
0.0
 11
-32.053500000000092
 21
49.438240000000171
 31
0.0
  0
LINE
  5
2B8A
  8
0
 10
-9.9785800000000791
 20
44.99243999999976
 30
0.0
 11
-19.948870000000049
 21
49.641660000000002
 31
0.0
  0
LINE
  5
2B8B
  8
0
 10
-30.683239999999952
 20
35.470430000000071
 30
0.0
 11
-37.158739999999959
 21
38.490010000000211
 31
0.0
  0
LINE
  5
2B8C
  8
0
 10
47.499259999999992
 20
12.774400000000011
 30
0.0
 11
51.354089999999928
 21
14.99999000000002
 31
0.0
  0
ARC
  5
2B8D
  8
0
 10
-0.0000400000000127
 20
0.0
 30
0.0
 40
53.5
 50
134.91933999998841
 51
225.08065999999781
  0
ARC
  5
2B8E
  8
0
 10
-0.0000400000000127
 20
0.0
 30
0.0
 40
54.5
 50
108.59472999999851
 51
131.40532999999141
  0
ARC
  5
2B8F
  8
0
 10
-0.0000400000000127
 20
0.0
 30
0.0
 40
42.5
 50
124.5299900000005
 51
235.47000999999941
  0
ARC
  5
2B90
  8
0
 10
-21.09050000000002
 20
39.581579999999803
 30
0.0
 40
1.0
 50
175.0000000000002
 51
244.99999999999619
  0
ARC
  5
2B91
  8
0
 10
-19.566850000000041
 20
41.077860000000101
 30
0.0
 40
3.0
 50
244.99999999999619
 51
295.4700670000064
  0
ARC
  5
2B92
  8
0
 10
-41.307540000000017
 20
41.423930000000148
 30
0.0
 40
5.0
 50
314.91934399999599
 51
334.99999999999329
  0
ARC
  5
2B93
  8
0
 10
-15.22056000000009
 20
56.4852699999999
 30
0.0
 40
5.0
 50
264.99999799999921
 51
285.08072699999832
  0
ARC
  5
2B94
  8
0
 10
-25.79118000000005
 20
37.484239999999993
 30
0.0
 40
3.0
 50
304.52999200000102
 51
355.0000001000156
  0
ARC
  5
2B95
  8
0
 10
-0.0000400000000127
 20
0.0
 30
0.0
 40
45.499999999999993
 50
131.98545999999499
 51
228.01454000000129
  0
ARC
  5
2B96
  8
0
 10
-0.0000400000000127
 20
0.0
 30
0.0
 40
45.499999999999993
 50
18.479080000000881
 51
100.34653999999961
  0
ARC
  5
2B97
  8
0
 10
-8.7107100000000628
 20
47.711360000000013
 30
0.0
 40
3.0
 50
244.99999999999619
 51
280.34653200000099
  0
ARC
  5
2B98
  8
0
 10
-31.105850000000029
 20
34.564119999999768
 30
0.0
 40
1.0
 50
311.9854610000088
 51
64.99999999999622
  0
ARC
  5
2B99
  8
0
 10
-0.0000400000000127
 20
0.0
 30
0.0
 40
42.5
 50
8.84987999999076
 51
115.4700700000044
  0
ARC
  5
2B9A
  8
0
 10
-0.0000400000000127
 20
0.0
 30
0.0
 40
53.5
 50
17.836770000006592
 51
113.41709000000181
  0
ARC
  5
2B9B
  8
0
 10
45.999249999999961
 20
15.372479999999991
 30
0.0
 40
3.0
 50
198.4790699999989
 51
299.9999979999987
  0
ARC
  5
2B9D
  8
0
 10
-27.25006999999993
 20
47.198369999999841
 30
0.0
 40
5.3000002000000013
 50
354.99995848655902
 51
155.0594310298608
  0
CIRCLE
  5
2BA1
  8
0
 10
-27.25006999999993
 20
-47.198370000000068
 30
0.0
 40
2.5999998999999989
  0
CIRCLE
  5
2BA2
  8
0
 10
-27.25006999999993
 20
47.198369999999841
 30
0.0
 40
2.5999998999999989
  0
ARC
  5
2BA3
  8
0
 10
66.999939999999924
 20
13.999999999999771
 30
0.0
 40
1.0
 50
0.0
 51
90.0
  0
LINE
  5
2BA4
  8
0
 10
56.999960000000002
 20
29.467959192430719
 30
0.0
 11
56.99995999999998
 21
39.428229999999751
 31
0.0
  0
LINE
  5
2BA5
  8
0
 10
64.999939999999924
 20
29.467959192430719
 30
0.0
 11
64.999939999999924
 21
39.428229999999751
 31
0.0
  0
LINE
  5
2BA6
  8
0
 10
55.24995999999998
 20
29.200009999999789
 30
0.0
 11
66.749939999999924
 21
29.200009999999789
 31
0.0
  0
ARC
  5
2BA7
  8
0
 10
66.749939999999924
 20
27.200009999999789
 30
0.0
 40
2.0
 50
0.0
 51
90.0
  0
ARC
  5
2BA8
  8
0
 10
55.24995999999998
 20
27.200009999999789
 30
0.0
 40
2.0
 50
90.0
 51
180.0
  0
CIRCLE
  5
2C63
  8
0
 10
60.999959999999987
 20
-9.5
 30
0.0
 40
3.2500001000000789
  0
TEXT
  5
2C99
  8
0
 10
40.790683452217529
 20
77.52175783752557
 30
0.0
 40
5.0
  1
13MHHM-3LW 3S
  0
VIEWPORT
  5
79
 67
     1
  8
0
 10
5.2499996395561617
 20
3.9999998836066761
 30
0.0
 40
15.015580297613511
 41
8.5939224089826052
 68
     1
 69
     1
1001
ACAD
1000
MVIEW
1002
{
1070
    16
1010
0.0
1020
0.0
1030
0.0
1010
0.0
1020
0.0
1030
1.0
1040
0.0
1040
8.5939224089826052
1040
5.2499996395561617
1040
3.9999998836066761
1040
50.0
1040
0.0
1040
0.0
1070
     0
1070
   100
1070
     1
1070
     1
1070
     0
1070
     0
1070
     0
1070
     0
1040
0.0
1040
0.0
1040
0.0
1040
10.0
1040
10.0
1040
10.0
1040
10.0
1070
     0
1002
{
1002
}
1002
}
1001
GENIUS_GENOBJ-N-SDF_13
1002
{
1000
OWNER
1000
GEN
1002
}
1001
GENIUS_GENODEF_13
1002
{
1000
HIER
1070
     0
1002
}
1002
{
1000
MANEDIT
1070
     0
1002
}
1002
{
1000
NOSEL
1070
     0
1002
}
1002
{
1000
BEHIND
1070
     0
1002
}
1002
{
1000
OTHER
1070
     0
1002
}
1002
{
1000
REACTOR
1002
}
1001
GENIUS_GENSCREG_15
1000
PF
1040
1.0
1000
DF
1040
1.0
1000
MIN
1011
-2.2577905092505972
1021
1.6335286103281437E+091
1031
2.5523884500805915E+089
1021
-0.2969613208846251
1031
0.0
1000
MAX
1011
12.757789788362921
1021
1.6335286103281437E+091
1031
2.5523884500805915E+089
1021
8.2969610880979801
1031
0.0
1000
FLAGS
1070
     4
  0
VIEWPORT
  5
7B
 67
     1
  8
0
 10
5.24999976158142
 20
3.99999976158142
 30
0.0
 40
8.3999996185302717
 41
6.3999996185302717
 68
     2
 69
     2
1001
ACAD
1000
MVIEW
1002
{
1070
    16
1010
0.0
1020
0.0
1030
0.0
1010
0.0
1020
0.0
1030
1.0
1040
0.0
1040
9.2590797717467002
1040
6.0
1040
4.5
1040
50.0
1040
0.0
1040
0.0
1070
     0
1070
   100
1070
     1
1070
     3
1070
     0
1070
     0
1070
     0
1070
     0
1040
0.0
1040
0.0
1040
0.0
1040
0.5
1040
0.5
1040
0.5
1040
0.5
1070
     0
1002
{
1002
}
1002
}
1001
GENIUS_GENODEF_13
1002
{
1000
HIER
1070
     0
1002
}
1002
{
1000
MANEDIT
1070
     0
1002
}
1002
{
1000
NOSEL
1070
     0
1002
}
1002
{
1000
BEHIND
1070
     0
1002
}
1002
{
1000
OTHER
1070
     0
1002
}
1002
{
1000
REACTOR
1002
}
1001
GENIUS_GENOBJ-N-SDF_13
1002
{
1000
OWNER
1000
GEN
1002
}
1001
GENIUS_GENSCREG_15
1000
PF
1040
0.0
1000
DF
1040
0.0
1000
MIN
1011
1.049999952316284
1021
1.6335286103281437E+091
1031
2.5523884500805915E+089
1021
0.7999999523162842
1031
0.0
1000
MAX
1011
9.4499995708465558
1021
1.6335286103281437E+091
1031
2.5523884500805915E+089
1021
7.1999995708465558
1031
0.0
1000
FLAGS
1070
     4
  0
ENDSEC
  0
EOF
