  0
SECTION
  2
HEADER
  9
$ACADVER
  1
AC1009
  9
$INSBASE
 10
0.0
 20
0.0
 30
0.0
  9
$EXTMIN
 10
-398.33335833333371
 20
-128.00649970732769
 30
0.0
  9
$EXTMAX
 10
398.33330833333292
 20
353.57349611461848
 30
0.0
  9
$LIMMIN
 10
0.0
 20
0.0
  9
$LIMMAX
 10
420.0
 20
297.0
  9
$ORTHOMODE
 70
     0
  9
$REGENMODE
 70
     1
  9
$FILLMODE
 70
     1
  9
$QTEXTMODE
 70
     0
  9
$MIRRTEXT
 70
     1
  9
$DRAGMODE
 70
     2
  9
$LTSCALE
 40
1.0
  9
$OSMODE
 70
    37
  9
$ATTMODE
 70
     1
  9
$TEXTSIZE
 40
73.985717453579113
  9
$TRACEWID
 40
1.0
  9
$TEXTSTYLE
  7
STANDARD
  9
$CLAYER
  8
0
  9
$CELTYPE
  6
BYLAYER
  9
$CECOLOR
 62
   256
  9
$DIMSCALE
 40
1.0
  9
$DIMASZ
 40
0.18
  9
$DIMEXO
 40
0.0625
  9
$DIMDLI
 40
0.38
  9
$DIMRND
 40
0.0
  9
$DIMDLE
 40
0.0
  9
$DIMEXE
 40
0.18
  9
$DIMTP
 40
0.0
  9
$DIMTM
 40
0.0
  9
$DIMTXT
 40
30.0
  9
$DIMCEN
 40
0.09
  9
$DIMTSZ
 40
0.0
  9
$DIMTOL
 70
     0
  9
$DIMLIM
 70
     0
  9
$DIMTIH
 70
     1
  9
$DIMTOH
 70
     1
  9
$DIMSE1
 70
     0
  9
$DIMSE2
 70
     0
  9
$DIMTAD
 70
     0
  9
$DIMZIN
 70
     0
  9
$DIMBLK
  1

  9
$DIMASO
 70
     1
  9
$DIMSHO
 70
     1
  9
$DIMPOST
  1

  9
$DIMAPOST
  1

  9
$DIMALT
 70
     0
  9
$DIMALTD
 70
     2
  9
$DIMALTF
 40
25.399999999999999
  9
$DIMLFAC
 40
1.0
  9
$DIMTOFL
 70
     0
  9
$DIMTVP
 40
0.0
  9
$DIMTIX
 70
     0
  9
$DIMSOXD
 70
     0
  9
$DIMSAH
 70
     0
  9
$DIMBLK1
  1

  9
$DIMBLK2
  1

  9
$DIMSTYLE
  2
STANDARD
  9
$DIMCLRD
 70
     0
  9
$DIMCLRE
 70
     0
  9
$DIMCLRT
 70
     0
  9
$DIMTFAC
 40
1.0
  9
$DIMGAP
 40
0.09
  9
$LUNITS
 70
     2
  9
$LUPREC
 70
     8
  9
$SKETCHINC
 40
1.0
  9
$FILLETRAD
 40
0.0
  9
$AUNITS
 70
     0
  9
$AUPREC
 70
     8
  9
$MENU
  1
.
  9
$ELEVATION
 40
0.0
  9
$PELEVATION
 40
0.0
  9
$THICKNESS
 40
0.0
  9
$LIMCHECK
 70
     0
  9
$BLIPMODE
 70
     0
  9
$CHAMFERA
 40
2.5
  9
$CHAMFERB
 40
2.5
  9
$SKPOLY
 70
     0
  9
$TDCREATE
 40
2454739.7204081588
  9
$TDUPDATE
 40
2454749.756993264
  9
$TDINDWG
 40
0.3107704051
  9
$TDUSRTIMER
 40
0.3107704051
  9
$USRTIMER
 70
     1
  9
$ANGBASE
 50
0.0
  9
$ANGDIR
 70
     1
  9
$PDMODE
 70
     0
  9
$PDSIZE
 40
0.0
  9
$PLINEWID
 40
0.0
  9
$COORDS
 70
     1
  9
$SPLFRAME
 70
     0
  9
$SPLINETYPE
 70
     6
  9
$SPLINESEGS
 70
     8
  9
$ATTDIA
 70
     0
  9
$ATTREQ
 70
     1
  9
$HANDLING
 70
 22529
  9
$HANDSEED
  5
833C
  9
$SURFTAB1
 70
     6
  9
$SURFTAB2
 70
     6
  9
$SURFTYPE
 70
     6
  9
$SURFU
 70
     6
  9
$SURFV
 70
     6
  9
$UCSNAME
  2

  9
$UCSORG
 10
0.0
 20
0.0
 30
0.0
  9
$UCSXDIR
 10
1.0
 20
0.0
 30
0.0
  9
$UCSYDIR
 10
0.0
 20
1.0
 30
0.0
  9
$PUCSNAME
  2

  9
$PUCSORG
 10
0.0
 20
0.0
 30
0.0
  9
$PUCSXDIR
 10
1.0
 20
0.0
 30
0.0
  9
$PUCSYDIR
 10
0.0
 20
1.0
 30
0.0
  9
$USERI1
 70
     0
  9
$USERI2
 70
     0
  9
$USERI3
 70
     0
  9
$USERI4
 70
     0
  9
$USERI5
 70
     0
  9
$USERR1
 40
0.0
  9
$USERR2
 40
0.0
  9
$USERR3
 40
0.0
  9
$USERR4
 40
0.0
  9
$USERR5
 40
0.0
  9
$WORLDVIEW
 70
     1
  9
$SHADEDGE
 70
     3
  9
$SHADEDIF
 70
    70
  9
$TILEMODE
 70
     1
  9
$MAXACTVP
 70
    48
  9
$PLIMCHECK
 70
     0
  9
$PEXTMIN
 10
1.0000000000000000E+020
 20
1.0000000000000000E+020
 30
1.0000000000000000E+020
  9
$PEXTMAX
 10
-1.0000000000000000E+020
 20
-1.0000000000000000E+020
 30
-1.0000000000000000E+020
  9
$PLIMMIN
 10
0.0
 20
0.0
  9
$PLIMMAX
 10
420.0
 20
297.0
  9
$UNITMODE
 70
     0
  9
$VISRETAIN
 70
     1
  9
$PLINEGEN
 70
     0
  9
$PSLTSCALE
 70
     1
  0
ENDSEC
  0
SECTION
  2
TABLES
  0
TABLE
  2
VPORT
 70
     2
  0
VPORT
  2
*ACTIVE
 70
     0
 10
0.0
 20
0.0
 11
1.0
 21
1.0
 12
-0.0117719116947228
 22
112.7835004462454
 13
0.0
 23
0.0
 14
2.5
 24
2.5
 15
10.0
 25
10.0
 16
0.0
 26
0.0
 36
1.0
 17
0.0
 27
0.0
 37
0.0
 40
522.84596582982704
 41
1.531806615776081
 42
50.0
 43
0.0
 44
0.0
 50
0.0
 51
0.0
 71
     0
 72
   100
 73
     1
 74
     3
 75
     0
 76
     0
 77
     0
 78
     0
  0
ENDTAB
  0
TABLE
  2
LTYPE
 70
     2
  0
LTYPE
  2
CONTINUOUS
 70
     0
  3
Solid line
 72
    65
 73
     0
 40
0.0
  0
LTYPE
  2
CENTER
 70
     0
  3
__ . __
 72
    65
 73
     4
 40
7.0
 49
4.0
 49
-1.0
 49
1.0
 49
-1.0
  0
ENDTAB
  0
TABLE
  2
LAYER
 70
     1
  0
LAYER
  2
0
 70
     0
 62
     7
  6
CONTINUOUS
  0
ENDTAB
  0
TABLE
  2
STYLE
 70
     2
  0
STYLE
  2
STANDARD
 70
     0
 40
0.0
 41
0.7
 50
0.0
 71
     0
 42
73.985717453579113
  3
romans.shx
  4
bigfont.shx
  0
STYLE
  2
TSKDIM
 70
     0
 40
0.0
 41
0.75
 50
0.0
 71
     0
 42
4.0
  3
romans.shx
  4
EXTFONT.SHX
  0
ENDTAB
  0
TABLE
  2
VIEW
 70
     0
  0
ENDTAB
  0
TABLE
  2
UCS
 70
     0
  0
ENDTAB
  0
TABLE
  2
APPID
 70
    41
  0
APPID
  2
ACAD
 70
     0
  0
APPID
  2
MCAD_NO_VIS
 70
     0
  0
APPID
  2
ACAD_TEMP_GRAPHIC
 70
     0
  0
APPID
  2
ACATTRIBSERVICES
 70
     0
  0
APPID
  2
AD_DRAW
 70
     0
  0
APPID
  2
DESIGNERASSEMBLIES
 70
     0
  0
APPID
  2
ASURF_PCURVE_APPNAME
 70
     0
  0
APPID
  2
ACADM_DIM_EDIT
 70
     0
  0
APPID
  2
GENIUS_GENDIM_13
 70
     0
  0
APPID
  2
GENIUS_GENDTOL_13
 70
     0
  0
APPID
  2
GENIUS_GE3DTOL_13
 70
     0
  0
APPID
  2
AMG_3D2D_5_0
 70
     0
  0
APPID
  2
AMDT_DM_ADJ
 70
     0
  0
APPID
  2
CK_MATE-SERIES
 70
     0
  0
APPID
  2
GEVID1042077799
 70
     0
  0
APPID
  2
GEVMK
 70
     0
  0
APPID
  2
GEVDC
 70
     0
  0
APPID
  2
GENIUS_GENBH_13
 70
     0
  0
APPID
  2
GENIUS_GENOLIS_13
 70
     0
  0
APPID
  2
GENIUS_GENOENT_13
 70
     0
  0
APPID
  2
GENIUS_GENODEF_13
 70
     0
  0
APPID
  2
GENIUS_GENOBJ-NBEHI-BHF_13
 70
     0
  0
APPID
  2
GENIUS_GENOREF_13
 70
     0
  0
APPID
  2
GENIUS_GENOBJ-NBEHI-BHB_13
 70
     0
  0
APPID
  2
GEVID1042183772
 70
     0
  0
APPID
  2
GEVID1042183773
 70
     0
  0
APPID
  2
GEVID1042183774
 70
     0
  0
APPID
  2
DCO15
 70
     0
  0
APPID
  2
ACAD_DSTYLE_DIMARC_LENGTH_
 70
     0
  0
APPID
  2
ACAD_DSTYLE_DIMJOGGED_JOGA
 70
     0
  0
APPID
  2
ACAD_MLEADERVER
 70
     0
  0
APPID
  2
ACAD_DSTYLE_DIMJAG
 70
     0
  0
APPID
  2
ACAD_DSTYLE_DIMTALN
 70
     0
  0
APPID
  2
ACAD_PSEXT
 70
     0
  0
APPID
  2
ACAD_EXEMPT_FROM_CAD_STANDARDS
 70
     0
  0
APPID
  2
ACAD_DSTYLE_DIMINSPECT
 70
     0
  0
APPID
  2
ACAD_DSTYLE_DIMANGULAR_EXT
 70
     0
  0
APPID
  2
GENIUS_GENOBJ-N-FIL_13
 70
     0
  0
APPID
  2
ACAD_DSTYLE_DIM_LINETYPE
 70
     0
  0
APPID
  2
ACAD_DSTYLE_DIM_EXT1_LINETYPE
 70
     0
  0
APPID
  2
ACAD_DSTYLE_DIM_EXT2_LINETYPE
 70
     0
  0
ENDTAB
  0
TABLE
  2
DIMSTYLE
 70
     1
  0
DIMSTYLE
  2
STANDARD
 70
     0
  3

  4

  5

  6

  7

 40
1.0
 41
0.18
 42
0.0625
 43
0.38
 44
0.18
 45
0.0
 46
0.0
 47
0.0
 48
0.0
140
30.0
141
0.09
142
0.0
143
25.399999999999999
144
1.0
145
0.0
146
1.0
147
0.09
 71
     0
 72
     0
 73
     1
 74
     1
 75
     0
 76
     0
 77
     0
 78
     0
170
     0
171
     2
172
     0
173
     0
174
     0
175
     0
176
     0
177
     0
178
     0
  0
ENDTAB
  0
ENDSEC
  0
SECTION
  2
BLOCKS
  0
BLOCK
  8
0
  2
$MODEL_SPACE
 70
     0
 10
0.0
 20
0.0
 30
0.0
  3
$MODEL_SPACE
  1

  0
ENDBLK
  5
21
  8
0
  0
BLOCK
 67
     1
  8
0
  2
$PAPER_SPACE
 70
     0
 10
0.0
 20
0.0
 30
0.0
  3
$PAPER_SPACE
  1

  0
ENDBLK
  5
1D
 67
     1
  8
0
  0
BLOCK
  8
0
  2
_OPEN
 70
     0
 10
0.0
 20
0.0
 30
0.0
  3
_OPEN
  1

  0
LINE
  5
15A
  8
0
  6
BYBLOCK
 62
     0
 10
-1.0
 20
0.1666666666666666
 30
0.0
 11
0.0
 21
0.0
 31
0.0
  0
LINE
  5
15B
  8
0
  6
BYBLOCK
 62
     0
 10
-1.0
 20
-0.1666666666666666
 30
0.0
 11
0.0
 21
0.0
 31
0.0
  0
LINE
  5
15C
  8
0
  6
BYBLOCK
 62
     0
 10
0.0
 20
0.0
 30
0.0
 11
-1.0
 21
0.0
 31
0.0
  0
ENDBLK
  5
15E
  8
0
  0
ENDSEC
  0
SECTION
  2
ENTITIES
  0
LINE
  5
7A8D
  8
0
 10
8.1394043000000238
 20
-82.800040999999965
 30
0.0
 11
-3.1305952000000161
 21
-73.800003000000288
 31
0.0
  0
LINE
  5
7A8E
  8
0
 10
-77.5
 20
-56.800003000000281
 30
0.0
 11
77.5
 21
-56.800003000000281
 31
0.0
  0
LINE
  5
7A8F
  8
0
 10
-77.5
 20
-56.800003000000281
 30
0.0
 11
-77.5
 21
-59.800003000000281
 31
0.0
  0
LINE
  5
7A90
  8
0
 10
77.5
 20
-56.800003000000281
 30
0.0
 11
77.5
 21
-59.800003000000281
 31
0.0
  0
LINE
  5
7A91
  8
0
 10
72.5
 20
-56.800003000000281
 30
0.0
 11
72.5
 21
-60.28271500000028
 31
0.0
  0
LINE
  5
7A92
  8
0
 10
-77.5
 20
-59.800003000000281
 30
0.0
 11
-72.5
 21
-59.800003000000281
 31
0.0
  0
LINE
  5
7A93
  8
0
 10
10.11586800000009
 20
-73.800003000000288
 30
0.0
 11
70.030715999999984
 21
-63.235396999999921
 31
0.0
  0
LINE
  5
7A94
  8
0
 10
-72.5
 20
-56.800003000000281
 30
0.0
 11
-72.5
 21
-60.28271500000028
 31
0.0
  0
LINE
  5
7A95
  8
0
 10
-10.115911000000089
 20
-73.800003000000288
 30
0.0
 11
-70.028090999999904
 21
-63.235869999999977
 31
0.0
  0
LINE
  5
7A96
  8
0
 10
72.5
 20
-59.800003000000281
 30
0.0
 11
77.5
 21
-59.800003000000281
 31
0.0
  0
LINE
  5
7A97
  8
0
 10
-71.0
 20
4.4999969999996656
 30
0.0
 11
-71.0
 21
-41.700012000000243
 31
0.0
  0
LINE
  5
7A98
  8
0
 10
-59.0
 20
4.4999969999996656
 30
0.0
 11
-59.0
 21
-41.700012000000243
 31
0.0
  0
LINE
  5
7A9A
  8
0
 10
-71.0
 20
-31.500003000000291
 30
0.0
 11
-59.0
 21
-31.500003000000291
 31
0.0
  0
LINE
  5
7A9B
  8
0
 10
-70.0
 20
-31.500003000000291
 30
0.0
 11
-70.0
 21
-41.700012000000243
 31
0.0
  0
LINE
  5
7A9C
  8
0
 10
-60.0
 20
-31.500003000000291
 30
0.0
 11
-60.0
 21
-41.700012000000243
 31
0.0
  0
LINE
  5
7A9D
  8
0
 10
-59.999874000000091
 20
-31.500079999999979
 30
0.0
 11
-58.999874000000091
 21
-29.76802800000014
 31
0.0
  0
LINE
  5
7A9E
  8
0
 10
-69.999915999999985
 20
-31.49995700000018
 30
0.0
 11
-70.999915999999985
 21
-29.76790600000022
 31
0.0
  0
LINE
  5
7A9F
  8
0
 10
-77.0
 20
-54.300003000000281
 30
0.0
 11
-53.0
 21
-54.300003000000281
 31
0.0
  0
LINE
  5
7AA0
  8
0
 10
-77.0
 20
-54.300003000000281
 30
0.0
 11
-77.0
 21
-56.800003000000281
 31
0.0
  0
LINE
  5
7AA1
  8
0
 10
-53.0
 20
-54.300003000000281
 30
0.0
 11
-53.0
 21
-56.800003000000281
 31
0.0
  0
LINE
  5
7AA2
  8
0
 10
-75.5
 20
-52.500015000000069
 30
0.0
 11
-54.5
 21
-52.500015000000069
 31
0.0
  0
LINE
  5
7AA3
  8
0
 10
-74.65362499999992
 20
-52.500015000000069
 30
0.0
 11
-74.65362499999992
 21
-54.300003000000281
 31
0.0
  0
LINE
  5
7AA4
  8
0
 10
-73.40362499999992
 20
-52.500015000000069
 30
0.0
 11
-73.40362499999992
 21
-54.300003000000281
 31
0.0
  0
LINE
  5
7AA5
  8
0
 10
-75.5
 20
-52.500015000000069
 30
0.0
 11
-75.5
 21
-54.300003000000281
 31
0.0
  0
LINE
  5
7AA6
  8
0
 10
-71.295227000000054
 20
-52.500015000000069
 30
0.0
 11
-71.295227000000054
 21
-54.300003000000281
 31
0.0
  0
LINE
  5
7AA7
  8
0
 10
-69.130126999999902
 20
-52.500015000000069
 30
0.0
 11
-69.130126999999902
 21
-54.300003000000281
 31
0.0
  0
LINE
  5
7AA8
  8
0
 10
-66.25
 20
-52.500015000000069
 30
0.0
 11
-66.25
 21
-54.300003000000281
 31
0.0
  0
LINE
  5
7AA9
  8
0
 10
-63.75
 20
-52.500015000000069
 30
0.0
 11
-63.75
 21
-54.300003000000281
 31
0.0
  0
LINE
  5
7AAA
  8
0
 10
-60.869873000000098
 20
-52.500015000000069
 30
0.0
 11
-60.869873000000098
 21
-54.300003000000281
 31
0.0
  0
LINE
  5
7AAB
  8
0
 10
-58.704833999999892
 20
-52.500015000000069
 30
0.0
 11
-58.704833999999892
 21
-54.300003000000281
 31
0.0
  0
LINE
  5
7AAC
  8
0
 10
-54.5
 20
-52.500015000000069
 30
0.0
 11
-54.5
 21
-54.300003000000281
 31
0.0
  0
LINE
  5
7AAD
  8
0
 10
-56.59643600000004
 20
-52.500015000000069
 30
0.0
 11
-56.59643600000004
 21
-54.300003000000281
 31
0.0
  0
LINE
  5
7AAE
  8
0
 10
-55.34643600000004
 20
-52.500015000000069
 30
0.0
 11
-55.34643600000004
 21
-54.300003000000281
 31
0.0
  0
LINE
  5
7AAF
  8
0
 10
-73.999953999999889
 20
-41.70010400000001
 30
0.0
 11
-75.392264999999952
 21
-42.503952000000019
 31
0.0
  0
LINE
  5
7AB0
  8
0
 10
-74.0
 20
-41.700012000000243
 30
0.0
 11
-56.0
 21
-41.700012000000243
 31
0.0
  0
LINE
  5
7AB1
  8
0
 10
-56.00000799999998
 20
-41.699978000000101
 30
0.0
 11
-54.607727000000061
 21
-42.503811000000042
 31
0.0
  0
LINE
  5
7AB2
  8
0
 10
-70.196167000000059
 20
-42.503859999999797
 30
0.0
 11
-70.196167000000059
 21
-52.500015000000069
 31
0.0
  0
LINE
  5
7AB3
  8
0
 10
-59.8038939999999
 20
-42.503859999999797
 30
0.0
 11
-59.8038939999999
 21
-52.500015000000069
 31
0.0
  0
LINE
  5
7AB4
  8
0
 10
-75.392333999999892
 20
-42.503859999999797
 30
0.0
 11
-75.392333999999892
 21
-52.500015000000069
 31
0.0
  0
LINE
  5
7AB5
  8
0
 10
-54.607727000000061
 20
-42.503859999999797
 30
0.0
 11
-54.607727000000061
 21
-52.500015000000069
 31
0.0
  0
LINE
  5
7AB6
  8
0
 10
-75.5
 20
-64.100006000000121
 30
0.0
 11
-65.127331839121624
 21
-64.100006000000121
 31
0.0
  0
LINE
  5
7AB7
  8
0
 10
-74.65362499999992
 20
-64.100006000000121
 30
0.0
 11
-74.65362499999992
 21
-62.300003000000281
 31
0.0
  0
LINE
  5
7AB8
  8
0
 10
-73.40362499999992
 20
-64.100006000000121
 30
0.0
 11
-73.40362499999992
 21
-62.300003000000281
 31
0.0
  0
LINE
  5
7AB9
  8
0
 10
-75.5
 20
-64.100006000000121
 30
0.0
 11
-75.5
 21
-62.300003000000281
 31
0.0
  0
LINE
  5
7ABA
  8
0
 10
-74.00000799999998
 20
-74.899962999999843
 30
0.0
 11
-75.392287999999994
 21
-74.096129999999903
 31
0.0
  0
LINE
  5
7ABB
  8
0
 10
-74.0
 20
-74.900008999999955
 30
0.0
 11
-56.0
 21
-74.900008999999955
 31
0.0
  0
LINE
  5
7ABC
  8
0
 10
-75.392333999999892
 20
-74.096160999999924
 30
0.0
 11
-75.392333999999892
 21
-64.100006000000121
 31
0.0
  0
LINE
  5
7ABD
  8
0
 10
-70.196167000000059
 20
-74.096160999999924
 30
0.0
 11
-70.196167000000059
 21
-64.100006000000121
 31
0.0
  0
LINE
  5
7ABE
  8
0
 10
-55.999966000000079
 20
-74.900069999999687
 30
0.0
 11
-54.607661999999891
 21
-74.096222000000125
 31
0.0
  0
LINE
  5
7ABF
  8
0
 10
-59.8038939999999
 20
-74.096160999999924
 30
0.0
 11
-59.8038939999999
 21
-65.920302999999876
 31
0.0
  0
LINE
  5
7AC0
  8
0
 10
-54.607727000000061
 20
-74.096160999999924
 30
0.0
 11
-54.607727000000061
 21
-66.83653299999969
 31
0.0
  0
LINE
  5
7AC1
  8
0
 10
-71.0
 20
-74.900008999999955
 30
0.0
 11
-70.999999999999986
 21
-81.500003000000277
 31
0.0
  0
LINE
  5
7AC2
  8
0
 10
-70.0
 20
-74.900008999999955
 30
0.0
 11
-70.0
 21
-81.500003000000277
 31
0.0
  0
LINE
  5
7AC3
  8
0
 10
-59.0
 20
-74.900008999999955
 30
0.0
 11
-59.0
 21
-81.500003000000277
 31
0.0
  0
LINE
  5
7AC4
  8
0
 10
-60.0
 20
-74.900008999999955
 30
0.0
 11
-60.0
 21
-81.500003000000277
 31
0.0
  0
LINE
  5
7AC5
  8
0
 10
18.50006099999996
 20
-50.800003000000288
 30
0.0
 11
-18.5
 21
-50.800003000000288
 31
0.0
  0
LINE
  5
7AC6
  8
0
 10
19.0
 20
-51.300017999999909
 30
0.0
 11
19.0
 21
-56.300003000000288
 31
0.0
  0
LINE
  5
7AC7
  8
0
 10
19.000031999999909
 20
-56.300025999999889
 30
0.0
 11
18.500031000000028
 21
-56.800025999999889
 31
0.0
  0
LINE
  5
7AC8
  8
0
 10
18.99999200000002
 20
-51.300021999999899
 30
0.0
 11
18.499960000000101
 21
-50.799992000000202
 31
0.0
  0
LINE
  5
7AC9
  8
0
 10
-18.99993900000004
 20
-51.300017999999909
 30
0.0
 11
-18.99993900000004
 21
-56.300003000000288
 31
0.0
  0
LINE
  5
7ACA
  8
0
 10
-18.499998000000001
 20
-56.800033999999869
 30
0.0
 11
-19.000031000000028
 21
-56.300003000000288
 31
0.0
  0
LINE
  5
7ACB
  8
0
 10
-18.50002900000004
 20
-50.800044999999947
 30
0.0
 11
-18.99999600000001
 21
-51.300011000000261
 31
0.0
  0
LINE
  5
7ACC
  8
0
 10
-18.99993900000004
 20
-51.300017999999909
 30
0.0
 11
19.0
 21
-51.300017999999909
 31
0.0
  0
LINE
  5
7ACD
  8
0
 10
-18.99993900000004
 20
-56.300003000000288
 30
0.0
 11
19.0
 21
-56.300003000000288
 31
0.0
  0
LINE
  5
7ACE
  8
0
 10
-14.49993900000004
 20
-73.026977999999872
 30
0.0
 11
-14.49993900000004
 21
-81.800003000000288
 31
0.0
  0
LINE
  5
7ACF
  8
0
 10
14.5
 20
-73.026961999999912
 30
0.0
 11
14.5
 21
-81.800003000000288
 31
0.0
  0
LINE
  5
7AD0
  8
0
 10
-13.5
 20
-82.800017999999909
 30
0.0
 11
13.49995399999988
 21
-82.800017999999909
 31
0.0
  0
LINE
  5
7AD1
  8
0
 10
-8.1394043000000238
 20
-73.800003000000288
 30
0.0
 11
-8.1394043000000238
 21
-94.799979999999778
 31
0.0
  0
LINE
  5
7AD2
  8
0
 10
3.1305273000000389
 20
-73.800003000000288
 30
0.0
 11
-8.1394129000000248
 21
-82.799995000000294
 31
0.0
  0
LINE
  5
7AD3
  8
0
 10
-14.500009999999969
 20
-81.799995000000308
 30
0.0
 11
-13.500027999999929
 21
-82.799979999999763
 31
0.0
  0
LINE
  5
7AD4
  8
0
 10
-14.49993900000004
 20
-81.800003000000288
 30
0.0
 11
-8.1394043000000238
 21
-81.800003000000288
 31
0.0
  0
LINE
  5
7AD5
  8
0
 10
14.49997400000006
 20
-81.800003000000288
 30
0.0
 11
13.499972999999949
 21
-82.800003000000288
 31
0.0
  0
LINE
  5
7AD6
  8
0
 10
14.00006099999996
 20
-83.800003000000288
 30
0.0
 11
14.00006099999996
 21
-93.800003000000288
 31
0.0
  0
LINE
  5
7AD7
  8
0
 10
12.999988999999911
 20
-94.800040999999965
 30
0.0
 11
14.000021999999939
 21
-93.800003000000288
 31
0.0
  0
LINE
  5
7AD8
  8
0
 10
13.999988999999911
 20
-83.800025999999875
 30
0.0
 11
13.000009999999969
 21
-82.800048999999944
 31
0.0
  0
LINE
  5
7AD9
  8
0
 10
-13.999962000000091
 20
-83.800003000000288
 30
0.0
 11
-12.999960999999979
 21
-82.799995000000294
 31
0.0
  0
LINE
  5
7ADA
  8
0
 10
-14.0
 20
-83.800003000000288
 30
0.0
 11
-14.0
 21
-93.800003000000288
 31
0.0
  0
LINE
  5
7ADB
  8
0
 10
-12.99993900000004
 20
-94.800017999999909
 30
0.0
 11
13.00000599999998
 21
-94.800017999999909
 31
0.0
  0
LINE
  5
7ADC
  8
0
 10
-13.00001500000007
 20
-94.799979999999778
 30
0.0
 11
-13.999994999999901
 21
-93.800003000000288
 31
0.0
  0
LINE
  5
7ADD
  8
0
 10
8.1394052999999076
 20
-82.799979999999763
 30
0.0
 11
-8.1394510000000082
 21
-94.800011000000268
 31
0.0
  0
LINE
  5
7ADE
  8
0
 10
8.1394032999999126
 20
-94.800011000000268
 30
0.0
 11
-8.1393689999999879
 21
-82.800033999999869
 31
0.0
  0
LINE
  5
7ADF
  8
0
 10
-14.0
 20
-83.800003000000288
 30
0.0
 11
-8.1394043000000238
 21
-83.800003000000288
 31
0.0
  0
LINE
  5
7AE0
  8
0
 10
-14.0
 20
-93.800003000000288
 30
0.0
 11
-8.1394043000000238
 21
-93.800003000000288
 31
0.0
  0
LINE
  5
7AE1
  8
0
 10
20.00006099999996
 20
-112.80001999999961
 30
0.0
 11
-20.0
 21
-112.80001999999961
 31
0.0
  0
LINE
  5
7AE2
  8
0
 10
14.0
 20
-83.800003000000288
 30
0.0
 11
8.1394043000000238
 21
-83.800003000000288
 31
0.0
  0
LINE
  5
7AE3
  8
0
 10
21.0
 20
-106.54899999999989
 30
0.0
 11
21.0
 21
-111.8000000000001
 31
0.0
  0
LINE
  5
7AE4
  8
0
 10
-18.26144399999998
 20
-103.8000000000001
 30
0.0
 11
18.26141200000006
 21
-103.8000000000001
 31
0.0
  0
LINE
  5
7AE5
  8
0
 10
14.5
 20
-100.80001999999961
 30
0.0
 11
14.5
 21
-101.3986800000002
 31
0.0
  0
LINE
  5
7AE6
  8
0
 10
8.1394043000000238
 20
-73.800003000000288
 30
0.0
 11
8.1394043000000238
 21
-94.800017999999909
 31
0.0
  0
LINE
  5
7AE7
  8
0
 10
16.325630000000039
 20
-103.39105000000011
 30
0.0
 11
18.26141200000006
 21
-103.56041
 31
0.0
  0
LINE
  5
7AE8
  8
0
 10
-13.5
 20
-99.800003000000274
 30
0.0
 11
13.5
 21
-99.800003000000274
 31
0.0
  0
LINE
  5
7AE9
  8
0
 10
-21.0
 20
-106.54899999999989
 30
0.0
 11
-21.0
 21
-111.8000000000001
 31
0.0
  0
LINE
  5
7AEA
  8
0
 10
-14.49993900000004
 20
-100.80001999999961
 30
0.0
 11
-14.49993900000004
 21
-101.3986800000002
 31
0.0
  0
LINE
  5
7AEB
  8
0
 10
-9.9999390000000403
 20
-94.800017999999909
 30
0.0
 11
-9.9999390000000403
 21
-99.800003000000274
 31
0.0
  0
LINE
  5
7AEC
  8
0
 10
-8.5000686999999289
 20
-94.799965000000157
 30
0.0
 11
-10.000068999999939
 21
-97.398040999999935
 31
0.0
  0
LINE
  5
7AED
  8
0
 10
-16.325724000000029
 20
-103.39105000000011
 30
0.0
 11
-18.26144399999998
 21
-103.56041
 31
0.0
  0
LINE
  5
7AEE
  8
0
 10
-14.49993900000004
 20
-103.2313400000002
 30
0.0
 11
14.5
 21
-103.2313400000002
 31
0.0
  0
LINE
  5
7AEF
  8
0
 10
-20.0
 20
-112.8000000000001
 30
0.0
 11
-20.999978999999939
 21
-111.80001999999961
 31
0.0
  0
LINE
  5
7AF0
  8
0
 10
20.999968999999961
 20
-111.79998999999989
 30
0.0
 11
19.999968000000081
 21
-112.8000000000001
 31
0.0
  0
LINE
  5
7AF1
  8
0
 10
-21.0
 20
-111.8000000000001
 30
0.0
 11
21.0
 21
-111.8000000000001
 31
0.0
  0
LINE
  5
7AF2
  8
0
 10
8.5000686999999289
 20
-94.799965000000157
 30
0.0
 11
10.000068999999939
 21
-97.398040999999935
 31
0.0
  0
LINE
  5
7AF3
  8
0
 10
9.9999390000000403
 20
-94.800017999999909
 30
0.0
 11
9.9999390000000403
 21
-99.800003000000274
 31
0.0
  0
LINE
  5
7B22
  8
0
 10
14.49993900000004
 20
-81.800003000000288
 30
0.0
 11
8.1394043000000238
 21
-81.800003000000288
 31
0.0
  0
LINE
  5
7B23
  8
0
 10
-10.115911000000089
 20
-73.800003000000288
 30
0.0
 11
10.11586800000009
 21
-73.800003000000288
 31
0.0
  0
ARC
  5
7B24
  8
0
 10
-69.5
 20
-60.28271500000028
 30
0.0
 40
3.0
 50
180.0
 51
260.13864000000558
  0
ARC
  5
7B27
  8
0
 10
-72.79424999999992
 20
-46.300490999999958
 30
0.0
 40
4.6004809999999994
 50
55.61576500000308
 51
115.61578000000409
  0
ARC
  5
7B28
  8
0
 10
-57.205811000000033
 20
-46.300490999999958
 30
0.0
 40
4.6004809999999994
 50
64.384259000007205
 51
124.3842299999972
  0
ARC
  5
7B29
  8
0
 10
-65.0
 20
-58.896163999999771
 30
0.0
 40
17.196151999999991
 50
72.412047000005714
 51
107.58795000000021
  0
ARC
  5
7B2A
  8
0
 10
-72.79424999999992
 20
-70.299530000000232
 30
0.0
 40
4.6004809999999994
 50
244.38421999999571
 51
304.3842599999989
  0
ARC
  5
7B2B
  8
0
 10
-65.0
 20
-57.703856999999971
 30
0.0
 40
17.196151999999991
 50
252.4120499999996
 51
287.58795000000021
  0
ARC
  5
7B2C
  8
0
 10
-57.205811000000033
 20
-70.299530000000232
 30
0.0
 40
4.6004809999999994
 50
235.61574000000101
 51
295.61573999999212
  0
ARC
  5
7B2D
  8
0
 10
69.5
 20
-60.28271500000028
 30
0.0
 40
3.0
 50
280.18955999999838
 51
0.0
  0
ARC
  5
7B2E
  8
0
 10
13.5
 20
-100.80001999999961
 30
0.0
 40
1.0
 50
0.0
 51
90.0
  0
ARC
  5
7B2F
  8
0
 10
18.0
 20
-106.54899999999989
 30
0.0
 40
3.0
 50
0.0
 51
85.000009000004951
  0
ARC
  5
7B30
  8
0
 10
16.5
 20
-101.3986800000002
 30
0.0
 40
2.0
 50
180.0
 51
265.00001000000088
  0
ARC
  5
7B31
  8
0
 10
-16.5
 20
-101.3986800000002
 30
0.0
 40
2.0
 50
274.99998999999889
 51
0.0
  0
ARC
  5
7B32
  8
0
 10
-18.0
 20
-106.54899999999989
 30
0.0
 40
3.0
 50
94.999990999995035
 51
180.0
  0
ARC
  5
7B33
  8
0
 10
-13.5
 20
-100.80001999999961
 30
0.0
 40
1.0
 50
90.0
 51
180.0
  0
LINE
  5
7B3A
  8
0
 10
171.4426591796545
 20
-103.8000000000001
 30
0.0
 11
207.96557417965499
 21
-103.8000000000001
 31
0.0
  0
LINE
  5
7B3B
  8
0
 10
204.2041571796548
 20
-59.800003000000281
 30
0.0
 11
204.2041571796548
 21
-81.800003000000288
 31
0.0
  0
LINE
  5
7B3D
  8
0
 10
175.2041871796545
 20
-59.800003000000281
 30
0.0
 11
175.2041871796545
 21
-81.800003000000288
 31
0.0
  0
LINE
  5
7B3E
  8
0
 10
175.2041221796548
 20
-81.800003000000288
 30
0.0
 11
176.20412317965469
 21
-82.800003000000288
 31
0.0
  0
LINE
  5
7B3F
  8
0
 10
175.2041871796545
 20
-81.800003000000288
 30
0.0
 11
204.2041571796548
 21
-81.800003000000288
 31
0.0
  0
LINE
  5
7B40
  8
0
 10
204.2041121796546
 20
-81.800011000000254
 30
0.0
 11
203.2041071796547
 21
-82.800017999999909
 31
0.0
  0
LINE
  5
7B41
  8
0
 10
203.7041871796545
 20
-83.800003000000288
 30
0.0
 11
203.7041871796545
 21
-93.800003000000288
 31
0.0
  0
LINE
  5
7B42
  8
0
 10
202.7041171796549
 20
-94.800033999999854
 30
0.0
 11
203.7041511796551
 21
-93.800003000000288
 31
0.0
  0
LINE
  5
7B43
  8
0
 10
203.7041391796547
 20
-83.800048999999944
 30
0.0
 11
202.70413817965479
 21
-82.800040999999965
 31
0.0
  0
LINE
  5
7B44
  8
0
 10
175.70417717965481
 20
-83.800011000000268
 30
0.0
 11
176.70417817965469
 21
-82.800011000000254
 31
0.0
  0
LINE
  5
7B45
  8
0
 10
175.7041571796548
 20
-83.800003000000288
 30
0.0
 11
175.7041571796548
 21
-93.800003000000288
 31
0.0
  0
LINE
  5
7B46
  8
0
 10
176.70413517965471
 20
-94.799979999999778
 30
0.0
 11
175.7041341796548
 21
-93.799979999999763
 31
0.0
  0
LINE
  5
7B47
  8
0
 10
175.7041571796548
 20
-83.800003000000288
 30
0.0
 11
203.7041871796545
 21
-83.800003000000288
 31
0.0
  0
LINE
  5
7B48
  8
0
 10
175.7041571796548
 20
-93.800003000000288
 30
0.0
 11
203.7041871796545
 21
-93.800003000000288
 31
0.0
  0
LINE
  5
7B49
  8
0
 10
209.7041871796545
 20
-112.80001999999961
 30
0.0
 11
169.7041571796548
 21
-112.80001999999961
 31
0.0
  0
LINE
  5
7B4A
  8
0
 10
203.20412617965479
 20
-99.800003000000274
 30
0.0
 11
176.20412617965479
 21
-99.800003000000274
 31
0.0
  0
LINE
  5
7B4B
  8
0
 10
210.70412617965479
 20
-106.54899999999989
 30
0.0
 11
210.70412617965479
 21
-111.8000000000001
 31
0.0
  0
LINE
  5
7B4C
  8
0
 10
204.2041571796548
 20
-100.80001999999961
 30
0.0
 11
204.2041571796548
 21
-101.3986800000002
 31
0.0
  0
LINE
  5
7B4D
  8
0
 10
198.2041147796549
 20
-94.799987999999743
 30
0.0
 11
199.7041147796549
 21
-97.398063999999991
 31
0.0
  0
LINE
  5
7B4E
  8
0
 10
206.0297621796548
 20
-103.39105000000011
 30
0.0
 11
207.96557417965499
 21
-103.5604199999997
 31
0.0
  0
LINE
  5
7B4F
  8
0
 10
176.7041871796545
 20
-94.800017999999909
 30
0.0
 11
202.7041571796548
 21
-94.800017999999909
 31
0.0
  0
LINE
  5
7B50
  8
0
 10
168.70412617965479
 20
-106.54899999999989
 30
0.0
 11
168.70412617965479
 21
-111.8000000000001
 31
0.0
  0
LINE
  5
7B51
  8
0
 10
175.2041871796545
 20
-100.80001999999961
 30
0.0
 11
175.2041871796545
 21
-101.3986800000002
 31
0.0
  0
LINE
  5
7B52
  8
0
 10
179.7041871796545
 20
-94.800017999999909
 30
0.0
 11
179.7041871796545
 21
-99.800003000000274
 31
0.0
  0
LINE
  5
7B53
  8
0
 10
181.2041070796549
 20
-94.799995000000308
 30
0.0
 11
179.7041071796547
 21
-97.398071000000073
 31
0.0
  0
LINE
  5
7B54
  8
0
 10
173.3784081796548
 20
-103.39105000000011
 30
0.0
 11
171.44268817965479
 21
-103.5604000000003
 31
0.0
  0
LINE
  5
7B55
  8
0
 10
169.70413717965491
 20
-112.8000099999999
 30
0.0
 11
168.7041361796546
 21
-111.8000099999999
 31
0.0
  0
LINE
  5
7B56
  8
0
 10
210.7041071796547
 20
-111.8000000000001
 30
0.0
 11
209.70410517965499
 21
-112.8000000000001
 31
0.0
  0
LINE
  5
7B57
  8
0
 10
208.2041871796545
 20
-50.800003000000288
 30
0.0
 11
198.70412617965479
 21
-50.800003000000288
 31
0.0
  0
LINE
  5
7B58
  8
0
 10
208.7041571796548
 20
-51.300017999999909
 30
0.0
 11
208.7041571796548
 21
-56.300003000000288
 31
0.0
  0
LINE
  5
7B59
  8
0
 10
208.7041531796549
 20
-56.300013999999919
 30
0.0
 11
208.2041511796551
 21
-56.800013999999919
 31
0.0
  0
LINE
  5
7B5A
  8
0
 10
208.70414917965479
 20
-51.300040999999972
 30
0.0
 11
208.2041161796551
 21
-50.800011000000268
 31
0.0
  0
LINE
  5
7B5B
  8
0
 10
170.7041871796545
 20
-51.300017999999909
 30
0.0
 11
170.7041871796545
 21
-56.300003000000288
 31
0.0
  0
LINE
  5
7B5C
  8
0
 10
171.20409717965501
 20
-56.800011000000261
 30
0.0
 11
170.70410917965501
 21
-56.300021999999899
 31
0.0
  0
LINE
  5
7B5D
  8
0
 10
171.20410517965499
 20
-50.800044999999947
 30
0.0
 11
170.70413717965491
 21
-51.300013999999919
 31
0.0
  0
LINE
  5
7B5E
  8
0
 10
171.2041571796548
 20
-51.300017999999909
 30
0.0
 11
180.70412617965479
 21
-51.300017999999909
 31
0.0
  0
LINE
  5
7B5F
  8
0
 10
171.2041571796548
 20
-56.300003000000288
 30
0.0
 11
177.70412617965479
 21
-56.300003000000288
 31
0.0
  0
LINE
  5
7B60
  8
0
 10
171.20409517965479
 20
-56.800003000000281
 30
0.0
 11
208.20415717965491
 21
-56.800003000000281
 31
0.0
  0
LINE
  5
7B61
  8
0
 10
173.70412617965479
 20
-59.800003000000281
 30
0.0
 11
205.70412617965479
 21
-59.800003000000281
 31
0.0
  0
LINE
  5
7B62
  8
0
 10
172.70412617965479
 20
-60.800003000000288
 30
0.0
 11
172.70412617965479
 21
-73.800003000000288
 31
0.0
  0
LINE
  5
7B63
  8
0
 10
169.70412617965479
 20
-59.800003000000281
 30
0.0
 11
169.70412617965479
 21
-73.800003000000288
 31
0.0
  0
LINE
  5
7B64
  8
0
 10
206.70412617965479
 20
-60.800003000000288
 30
0.0
 11
206.70412617965479
 21
-73.800003000000288
 31
0.0
  0
LINE
  5
7B65
  8
0
 10
209.70412617965479
 20
-59.800003000000281
 30
0.0
 11
209.70412617965479
 21
-73.800003000000288
 31
0.0
  0
LINE
  5
7B66
  8
0
 10
195.70412617965479
 20
69.499996999999667
 30
0.0
 11
195.70412617965479
 21
-41.700012000000243
 31
0.0
  0
LINE
  5
7B67
  8
0
 10
183.70412617965479
 20
69.499996999999667
 30
0.0
 11
183.70412617965479
 21
-41.700012000000243
 31
0.0
  0
LINE
  5
7B68
  8
0
 10
195.70412617965479
 20
-31.500003000000291
 30
0.0
 11
183.70412617965479
 21
-31.500003000000291
 31
0.0
  0
LINE
  5
7B69
  8
0
 10
194.70412617965479
 20
-31.500003000000291
 30
0.0
 11
194.70412617965479
 21
-41.700012000000243
 31
0.0
  0
LINE
  5
7B6A
  8
0
 10
184.70412617965479
 20
-31.500003000000291
 30
0.0
 11
184.70412617965479
 21
-41.700012000000243
 31
0.0
  0
LINE
  5
7B6B
  8
0
 10
184.70413667965471
 20
-31.500006999999819
 30
0.0
 11
183.70413667965471
 21
-29.767954999999979
 31
0.0
  0
LINE
  5
7B6C
  8
0
 10
194.7042148796549
 20
-31.50006400000002
 30
0.0
 11
195.7042148796549
 21
-29.768011999999729
 31
0.0
  0
LINE
  5
7B6D
  8
0
 10
201.70412617965479
 20
-54.300003000000281
 30
0.0
 11
177.70412617965479
 21
-54.300003000000281
 31
0.0
  0
LINE
  5
7B6E
  8
0
 10
201.70412617965479
 20
-54.300003000000281
 30
0.0
 11
201.70412617965479
 21
-56.800003000000281
 31
0.0
  0
LINE
  5
7B6F
  8
0
 10
177.70412617965479
 20
-54.300003000000281
 30
0.0
 11
177.70412617965479
 21
-56.800003000000281
 31
0.0
  0
LINE
  5
7B70
  8
0
 10
200.20412617965479
 20
-52.500015000000069
 30
0.0
 11
179.20412617965479
 21
-52.500015000000069
 31
0.0
  0
LINE
  5
7B71
  8
0
 10
199.35772117965459
 20
-52.500015000000069
 30
0.0
 11
199.35772117965459
 21
-54.300003000000281
 31
0.0
  0
LINE
  5
7B72
  8
0
 10
198.10772117965459
 20
-52.500015000000069
 30
0.0
 11
198.10772117965459
 21
-54.300003000000281
 31
0.0
  0
LINE
  5
7B73
  8
0
 10
200.20412617965479
 20
-52.500015000000069
 30
0.0
 11
200.20412617965479
 21
-54.300003000000281
 31
0.0
  0
LINE
  5
7B74
  8
0
 10
195.99932267965499
 20
-52.500015000000069
 30
0.0
 11
195.99932267965499
 21
-54.300003000000281
 31
0.0
  0
LINE
  5
7B75
  8
0
 10
193.8342531796547
 20
-52.500015000000069
 30
0.0
 11
193.8342531796547
 21
-54.300003000000281
 31
0.0
  0
LINE
  5
7B76
  8
0
 10
190.95412617965479
 20
-52.500015000000069
 30
0.0
 11
190.95412617965479
 21
-54.300003000000281
 31
0.0
  0
LINE
  5
7B77
  8
0
 10
188.45412617965479
 20
-52.500015000000069
 30
0.0
 11
188.45412617965479
 21
-54.300003000000281
 31
0.0
  0
LINE
  5
7B78
  8
0
 10
185.57399917965489
 20
-52.500015000000069
 30
0.0
 11
185.57399917965489
 21
-54.300003000000281
 31
0.0
  0
LINE
  5
7B79
  8
0
 10
183.40892967965459
 20
-52.500015000000069
 30
0.0
 11
183.40892967965459
 21
-54.300003000000281
 31
0.0
  0
LINE
  5
7B7A
  8
0
 10
179.20412617965479
 20
-52.500015000000069
 30
0.0
 11
179.20412617965479
 21
-54.300003000000281
 31
0.0
  0
LINE
  5
7B7B
  8
0
 10
181.300531179655
 20
-52.500015000000069
 30
0.0
 11
181.300531179655
 21
-54.300003000000281
 31
0.0
  0
LINE
  5
7B7C
  8
0
 10
180.050531179655
 20
-52.500015000000069
 30
0.0
 11
180.050531179655
 21
-54.300003000000281
 31
0.0
  0
LINE
  5
7B7D
  8
0
 10
201.70412617965479
 20
-62.300003000000281
 30
0.0
 11
177.70412617965479
 21
-62.300003000000281
 31
0.0
  0
LINE
  5
7B7E
  8
0
 10
177.70412617965479
 20
-62.300003000000281
 30
0.0
 11
177.70412617965479
 21
-59.800003000000281
 31
0.0
  0
LINE
  5
7B7F
  8
0
 10
201.70412617965479
 20
-62.300003000000281
 30
0.0
 11
201.70412617965479
 21
-59.800003000000281
 31
0.0
  0
LINE
  5
7B80
  8
0
 10
200.20412617965479
 20
-64.100006000000121
 30
0.0
 11
200.20412617965479
 21
-62.300003000000281
 31
0.0
  0
LINE
  5
7B81
  8
0
 10
195.7041721796549
 20
-81.500003000000333
 30
0.0
 11
183.7041721796549
 21
-81.500003000000333
 31
0.0
  0
LINE
  5
7B82
  8
0
 10
200.20412617965479
 20
-64.100006000000121
 30
0.0
 11
179.20412617965479
 21
-64.100006000000121
 31
0.0
  0
LINE
  5
7B83
  8
0
 10
199.35772117965459
 20
-64.100006000000121
 30
0.0
 11
199.35772117965459
 21
-62.300003000000281
 31
0.0
  0
LINE
  5
7B84
  8
0
 10
198.10772117965459
 20
-64.100006000000121
 30
0.0
 11
198.10772117965459
 21
-62.300003000000281
 31
0.0
  0
LINE
  5
7B85
  8
0
 10
195.99932267965499
 20
-64.100006000000121
 30
0.0
 11
195.99932267965499
 21
-62.300003000000281
 31
0.0
  0
LINE
  5
7B86
  8
0
 10
193.8342531796547
 20
-64.100006000000121
 30
0.0
 11
193.8342531796547
 21
-62.300003000000281
 31
0.0
  0
LINE
  5
7B87
  8
0
 10
190.95412617965479
 20
-64.100006000000121
 30
0.0
 11
190.95412617965479
 21
-62.300003000000281
 31
0.0
  0
LINE
  5
7B88
  8
0
 10
188.45412617965479
 20
-64.100006000000121
 30
0.0
 11
188.45412617965479
 21
-62.300003000000281
 31
0.0
  0
LINE
  5
7B89
  8
0
 10
185.57399917965489
 20
-64.100006000000121
 30
0.0
 11
185.57399917965489
 21
-62.300003000000281
 31
0.0
  0
LINE
  5
7B8A
  8
0
 10
183.40892967965459
 20
-64.100006000000121
 30
0.0
 11
183.40892967965459
 21
-62.300003000000281
 31
0.0
  0
LINE
  5
7B8B
  8
0
 10
179.20412617965479
 20
-64.100006000000121
 30
0.0
 11
179.20412617965479
 21
-62.300003000000281
 31
0.0
  0
LINE
  5
7B8C
  8
0
 10
181.300531179655
 20
-64.100006000000121
 30
0.0
 11
181.300531179655
 21
-62.300003000000281
 31
0.0
  0
LINE
  5
7B8D
  8
0
 10
180.050531179655
 20
-64.100006000000121
 30
0.0
 11
180.050531179655
 21
-62.300003000000281
 31
0.0
  0
LINE
  5
7B8E
  8
0
 10
195.70412617965479
 20
-74.900008999999955
 30
0.0
 11
195.70412617965479
 21
-81.500003000000333
 31
0.0
  0
LINE
  5
7B8F
  8
0
 10
194.70412617965479
 20
-74.900008999999955
 30
0.0
 11
194.70412617965479
 21
-81.500003000000333
 31
0.0
  0
LINE
  5
7B90
  8
0
 10
183.70412617965479
 20
-74.900008999999955
 30
0.0
 11
183.70412617965479
 21
-81.500003000000319
 31
0.0
  0
LINE
  5
7B91
  8
0
 10
184.70412617965479
 20
-74.900008999999955
 30
0.0
 11
184.70412617965479
 21
-81.500003000000319
 31
0.0
  0
LINE
  5
7B92
  8
0
 10
204.2041571796548
 20
-103.2313400000002
 30
0.0
 11
175.2041871796545
 21
-103.2313400000002
 31
0.0
  0
LINE
  5
7B93
  8
0
 10
210.70412617965479
 20
-111.8000000000001
 30
0.0
 11
168.70412617965479
 21
-111.8000000000001
 31
0.0
  0
LINE
  5
7B94
  8
0
 10
199.70406517965509
 20
-94.800017999999909
 30
0.0
 11
199.70406517965509
 21
-99.800003000000274
 31
0.0
  0
LINE
  5
7B96
  8
0
 10
176.20412617965479
 20
-82.800017999999909
 30
0.0
 11
203.20412617965479
 21
-82.800017999999909
 31
0.0
  0
LINE
  5
7B98
  8
0
 10
198.70412617965479
 20
-51.300017999999909
 30
0.0
 11
208.7041571796548
 21
-51.300017999999909
 31
0.0
  0
LINE
  5
7B99
  8
0
 10
180.70412617965479
 20
-50.800003000000288
 30
0.0
 11
171.2041571796548
 21
-50.800003000000288
 31
0.0
  0
LINE
  5
7B9A
  8
0
 10
201.70412617965479
 20
-56.300003000000288
 30
0.0
 11
208.7041571796548
 21
-56.300003000000288
 31
0.0
  0
LINE
  5
7B9B
  8
0
 10
182.09648017965489
 20
-41.700088999999927
 30
0.0
 11
180.70417387965469
 21
-42.503936999999951
 31
0.0
  0
LINE
  5
7B9C
  8
0
 10
197.31181127965459
 20
-41.700004999999692
 30
0.0
 11
198.70411757965479
 21
-42.503853000000163
 31
0.0
  0
LINE
  5
7B9D
  8
0
 10
189.70412617965479
 20
-42.503859999999797
 30
0.0
 11
189.70412617965479
 21
-52.500015000000069
 31
0.0
  0
LINE
  5
7B9E
  8
0
 10
182.09642967965459
 20
-41.700012000000243
 30
0.0
 11
197.31182267965499
 21
-41.700012000000243
 31
0.0
  0
LINE
  5
7B9F
  8
0
 10
198.70412617965479
 20
-42.503859999999797
 30
0.0
 11
198.70412617965479
 21
-52.500015000000069
 31
0.0
  0
LINE
  5
7BA0
  8
0
 10
180.70412617965479
 20
-42.503859999999797
 30
0.0
 11
180.70412617965479
 21
-52.500015000000069
 31
0.0
  0
LINE
  5
7BA1
  8
0
 10
197.31181747965499
 20
-74.899985999999899
 30
0.0
 11
198.7041232796546
 21
-74.096137999999883
 31
0.0
  0
LINE
  5
7BA2
  8
0
 10
182.09643007965491
 20
-74.900008999999955
 30
0.0
 11
180.70412427965491
 21
-74.096160999999924
 31
0.0
  0
LINE
  5
7BA3
  8
0
 10
189.70412617965479
 20
-74.096145999999862
 30
0.0
 11
189.70412617965479
 21
-64.100006000000121
 31
0.0
  0
LINE
  5
7BA4
  8
0
 10
197.31182267965499
 20
-74.899993999999865
 30
0.0
 11
182.09642967965459
 21
-74.899993999999865
 31
0.0
  0
LINE
  5
7BA5
  8
0
 10
180.70412617965479
 20
-74.096145999999862
 30
0.0
 11
180.70412617965479
 21
-64.100006000000121
 31
0.0
  0
LINE
  5
7BA6
  8
0
 10
198.70412617965479
 20
-74.096145999999862
 30
0.0
 11
198.70412617965479
 21
-64.100006000000121
 31
0.0
  0
LINE
  5
7BA7
  8
0
 10
169.70412617965479
 20
-73.800003000000288
 30
0.0
 11
172.70412617965479
 21
-73.800003000000288
 31
0.0
  0
LINE
  5
7BA8
  8
0
 10
206.70412617965479
 20
-73.800003000000288
 30
0.0
 11
209.70412617965479
 21
-73.800003000000288
 31
0.0
  0
ARC
  5
7BA9
  8
0
 10
203.20412617965479
 20
-100.80001999999961
 30
0.0
 40
1.0
 50
0.0
 51
90.0
  0
ARC
  5
7BAA
  8
0
 10
207.70412617965479
 20
-106.54899999999989
 30
0.0
 40
3.0
 50
0.0
 51
85.000009000004951
  0
ARC
  5
7BAB
  8
0
 10
206.20412617965479
 20
-101.3986800000002
 30
0.0
 40
2.0
 50
180.0
 51
265.00001000000088
  0
ARC
  5
7BAC
  8
0
 10
173.20412617965479
 20
-101.3986800000002
 30
0.0
 40
2.0
 50
274.99998999999889
 51
0.0
  0
ARC
  5
7BAD
  8
0
 10
171.70412617965479
 20
-106.54899999999989
 30
0.0
 40
3.0
 50
94.999990999995035
 51
180.0
  0
ARC
  5
7BAE
  8
0
 10
176.20412617965479
 20
-100.80001999999961
 30
0.0
 40
1.0
 50
90.0
 51
180.0
  0
ARC
  5
7BAF
  8
0
 10
172.70412617965479
 20
-59.800003000000281
 30
0.0
 40
3.0
 50
90.0
 51
180.0
  0
ARC
  5
7BB0
  8
0
 10
206.70412617965479
 20
-59.800003000000281
 30
0.0
 40
3.0
 50
0.0
 51
90.0
  0
ARC
  5
7BB1
  8
0
 10
173.70412617965479
 20
-60.800003000000288
 30
0.0
 40
1.0
 50
90.0
 51
180.0
  0
ARC
  5
7BB2
  8
0
 10
205.70412617965479
 20
-60.800003000000288
 30
0.0
 40
1.0
 50
0.0
 51
90.0
  0
ARC
  5
7BB4
  8
0
 10
185.20412617965479
 20
-54.69760099999985
 30
0.0
 40
12.997595
 50
69.743842000003283
 51
110.2561599999963
  0
ARC
  5
7BB5
  8
0
 10
194.20412617965479
 20
-54.69760099999985
 30
0.0
 40
12.997595
 50
69.743843000003139
 51
110.2561599999963
  0
ARC
  5
7BB6
  8
0
 10
194.20412617965479
 20
-61.902404999999817
 30
0.0
 40
12.997595
 50
249.74384000000359
 51
290.25615999999633
  0
ARC
  5
7BB7
  8
0
 10
185.20412617965479
 20
-61.902404999999817
 30
0.0
 40
12.997595
 50
249.74384000000359
 51
290.25615999999633
  0
LINE
  5
7BB8
  8
0
 10
-72.5
 20
184.95456431591259
 30
0.0
 11
-72.5
 21
181.95456431591259
 31
0.0
  0
LINE
  5
7BB9
  8
0
 10
-77.5
 20
213.95456431591259
 30
0.0
 11
-77.5
 21
189.95456431591259
 31
0.0
  0
LINE
  5
7BBA
  8
0
 10
-72.5
 20
221.95456431591259
 30
0.0
 11
-72.5
 21
218.95456431591259
 31
0.0
  0
LINE
  5
7BBB
  8
0
 10
77.5
 20
213.95456431591259
 30
0.0
 11
77.5
 21
189.95456431591259
 31
0.0
  0
LINE
  5
7BBC
  8
0
 10
-72.5
 20
181.95456431591259
 30
0.0
 11
72.5
 21
181.95456431591259
 31
0.0
  0
LINE
  5
7BBD
  8
0
 10
-72.5
 20
221.95456431591259
 30
0.0
 11
72.5
 21
221.95456431591259
 31
0.0
  0
LINE
  5
7BBE
  8
0
 10
72.5
 20
221.95456431591259
 30
0.0
 11
72.5
 21
218.95456431591259
 31
0.0
  0
LINE
  5
7BBF
  8
0
 10
72.5
 20
184.95456431591259
 30
0.0
 11
72.5
 21
181.95456431591259
 31
0.0
  0
LINE
  5
7BC0
  8
0
 10
-64.999999999999986
 20
195.95456431591259
 30
0.0
 11
64.999999999999957
 21
195.95456431591259
 31
0.0
  0
LINE
  5
7BC1
  8
0
 10
-64.999999999999986
 20
207.95456431591259
 30
0.0
 11
64.999999999999957
 21
207.95456431591259
 31
0.0
  0
LINE
  5
7BC2
  8
0
 10
-57.392344999999963
 20
195.9545414159129
 30
0.0
 11
-65.000007999999966
 21
191.5622433159123
 31
0.0
  0
LINE
  5
7BC3
  8
0
 10
-73.99997699999993
 20
196.75842691591239
 30
0.0
 11
-65.000011000000072
 21
191.56227931591269
 31
0.0
  0
LINE
  5
7BC4
  8
0
 10
-73.999999999999986
 20
196.75842781591291
 30
0.0
 11
-73.999999999999986
 21
207.15073131591271
 31
0.0
  0
LINE
  5
7BC5
  8
0
 10
-74.000007999999966
 20
207.1506998159129
 30
0.0
 11
-64.999999999999986
 21
212.3468393159128
 31
0.0
  0
LINE
  5
7BC6
  8
0
 10
-65.000003999999976
 20
212.34686631591279
 30
0.0
 11
-57.392307000000059
 21
207.95457241591251
 31
0.0
  0
ARC
  5
7BCC
  8
0
 10
-72.5
 20
189.95456431591259
 30
0.0
 40
5.0
 50
179.99998999999889
 51
270.0
  0
ARC
  5
7BCD
  8
0
 10
-72.5
 20
213.95456431591259
 30
0.0
 40
5.0
 50
90.0
 51
180.0
  0
ARC
  5
7BCE
  8
0
 10
72.5
 20
189.95456431591259
 30
0.0
 40
5.0
 50
270.0
 51
0.0
  0
ARC
  5
7BCF
  8
0
 10
72.5
 20
213.95456431591259
 30
0.0
 40
5.0
 50
0.0
 51
90.0
  0
ARC
  5
7BD1
  8
0
 10
-52.5
 20
201.95456431591259
 30
0.0
 40
7.5
 50
270.0
 51
306.8698999999956
  0
ARC
  5
7BD4
  8
0
 10
0.0
 20
201.95456431591259
 30
0.0
 40
16.777721
 50
200.95391999999771
 51
339.0460700000155
  0
ARC
  5
7BD5
  8
0
 10
0.0
 20
201.95456431591259
 30
0.0
 40
17.277691000000001
 50
200.3203399999984
 51
339.67965000000811
  0
ARC
  5
7BD6
  8
0
 10
-64.999999999999986
 20
201.95456431591259
 30
0.0
 40
12.0
 50
30.0000030000073
 51
329.9999900000081
  0
ARC
  5
7BD8
  8
0
 10
-64.999999999999986
 20
201.95456431591259
 30
0.0
 40
6.0
 50
90.0
 51
270.0
  0
ARC
  5
7BDA
  8
0
 10
-52.5
 20
201.95456431591259
 30
0.0
 40
7.5
 50
53.130101999994167
 51
90.0
  0
ARC
  5
7BDC
  8
0
 10
-64.999999999999986
 20
201.95456431591259
 30
0.0
 40
9.0
 50
41.810321999999083
 51
318.18970000000007
  0
ARC
  5
7BDE
  8
0
 10
0.0
 20
201.95456431591259
 30
0.0
 40
17.277691000000001
 50
20.32034499999742
 51
159.67966000000149
  0
ARC
  5
7BDF
  8
0
 10
0.0
 20
201.95456431591259
 30
0.0
 40
16.777721
 50
20.95392599999073
 51
159.04608000000221
  0
LINE
  5
7F8B
  8
0
  6
CENTER
 62
     0
 10
0.0
 20
167.37458069734561
 30
0.0
 11
0.0
 21
236.5345479344796
 31
0.0
  0
LINE
  5
7F8C
  8
0
  6
CENTER
 62
     0
 10
-84.694688449887508
 20
201.95456431591259
 30
0.0
 11
84.694688449887508
 21
201.95456431591259
 31
0.0
  0
LINE
  5
7F9B
  8
0
  6
CENTER
 62
     0
 10
0.0
 20
-128.00649970732769
 30
0.0
 11
0.0
 21
77.981948147460571
 31
0.0
  0
LINE
  5
7F9C
  8
0
  6
CENTER
 62
     0
 10
-81.184294038266216
 20
6.3499969999997026
 30
0.0
 11
81.341918642744545
 21
6.3499969999997026
 31
0.0
  0
LINE
  5
7FA9
  8
0
  6
CENTER
 62
     0
 10
189.7041721796549
 20
-128.00649970732769
 30
0.0
 11
189.7041721796549
 21
77.981948147460571
 31
0.0
  0
LINE
  5
7FAA
  8
0
  6
CENTER
 62
     0
 10
164.3554492802661
 20
6.3499969999997026
 30
0.0
 11
215.05289507904371
 21
6.3499969999997026
 31
0.0
  0
TEXT
  5
7FB9
  8
0
 10
-407.85716785714322
 20
303.57349611461848
 30
0.0
 40
50.0
  1
P-SUPPORT-UB 4.5S
 72
     4
 11
-0.0000250000002779
 21
328.57349611461848
 31
0.0
  0
LINE
  5
80B6
  8
0
 10
18.50006099999996
 20
6.3499969999997026
 30
0.0
 11
-18.5
 21
6.3499969999997026
 31
0.0
  0
ARC
  5
80F6
  8
0
 10
0.0000000000000126
 20
4.4999969999996656
 30
0.0
 40
71.0
 50
0.0
 51
180.0
  0
ARC
  5
80F7
  8
0
 10
0.0000000000000126
 20
4.4999969999996656
 30
0.0
 40
59.0
 50
0.0
 51
180.0
  0
LINE
  5
80FA
  8
0
 10
-77.0
 20
-62.300003000000281
 30
0.0
 11
-71.720483984417811
 21
-62.300003000000281
 31
0.0
  0
LINE
  5
80FB
  8
0
 10
-77.0
 20
-62.300003000000281
 30
0.0
 11
-77.0
 21
-59.800003000000281
 31
0.0
  0
LINE
  5
80FC
  8
0
 10
-71.295227000000054
 20
-64.0999910000005
 30
0.0
 11
-71.295227000000054
 21
-62.686287345171273
 31
0.0
  0
LINE
  5
80FD
  8
0
 10
-69.130126999999902
 20
-64.0999910000005
 30
0.0
 11
-69.130126999999902
 21
-63.394205268808619
 31
0.0
  0
LINE
  5
80FE
  8
0
 10
71.0
 20
4.4999969999996656
 30
0.0
 11
71.0
 21
-41.700012000000243
 31
0.0
  0
LINE
  5
80FF
  8
0
 10
59.0
 20
4.4999969999996656
 30
0.0
 11
59.0
 21
-41.700012000000243
 31
0.0
  0
LINE
  5
8101
  8
0
 10
71.0
 20
-31.500003000000291
 30
0.0
 11
59.0
 21
-31.500003000000291
 31
0.0
  0
LINE
  5
8102
  8
0
 10
70.0
 20
-31.500003000000291
 30
0.0
 11
70.0
 21
-41.700012000000243
 31
0.0
  0
LINE
  5
8103
  8
0
 10
60.0
 20
-31.500003000000291
 30
0.0
 11
60.0
 21
-41.700012000000243
 31
0.0
  0
LINE
  5
8104
  8
0
 10
59.999874000000091
 20
-31.500079999999979
 30
0.0
 11
58.999874000000091
 21
-29.76802800000014
 31
0.0
  0
LINE
  5
8105
  8
0
 10
69.999915999999985
 20
-31.49995700000018
 30
0.0
 11
70.999915999999985
 21
-29.76790600000022
 31
0.0
  0
LINE
  5
8106
  8
0
 10
77.0
 20
-54.300003000000281
 30
0.0
 11
53.0
 21
-54.300003000000281
 31
0.0
  0
LINE
  5
8107
  8
0
 10
77.0
 20
-54.300003000000281
 30
0.0
 11
77.0
 21
-56.800003000000281
 31
0.0
  0
LINE
  5
8108
  8
0
 10
53.0
 20
-54.300003000000281
 30
0.0
 11
53.0
 21
-56.800003000000281
 31
0.0
  0
LINE
  5
8109
  8
0
 10
75.5
 20
-52.500015000000069
 30
0.0
 11
54.5
 21
-52.500015000000069
 31
0.0
  0
LINE
  5
810A
  8
0
 10
74.65362499999992
 20
-52.500015000000069
 30
0.0
 11
74.65362499999992
 21
-54.300003000000281
 31
0.0
  0
LINE
  5
810B
  8
0
 10
73.40362499999992
 20
-52.500015000000069
 30
0.0
 11
73.40362499999992
 21
-54.300003000000281
 31
0.0
  0
LINE
  5
810C
  8
0
 10
75.5
 20
-52.500015000000069
 30
0.0
 11
75.5
 21
-54.300003000000281
 31
0.0
  0
LINE
  5
810D
  8
0
 10
71.295227000000054
 20
-52.500015000000069
 30
0.0
 11
71.295227000000054
 21
-54.300003000000281
 31
0.0
  0
LINE
  5
810E
  8
0
 10
69.130126999999902
 20
-52.500015000000069
 30
0.0
 11
69.130126999999902
 21
-54.300003000000281
 31
0.0
  0
LINE
  5
810F
  8
0
 10
66.25
 20
-52.500015000000069
 30
0.0
 11
66.25
 21
-54.300003000000281
 31
0.0
  0
LINE
  5
8110
  8
0
 10
63.75
 20
-52.500015000000069
 30
0.0
 11
63.75
 21
-54.300003000000281
 31
0.0
  0
LINE
  5
8111
  8
0
 10
60.869873000000098
 20
-52.500015000000069
 30
0.0
 11
60.869873000000098
 21
-54.300003000000281
 31
0.0
  0
LINE
  5
8112
  8
0
 10
58.704833999999892
 20
-52.500015000000069
 30
0.0
 11
58.704833999999892
 21
-54.300003000000281
 31
0.0
  0
LINE
  5
8113
  8
0
 10
54.5
 20
-52.500015000000069
 30
0.0
 11
54.5
 21
-54.300003000000281
 31
0.0
  0
LINE
  5
8114
  8
0
 10
56.59643600000004
 20
-52.500015000000069
 30
0.0
 11
56.59643600000004
 21
-54.300003000000281
 31
0.0
  0
LINE
  5
8115
  8
0
 10
55.34643600000004
 20
-52.500015000000069
 30
0.0
 11
55.34643600000004
 21
-54.300003000000281
 31
0.0
  0
LINE
  5
8116
  8
0
 10
73.999953999999889
 20
-41.70010400000001
 30
0.0
 11
75.392264999999952
 21
-42.503952000000019
 31
0.0
  0
LINE
  5
8117
  8
0
 10
74.0
 20
-41.700012000000243
 30
0.0
 11
56.0
 21
-41.700012000000243
 31
0.0
  0
LINE
  5
8118
  8
0
 10
56.00000799999998
 20
-41.699978000000101
 30
0.0
 11
54.607727000000061
 21
-42.503811000000042
 31
0.0
  0
LINE
  5
8119
  8
0
 10
70.196167000000059
 20
-42.503859999999797
 30
0.0
 11
70.196167000000059
 21
-52.500015000000069
 31
0.0
  0
LINE
  5
811A
  8
0
 10
59.8038939999999
 20
-42.503859999999797
 30
0.0
 11
59.8038939999999
 21
-52.500015000000069
 31
0.0
  0
LINE
  5
811B
  8
0
 10
75.392333999999892
 20
-42.503859999999797
 30
0.0
 11
75.392333999999892
 21
-52.500015000000069
 31
0.0
  0
LINE
  5
811C
  8
0
 10
54.607727000000061
 20
-42.503859999999797
 30
0.0
 11
54.607727000000061
 21
-52.500015000000069
 31
0.0
  0
LINE
  5
811D
  8
0
 10
75.5
 20
-64.100006000000121
 30
0.0
 11
65.127331839121624
 21
-64.100006000000121
 31
0.0
  0
LINE
  5
811E
  8
0
 10
74.65362499999992
 20
-64.100006000000121
 30
0.0
 11
74.65362499999992
 21
-62.300003000000281
 31
0.0
  0
LINE
  5
811F
  8
0
 10
73.40362499999992
 20
-64.100006000000121
 30
0.0
 11
73.40362499999992
 21
-62.300003000000281
 31
0.0
  0
LINE
  5
8120
  8
0
 10
75.5
 20
-64.100006000000121
 30
0.0
 11
75.5
 21
-62.300003000000281
 31
0.0
  0
LINE
  5
8121
  8
0
 10
74.00000799999998
 20
-74.899962999999843
 30
0.0
 11
75.392287999999994
 21
-74.096129999999903
 31
0.0
  0
LINE
  5
8122
  8
0
 10
74.0
 20
-74.900008999999955
 30
0.0
 11
56.0
 21
-74.900008999999955
 31
0.0
  0
LINE
  5
8123
  8
0
 10
75.392333999999892
 20
-74.096160999999924
 30
0.0
 11
75.392333999999892
 21
-64.100006000000121
 31
0.0
  0
LINE
  5
8124
  8
0
 10
70.196167000000059
 20
-74.096160999999924
 30
0.0
 11
70.196167000000059
 21
-64.100006000000121
 31
0.0
  0
LINE
  5
8125
  8
0
 10
55.999966000000079
 20
-74.900069999999687
 30
0.0
 11
54.607661999999891
 21
-74.096222000000125
 31
0.0
  0
LINE
  5
8126
  8
0
 10
59.8038939999999
 20
-74.096160999999924
 30
0.0
 11
59.8038939999999
 21
-65.920302999999876
 31
0.0
  0
LINE
  5
8127
  8
0
 10
54.607727000000061
 20
-74.096160999999924
 30
0.0
 11
54.607727000000061
 21
-66.83653299999969
 31
0.0
  0
LINE
  5
8128
  8
0
 10
71.0
 20
-74.900008999999955
 30
0.0
 11
71.0
 21
-81.500003000000305
 31
0.0
  0
LINE
  5
8129
  8
0
 10
70.0
 20
-74.900008999999955
 30
0.0
 11
70.0
 21
-81.500003000000305
 31
0.0
  0
LINE
  5
812A
  8
0
 10
59.0
 20
-74.900008999999955
 30
0.0
 11
58.999999999999993
 21
-81.500003000000305
 31
0.0
  0
LINE
  5
812B
  8
0
 10
60.0
 20
-74.900008999999955
 30
0.0
 11
60.0
 21
-81.500003000000305
 31
0.0
  0
ARC
  5
812C
  8
0
 10
72.79424999999992
 20
-46.300490999999958
 30
0.0
 40
4.6004809999999994
 50
64.384219999995821
 51
124.38423499999691
  0
ARC
  5
812D
  8
0
 10
57.205811000000033
 20
-46.300490999999958
 30
0.0
 40
4.6004809999999994
 50
55.615770000002733
 51
115.6157409999927
  0
ARC
  5
812E
  8
0
 10
65.0
 20
-58.896163999999771
 30
0.0
 40
17.196151999999991
 50
72.412049999999724
 51
107.5879529999942
  0
ARC
  5
812F
  8
0
 10
72.79424999999992
 20
-70.299530000000232
 30
0.0
 40
4.6004809999999994
 50
235.61574000000101
 51
295.61578000000418
  0
ARC
  5
8130
  8
0
 10
65.0
 20
-57.703856999999971
 30
0.0
 40
17.196151999999991
 50
252.41204999999971
 51
287.58795000000032
  0
ARC
  5
8131
  8
0
 10
57.205811000000033
 20
-70.299530000000232
 30
0.0
 40
4.6004809999999994
 50
244.3842600000078
 51
304.3842599999989
  0
LINE
  5
8132
  8
0
 10
77.0
 20
-62.300003000000281
 30
0.0
 11
71.720483984417811
 21
-62.300003000000281
 31
0.0
  0
LINE
  5
8133
  8
0
 10
77.0
 20
-62.300003000000281
 30
0.0
 11
77.0
 21
-59.800003000000281
 31
0.0
  0
LINE
  5
8134
  8
0
 10
71.295227000000054
 20
-64.0999910000005
 30
0.0
 11
71.295227000000054
 21
-62.686287345171273
 31
0.0
  0
LINE
  5
8135
  8
0
 10
69.130126999999902
 20
-64.0999910000005
 30
0.0
 11
69.130126999999902
 21
-63.394205268808619
 31
0.0
  0
ARC
  5
8169
  8
0
 10
189.7041721796549
 20
69.499996999999667
 30
0.0
 40
5.9999539999998879
 50
0.0
 51
180.0
  0
LINE
  5
81B9
  8
0
 10
-55.632503002402409
 20
194.45456431591259
 30
0.0
 11
-52.5
 21
194.45456431591259
 31
0.0
  0
LINE
  5
81BA
  8
0
 10
-55.63250300240238
 20
209.45456431591259
 30
0.0
 11
-52.5
 21
209.45456431591259
 31
0.0
  0
LINE
  5
81BC
  8
0
 10
57.392344999999942
 20
195.95454141591279
 30
0.0
 11
65.000007999999951
 21
191.5622433159123
 31
0.0
  0
LINE
  5
81BD
  8
0
 10
73.999976999999916
 20
196.75842691591239
 30
0.0
 11
65.000011000000043
 21
191.56227931591269
 31
0.0
  0
LINE
  5
81BE
  8
0
 10
73.999999999999972
 20
196.75842781591291
 30
0.0
 11
73.999999999999972
 21
207.15073131591271
 31
0.0
  0
LINE
  5
81BF
  8
0
 10
74.000007999999951
 20
207.1506998159129
 30
0.0
 11
64.999999999999972
 21
212.3468393159128
 31
0.0
  0
LINE
  5
81C0
  8
0
 10
65.000003999999961
 20
212.34686631591279
 30
0.0
 11
57.392307000000052
 21
207.95457241591239
 31
0.0
  0
ARC
  5
81C1
  8
0
 10
52.499999999999993
 20
201.95456431591259
 30
0.0
 40
7.5
 50
233.13010000000429
 51
270.0
  0
ARC
  5
81C2
  8
0
 10
64.999999999999972
 20
201.95456431591259
 30
0.0
 40
12.0
 50
210.0000099999919
 51
149.99999699999259
  0
ARC
  5
81C3
  8
0
 10
64.999999999999972
 20
201.95456431591259
 30
0.0
 40
6.0
 50
270.0
 51
89.999999999999986
  0
ARC
  5
81C4
  8
0
 10
52.499999999999993
 20
201.95456431591259
 30
0.0
 40
7.5
 50
89.999999999999986
 51
126.8698980000058
  0
ARC
  5
81C5
  8
0
 10
64.999999999999972
 20
201.95456431591259
 30
0.0
 40
9.0
 50
221.81029999999981
 51
138.1896780000009
  0
LINE
  5
81C6
  8
0
 10
55.632503002402387
 20
194.45456431591259
 30
0.0
 11
52.499999999999993
 21
194.45456431591259
 31
0.0
  0
LINE
  5
81C7
  8
0
 10
55.632503002402373
 20
209.45456431591259
 30
0.0
 11
52.5
 21
209.45456431591259
 31
0.0
  0
LINE
  5
81CB
  8
0
 10
59.0
 20
-81.500003000000319
 30
0.0
 11
70.999999999999943
 21
-81.500003000000319
 31
0.0
  0
LINE
  5
81CC
  8
0
 10
-71.0
 20
-81.500003000000277
 30
0.0
 11
-59.0
 21
-81.500003000000277
 31
0.0
  0
ENDSEC
  0
EOF
