  0
SECTION
  2
HEADER
  9
$ACADVER
  1
AC1009
  9
$INSBASE
 10
0.0
 20
0.0
 30
0.0
  9
$EXTMIN
 10
-362.6190724576046
 20
-109.44497650135141
 30
0.0
  9
$EXTMAX
 10
362.61902278049052
 20
353.57348811461901
 30
0.0
  9
$LIMMIN
 10
0.0
 20
0.0
  9
$LIMMAX
 10
420.0
 20
297.0
  9
$ORTHOMODE
 70
     0
  9
$REGENMODE
 70
     1
  9
$FILLMODE
 70
     1
  9
$QTEXTMODE
 70
     0
  9
$MIRRTEXT
 70
     1
  9
$DRAGMODE
 70
     2
  9
$LTSCALE
 40
1.0
  9
$OSMODE
 70
    37
  9
$ATTMODE
 70
     1
  9
$TEXTSIZE
 40
73.985717453579113
  9
$TRACEWID
 40
1.0
  9
$TEXTSTYLE
  7
STANDARD
  9
$CLAYER
  8
0
  9
$CELTYPE
  6
BYLAYER
  9
$CECOLOR
 62
   256
  9
$DIMSCALE
 40
1.0
  9
$DIMASZ
 40
0.18
  9
$DIMEXO
 40
0.0625
  9
$DIMDLI
 40
0.38
  9
$DIMRND
 40
0.0
  9
$DIMDLE
 40
0.0
  9
$DIMEXE
 40
0.18
  9
$DIMTP
 40
0.0
  9
$DIMTM
 40
0.0
  9
$DIMTXT
 40
30.0
  9
$DIMCEN
 40
0.09
  9
$DIMTSZ
 40
0.0
  9
$DIMTOL
 70
     0
  9
$DIMLIM
 70
     0
  9
$DIMTIH
 70
     1
  9
$DIMTOH
 70
     1
  9
$DIMSE1
 70
     0
  9
$DIMSE2
 70
     0
  9
$DIMTAD
 70
     0
  9
$DIMZIN
 70
     0
  9
$DIMBLK
  1

  9
$DIMASO
 70
     1
  9
$DIMSHO
 70
     1
  9
$DIMPOST
  1

  9
$DIMAPOST
  1

  9
$DIMALT
 70
     0
  9
$DIMALTD
 70
     2
  9
$DIMALTF
 40
25.399999999999999
  9
$DIMLFAC
 40
1.0
  9
$DIMTOFL
 70
     0
  9
$DIMTVP
 40
0.0
  9
$DIMTIX
 70
     0
  9
$DIMSOXD
 70
     0
  9
$DIMSAH
 70
     0
  9
$DIMBLK1
  1

  9
$DIMBLK2
  1

  9
$DIMSTYLE
  2
STANDARD
  9
$DIMCLRD
 70
     0
  9
$DIMCLRE
 70
     0
  9
$DIMCLRT
 70
     0
  9
$DIMTFAC
 40
1.0
  9
$DIMGAP
 40
0.09
  9
$LUNITS
 70
     2
  9
$LUPREC
 70
     8
  9
$SKETCHINC
 40
1.0
  9
$FILLETRAD
 40
0.0
  9
$AUNITS
 70
     0
  9
$AUPREC
 70
     8
  9
$MENU
  1
.
  9
$ELEVATION
 40
0.0
  9
$PELEVATION
 40
0.0
  9
$THICKNESS
 40
0.0
  9
$LIMCHECK
 70
     0
  9
$BLIPMODE
 70
     0
  9
$CHAMFERA
 40
2.5
  9
$CHAMFERB
 40
2.5
  9
$SKPOLY
 70
     0
  9
$TDCREATE
 40
2454739.7204081588
  9
$TDUPDATE
 40
2454749.7570339581
  9
$TDINDWG
 40
0.300487581
  9
$TDUSRTIMER
 40
0.300487581
  9
$USRTIMER
 70
     1
  9
$ANGBASE
 50
0.0
  9
$ANGDIR
 70
     1
  9
$PDMODE
 70
     0
  9
$PDSIZE
 40
0.0
  9
$PLINEWID
 40
0.0
  9
$COORDS
 70
     1
  9
$SPLFRAME
 70
     0
  9
$SPLINETYPE
 70
     6
  9
$SPLINESEGS
 70
     8
  9
$ATTDIA
 70
     0
  9
$ATTREQ
 70
     1
  9
$HANDLING
 70
 22529
  9
$HANDSEED
  5
8173
  9
$SURFTAB1
 70
     6
  9
$SURFTAB2
 70
     6
  9
$SURFTYPE
 70
     6
  9
$SURFU
 70
     6
  9
$SURFV
 70
     6
  9
$UCSNAME
  2

  9
$UCSORG
 10
0.0
 20
0.0
 30
0.0
  9
$UCSXDIR
 10
1.0
 20
0.0
 30
0.0
  9
$UCSYDIR
 10
0.0
 20
1.0
 30
0.0
  9
$PUCSNAME
  2

  9
$PUCSORG
 10
0.0
 20
0.0
 30
0.0
  9
$PUCSXDIR
 10
1.0
 20
0.0
 30
0.0
  9
$PUCSYDIR
 10
0.0
 20
1.0
 30
0.0
  9
$USERI1
 70
     0
  9
$USERI2
 70
     0
  9
$USERI3
 70
     0
  9
$USERI4
 70
     0
  9
$USERI5
 70
     0
  9
$USERR1
 40
0.0
  9
$USERR2
 40
0.0
  9
$USERR3
 40
0.0
  9
$USERR4
 40
0.0
  9
$USERR5
 40
0.0
  9
$WORLDVIEW
 70
     1
  9
$SHADEDGE
 70
     3
  9
$SHADEDIF
 70
    70
  9
$TILEMODE
 70
     1
  9
$MAXACTVP
 70
    48
  9
$PLIMCHECK
 70
     0
  9
$PEXTMIN
 10
1.0000000000000000E+020
 20
1.0000000000000000E+020
 30
1.0000000000000000E+020
  9
$PEXTMAX
 10
-1.0000000000000000E+020
 20
-1.0000000000000000E+020
 30
-1.0000000000000000E+020
  9
$PLIMMIN
 10
0.0
 20
0.0
  9
$PLIMMAX
 10
420.0
 20
297.0
  9
$UNITMODE
 70
     0
  9
$VISRETAIN
 70
     1
  9
$PLINEGEN
 70
     0
  9
$PSLTSCALE
 70
     1
  0
ENDSEC
  0
SECTION
  2
TABLES
  0
TABLE
  2
VPORT
 70
     2
  0
VPORT
  2
*ACTIVE
 70
     0
 10
0.0
 20
0.0
 11
1.0
 21
1.0
 12
-0.008759174380998
 22
122.0642590409776
 13
0.0
 23
0.0
 14
2.5
 24
2.5
 15
10.0
 25
10.0
 16
0.0
 26
0.0
 36
1.0
 17
0.0
 27
0.0
 37
0.0
 40
475.89708290541131
 41
1.531806615776081
 42
50.0
 43
0.0
 44
0.0
 50
0.0
 51
0.0
 71
     0
 72
   100
 73
     1
 74
     3
 75
     0
 76
     0
 77
     0
 78
     0
  0
ENDTAB
  0
TABLE
  2
LTYPE
 70
     2
  0
LTYPE
  2
CONTINUOUS
 70
     0
  3
Solid line
 72
    65
 73
     0
 40
0.0
  0
LTYPE
  2
CENTER
 70
     0
  3
__ . __
 72
    65
 73
     4
 40
7.0
 49
4.0
 49
-1.0
 49
1.0
 49
-1.0
  0
ENDTAB
  0
TABLE
  2
LAYER
 70
     1
  0
LAYER
  2
0
 70
     0
 62
     7
  6
CONTINUOUS
  0
ENDTAB
  0
TABLE
  2
STYLE
 70
     2
  0
STYLE
  2
STANDARD
 70
     0
 40
0.0
 41
0.7
 50
0.0
 71
     0
 42
73.985717453579113
  3
romans.shx
  4
bigfont.shx
  0
STYLE
  2
TSKDIM
 70
     0
 40
0.0
 41
0.75
 50
0.0
 71
     0
 42
4.0
  3
romans.shx
  4
EXTFONT.SHX
  0
ENDTAB
  0
TABLE
  2
VIEW
 70
     0
  0
ENDTAB
  0
TABLE
  2
UCS
 70
     0
  0
ENDTAB
  0
TABLE
  2
APPID
 70
    41
  0
APPID
  2
ACAD
 70
     0
  0
APPID
  2
MCAD_NO_VIS
 70
     0
  0
APPID
  2
ACAD_TEMP_GRAPHIC
 70
     0
  0
APPID
  2
ACATTRIBSERVICES
 70
     0
  0
APPID
  2
AD_DRAW
 70
     0
  0
APPID
  2
DESIGNERASSEMBLIES
 70
     0
  0
APPID
  2
ASURF_PCURVE_APPNAME
 70
     0
  0
APPID
  2
ACADM_DIM_EDIT
 70
     0
  0
APPID
  2
GENIUS_GENDIM_13
 70
     0
  0
APPID
  2
GENIUS_GENDTOL_13
 70
     0
  0
APPID
  2
GENIUS_GE3DTOL_13
 70
     0
  0
APPID
  2
AMG_3D2D_5_0
 70
     0
  0
APPID
  2
AMDT_DM_ADJ
 70
     0
  0
APPID
  2
CK_MATE-SERIES
 70
     0
  0
APPID
  2
GEVID1042077799
 70
     0
  0
APPID
  2
GEVMK
 70
     0
  0
APPID
  2
GEVDC
 70
     0
  0
APPID
  2
GENIUS_GENBH_13
 70
     0
  0
APPID
  2
GENIUS_GENOLIS_13
 70
     0
  0
APPID
  2
GENIUS_GENOENT_13
 70
     0
  0
APPID
  2
GENIUS_GENODEF_13
 70
     0
  0
APPID
  2
GENIUS_GENOBJ-NBEHI-BHF_13
 70
     0
  0
APPID
  2
GENIUS_GENOREF_13
 70
     0
  0
APPID
  2
GENIUS_GENOBJ-NBEHI-BHB_13
 70
     0
  0
APPID
  2
GEVID1042183772
 70
     0
  0
APPID
  2
GEVID1042183773
 70
     0
  0
APPID
  2
GEVID1042183774
 70
     0
  0
APPID
  2
DCO15
 70
     0
  0
APPID
  2
ACAD_DSTYLE_DIMARC_LENGTH_
 70
     0
  0
APPID
  2
ACAD_DSTYLE_DIMJOGGED_JOGA
 70
     0
  0
APPID
  2
ACAD_MLEADERVER
 70
     0
  0
APPID
  2
ACAD_DSTYLE_DIMJAG
 70
     0
  0
APPID
  2
ACAD_DSTYLE_DIMTALN
 70
     0
  0
APPID
  2
ACAD_PSEXT
 70
     0
  0
APPID
  2
ACAD_EXEMPT_FROM_CAD_STANDARDS
 70
     0
  0
APPID
  2
ACAD_DSTYLE_DIMINSPECT
 70
     0
  0
APPID
  2
ACAD_DSTYLE_DIMANGULAR_EXT
 70
     0
  0
APPID
  2
GENIUS_GENOBJ-N-FIL_13
 70
     0
  0
APPID
  2
ACAD_DSTYLE_DIM_LINETYPE
 70
     0
  0
APPID
  2
ACAD_DSTYLE_DIM_EXT1_LINETYPE
 70
     0
  0
APPID
  2
ACAD_DSTYLE_DIM_EXT2_LINETYPE
 70
     0
  0
ENDTAB
  0
TABLE
  2
DIMSTYLE
 70
     1
  0
DIMSTYLE
  2
STANDARD
 70
     0
  3

  4

  5

  6

  7

 40
1.0
 41
0.18
 42
0.0625
 43
0.38
 44
0.18
 45
0.0
 46
0.0
 47
0.0
 48
0.0
140
30.0
141
0.09
142
0.0
143
25.399999999999999
144
1.0
145
0.0
146
1.0
147
0.09
 71
     0
 72
     0
 73
     1
 74
     1
 75
     0
 76
     0
 77
     0
 78
     0
170
     0
171
     2
172
     0
173
     0
174
     0
175
     0
176
     0
177
     0
178
     0
  0
ENDTAB
  0
ENDSEC
  0
SECTION
  2
BLOCKS
  0
BLOCK
  8
0
  2
$MODEL_SPACE
 70
     0
 10
0.0
 20
0.0
 30
0.0
  3
$MODEL_SPACE
  1

  0
ENDBLK
  5
21
  8
0
  0
BLOCK
 67
     1
  8
0
  2
$PAPER_SPACE
 70
     0
 10
0.0
 20
0.0
 30
0.0
  3
$PAPER_SPACE
  1

  0
ENDBLK
  5
1D
 67
     1
  8
0
  0
BLOCK
  8
0
  2
_OPEN
 70
     0
 10
0.0
 20
0.0
 30
0.0
  3
_OPEN
  1

  0
LINE
  5
15A
  8
0
  6
BYBLOCK
 62
     0
 10
-1.0
 20
0.1666666666666666
 30
0.0
 11
0.0
 21
0.0
 31
0.0
  0
LINE
  5
15B
  8
0
  6
BYBLOCK
 62
     0
 10
-1.0
 20
-0.1666666666666666
 30
0.0
 11
0.0
 21
0.0
 31
0.0
  0
LINE
  5
15C
  8
0
  6
BYBLOCK
 62
     0
 10
0.0
 20
0.0
 30
0.0
 11
-1.0
 21
0.0
 31
0.0
  0
ENDBLK
  5
15E
  8
0
  0
ENDSEC
  0
SECTION
  2
ENTITIES
  0
LINE
  5
7934
  8
0
 10
-57.499968999999957
 20
-44.149989999999889
 30
0.0
 11
57.499968999999957
 21
-44.149989999999889
 31
0.0
  0
LINE
  5
7935
  8
0
 10
-57.499968999999957
 20
-44.149989999999889
 30
0.0
 11
-57.499968999999957
 21
-47.149989999999889
 31
0.0
  0
LINE
  5
7936
  8
0
 10
57.499968999999957
 20
-44.149989999999889
 30
0.0
 11
57.499968999999957
 21
-47.149989999999889
 31
0.0
  0
LINE
  5
7937
  8
0
 10
-57.499968999999957
 20
-47.149989999999889
 30
0.0
 11
-52.499968999999957
 21
-47.149989999999889
 31
0.0
  0
LINE
  5
7938
  8
0
 10
12.801218000000061
 20
-57.149985999999899
 30
0.0
 11
50.020911999999953
 21
-50.587150999999722
 31
0.0
  0
LINE
  5
7939
  8
0
 10
-12.801042999999931
 20
-57.149985999999899
 30
0.0
 11
-50.020915999999943
 21
-50.587120000000141
 31
0.0
  0
LINE
  5
793A
  8
0
 10
13.999968999999959
 20
-71.149993999999865
 30
0.0
 11
8.1394043000000238
 21
-71.149993999999865
 31
0.0
  0
LINE
  5
793B
  8
0
 10
13.999968999999959
 20
-81.149985999999899
 30
0.0
 11
8.1394043000000238
 21
-81.149985999999899
 31
0.0
  0
LINE
  5
793C
  8
0
 10
14.49993900000004
 20
-69.149985999999885
 30
0.0
 11
8.1394043000000238
 21
-69.149985999999885
 31
0.0
  0
LINE
  5
793D
  8
0
 10
-12.801042999999931
 20
-57.149985999999899
 30
0.0
 11
12.801218000000061
 21
-57.149985999999899
 31
0.0
  0
LINE
  5
793E
  8
0
 10
8.1394043000000238
 20
-57.149985999999899
 30
0.0
 11
8.1394043000000238
 21
-82.149993999999865
 31
0.0
  0
LINE
  5
793F
  8
0
 10
52.499968999999957
 20
-47.149989999999889
 30
0.0
 11
57.499968999999957
 21
-47.149989999999889
 31
0.0
  0
LINE
  5
7940
  8
0
 10
9.9999390000000403
 20
-82.149993999999865
 30
0.0
 11
9.9999390000000403
 21
-87.149985999999899
 31
0.0
  0
LINE
  5
7941
  8
0
 10
-55.5
 20
-42.149985999999892
 30
0.0
 11
-34.5
 21
-42.149985999999892
 31
0.0
  0
LINE
  5
7942
  8
0
 10
-34.5
 20
-42.149985999999892
 30
0.0
 11
-34.5
 21
-44.149989999999889
 31
0.0
  0
LINE
  5
7943
  8
0
 10
-55.5
 20
-42.149985999999892
 30
0.0
 11
-55.5
 21
-44.149989999999889
 31
0.0
  0
LINE
  5
7944
  8
0
 10
-54.237579000000089
 20
-40.349991000000038
 30
0.0
 11
-35.762328999999909
 21
-40.349991000000038
 31
0.0
  0
LINE
  5
7945
  8
0
 10
-54.0
 20
-40.349991000000038
 30
0.0
 11
-54.0
 21
-42.149985999999892
 31
0.0
  0
LINE
  5
7946
  8
0
 10
-36.754028000000062
 20
-40.349991000000038
 30
0.0
 11
-36.754028000000062
 21
-42.149985999999892
 31
0.0
  0
LINE
  5
7947
  8
0
 10
-36.0
 20
-40.349991000000038
 30
0.0
 11
-36.0
 21
-42.149985999999892
 31
0.0
  0
LINE
  5
7948
  8
0
 10
-37.753967000000102
 20
-40.349991000000038
 30
0.0
 11
-37.753967000000102
 21
-42.149985999999892
 31
0.0
  0
LINE
  5
7949
  8
0
 10
-39.661834999999883
 20
-40.349991000000038
 30
0.0
 11
-39.661834999999883
 21
-42.149985999999892
 31
0.0
  0
LINE
  5
794A
  8
0
 10
-41.393921000000091
 20
-40.349991000000038
 30
0.0
 11
-41.393921000000091
 21
-42.149985999999892
 31
0.0
  0
LINE
  5
794B
  8
0
 10
-43.999968999999957
 20
-40.349991000000038
 30
0.0
 11
-43.999968999999957
 21
-42.149985999999892
 31
0.0
  0
LINE
  5
794C
  8
0
 10
-45.999939000000033
 20
-40.349991000000038
 30
0.0
 11
-45.999939000000033
 21
-42.149985999999892
 31
0.0
  0
LINE
  5
794D
  8
0
 10
-48.606078999999902
 20
-40.349991000000038
 30
0.0
 11
-48.606078999999902
 21
-42.149985999999892
 31
0.0
  0
LINE
  5
794E
  8
0
 10
-50.33816500000011
 20
-40.349991000000038
 30
0.0
 11
-50.33816500000011
 21
-42.149985999999892
 31
0.0
  0
LINE
  5
794F
  8
0
 10
-52.245940999999902
 20
-40.349991000000038
 30
0.0
 11
-52.245940999999902
 21
-42.149985999999892
 31
0.0
  0
LINE
  5
7950
  8
0
 10
-53.245971999999938
 20
-40.349991000000038
 30
0.0
 11
-53.245971999999938
 21
-42.149985999999892
 31
0.0
  0
LINE
  5
7951
  8
0
 10
-40.381165000000003
 20
-32.664528000000239
 30
0.0
 11
-40.381165000000003
 21
-40.349991000000038
 31
0.0
  0
LINE
  5
7952
  8
0
 10
-35.762328999999909
 20
-32.664528000000239
 30
0.0
 11
-35.762328999999909
 21
-40.349991000000038
 31
0.0
  0
LINE
  5
7953
  8
0
 10
-49.618744000000099
 20
-32.664528000000239
 30
0.0
 11
-49.618744000000099
 21
-40.349991000000038
 31
0.0
  0
LINE
  5
7954
  8
0
 10
-37.000019000000059
 20
-31.94996999999967
 30
0.0
 11
-35.762428
 21
-32.664494000000097
 31
0.0
  0
LINE
  5
7955
  8
0
 10
-52.999968999999957
 20
-31.949996999999708
 30
0.0
 11
-36.99993900000004
 21
-31.949996999999708
 31
0.0
  0
LINE
  5
7956
  8
0
 10
-52.999980999999927
 20
-31.94993599999998
 30
0.0
 11
-54.237609999999897
 21
-32.664482000000127
 31
0.0
  0
LINE
  5
7957
  8
0
 10
-54.237579000000089
 20
-32.664528000000239
 30
0.0
 11
-54.237579000000089
 21
-40.349991000000038
 31
0.0
  0
LINE
  5
7958
  8
0
 10
-52.999968999999957
 20
-59.349987000000048
 30
0.0
 11
-36.99993900000004
 21
-59.349987000000048
 31
0.0
  0
LINE
  5
7959
  8
0
 10
-52.999984999999917
 20
-59.349979000000069
 30
0.0
 11
-54.237656000000023
 21
-58.635409999999872
 31
0.0
  0
LINE
  5
795A
  8
0
 10
-54.237579000000089
 20
-58.635440999999901
 30
0.0
 11
-54.237579000000089
 21
-50.949988999999732
 31
0.0
  0
LINE
  5
795B
  8
0
 10
-49.618744000000099
 20
-58.635440999999901
 30
0.0
 11
-49.618744000000099
 21
-50.949988999999732
 31
0.0
  0
LINE
  5
795C
  8
0
 10
-40.381165000000003
 20
-58.635440999999901
 30
0.0
 11
-40.381165000000003
 21
-52.286865000000027
 31
0.0
  0
LINE
  5
795D
  8
0
 10
-35.762328999999909
 20
-58.635440999999901
 30
0.0
 11
-35.762328999999909
 21
-53.101292000000278
 31
0.0
  0
LINE
  5
795E
  8
0
 10
-36.999980999999927
 20
-59.350006000000121
 30
0.0
 11
-35.762351999999957
 21
-58.635459999999959
 31
0.0
  0
LINE
  5
795F
  8
0
 10
-53.245971999999938
 20
-50.949988999999732
 30
0.0
 11
-53.245971999999938
 21
-49.149994000000333
 31
0.0
  0
LINE
  5
7960
  8
0
 10
-55.5
 20
-49.149994000000333
 30
0.0
 11
-52.087982000000011
 21
-49.149994000000333
 31
0.0
  0
LINE
  5
7961
  8
0
 10
-55.5
 20
-49.149994000000333
 30
0.0
 11
-55.5
 21
-47.149989999999889
 31
0.0
  0
LINE
  5
7962
  8
0
 10
-54.237579000000089
 20
-50.949988999999732
 30
0.0
 11
-47.962970999999918
 21
-50.949988999999732
 31
0.0
  0
LINE
  5
7963
  8
0
 10
-54.0
 20
-50.949988999999732
 30
0.0
 11
-54.0
 21
-49.149994000000333
 31
0.0
  0
LINE
  5
7964
  8
0
 10
-52.245940999999902
 20
-50.949988999999732
 30
0.0
 11
-52.245940999999902
 21
-49.149994000000333
 31
0.0
  0
LINE
  5
7965
  8
0
 10
14.50003100000003
 20
-56.850441000000053
 30
0.0
 11
14.50003100000003
 21
-69.149985999999885
 31
0.0
  0
LINE
  5
7966
  8
0
 10
-13.5
 20
-70.149993999999879
 30
0.0
 11
13.49998000000005
 21
-70.149993999999879
 31
0.0
  0
LINE
  5
7967
  8
0
 10
-14.49993900000004
 20
-56.85042599999997
 30
0.0
 11
-14.49993900000004
 21
-69.149985999999885
 31
0.0
  0
LINE
  5
7968
  8
0
 10
-8.1394043000000238
 20
-57.149985999999899
 30
0.0
 11
-8.1394043000000238
 21
-82.149993999999865
 31
0.0
  0
LINE
  5
7969
  8
0
 10
8.1394052999999076
 20
-57.149993999999879
 30
0.0
 11
-8.139401399999997
 21
-70.149985999999899
 31
0.0
  0
LINE
  5
796A
  8
0
 10
8.1394043000000238
 20
-70.150008999999955
 30
0.0
 11
-8.139471100000037
 21
-57.149967000000281
 31
0.0
  0
LINE
  5
796B
  8
0
 10
-14.500009999999969
 20
-69.149978999999803
 30
0.0
 11
-13.500011000000081
 21
-70.149978999999803
 31
0.0
  0
LINE
  5
796C
  8
0
 10
-14.49993900000004
 20
-69.149985999999885
 30
0.0
 11
-8.1394043000000238
 21
-69.149985999999885
 31
0.0
  0
LINE
  5
796D
  8
0
 10
14.49998000000005
 20
-69.149993999999879
 30
0.0
 11
13.49997899999993
 21
-70.149993999999879
 31
0.0
  0
LINE
  5
796E
  8
0
 10
14.00006099999996
 20
-71.149993999999865
 30
0.0
 11
14.00006099999996
 21
-81.149985999999899
 31
0.0
  0
LINE
  5
796F
  8
0
 10
12.9999929999999
 20
-82.150008999999955
 30
0.0
 11
14.00002700000004
 21
-81.149978999999803
 31
0.0
  0
LINE
  5
7970
  8
0
 10
14.000009999999969
 20
-71.150016999999934
 30
0.0
 11
13.000009000000089
 21
-70.150016999999934
 31
0.0
  0
LINE
  5
7971
  8
0
 10
-13.999953
 20
-71.149993999999865
 30
0.0
 11
-12.99995199999989
 21
-70.149993999999879
 31
0.0
  0
LINE
  5
7972
  8
0
 10
-13.999968999999959
 20
-71.149993999999865
 30
0.0
 11
-13.999968999999959
 21
-81.149985999999899
 31
0.0
  0
LINE
  5
7973
  8
0
 10
-12.99993900000004
 20
-82.149993999999865
 30
0.0
 11
13.000013000000081
 21
-82.149993999999865
 31
0.0
  0
LINE
  5
7974
  8
0
 10
-12.999982999999929
 20
-82.149970999999809
 30
0.0
 11
-13.99998400000004
 21
-81.149970999999823
 31
0.0
  0
LINE
  5
7975
  8
0
 10
8.1394061999999394
 20
-70.149985999999899
 30
0.0
 11
-8.1394281000000301
 21
-82.150002000000313
 31
0.0
  0
LINE
  5
7976
  8
0
 10
8.1394032999999126
 20
-82.149985999999899
 30
0.0
 11
-8.1393757000000733
 21
-70.150008999999955
 31
0.0
  0
LINE
  5
7977
  8
0
 10
-13.999968999999959
 20
-71.149993999999865
 30
0.0
 11
-8.1394043000000238
 21
-71.149993999999865
 31
0.0
  0
LINE
  5
7978
  8
0
 10
-13.999968999999959
 20
-81.149985999999899
 30
0.0
 11
-8.1394043000000238
 21
-81.149985999999899
 31
0.0
  0
LINE
  5
7979
  8
0
 10
-18.26143999999999
 20
-91.149993999999865
 30
0.0
 11
18.261467000000039
 21
-91.149993999999865
 31
0.0
  0
LINE
  5
797A
  8
0
 10
20.00006099999996
 20
-100.1499899999998
 30
0.0
 11
-19.999968999999961
 21
-100.1499899999998
 31
0.0
  0
LINE
  5
797B
  8
0
 10
21.0
 20
-93.898979000000054
 30
0.0
 11
21.0
 21
-99.149985999999885
 31
0.0
  0
LINE
  5
797C
  8
0
 10
14.50003100000003
 20
-88.149993999999879
 30
0.0
 11
14.50003100000003
 21
-88.748657000000094
 31
0.0
  0
LINE
  5
797D
  8
0
 10
8.4999981000000844
 20
-82.149978999999803
 30
0.0
 11
9.9999981000000844
 21
-84.748055000000022
 31
0.0
  0
LINE
  5
797E
  8
0
 10
16.325638000000019
 20
-90.741043000000005
 30
0.0
 11
18.261451999999959
 21
-90.910399999999754
 31
0.0
  0
LINE
  5
797F
  8
0
 10
-13.5
 20
-87.149985999999899
 30
0.0
 11
13.5
 21
-87.149985999999899
 31
0.0
  0
LINE
  5
7980
  8
0
 10
-21.0
 20
-93.898979000000054
 30
0.0
 11
-21.0
 21
-99.149985999999885
 31
0.0
  0
LINE
  5
7981
  8
0
 10
-14.49993900000004
 20
-88.149993999999879
 30
0.0
 11
-14.49993900000004
 21
-88.748657000000094
 31
0.0
  0
LINE
  5
7982
  8
0
 10
-9.9999390000000403
 20
-82.149993999999865
 30
0.0
 11
-9.9999390000000403
 21
-87.149985999999899
 31
0.0
  0
LINE
  5
7983
  8
0
 10
-8.5000314999999773
 20
-82.149970999999809
 30
0.0
 11
-10.00003100000003
 21
-84.748047000000057
 31
0.0
  0
LINE
  5
7984
  8
0
 10
-16.325718000000052
 20
-90.74105099999997
 30
0.0
 11
-18.26143999999999
 21
-90.910399999999754
 31
0.0
  0
LINE
  5
7985
  8
0
 10
-14.49993900000004
 20
-90.58131400000002
 30
0.0
 11
14.50003100000003
 21
-90.58131400000002
 31
0.0
  0
LINE
  5
7986
  8
0
 10
-19.999990000000022
 20
-100.1499899999998
 30
0.0
 11
-20.99999200000002
 21
-99.149985999999885
 31
0.0
  0
LINE
  5
7987
  8
0
 10
20.999972999999951
 20
-99.149978999999803
 30
0.0
 11
19.99997099999996
 21
-100.1499800000001
 31
0.0
  0
LINE
  5
7988
  8
0
 10
-21.0
 20
-99.149985999999885
 30
0.0
 11
21.0
 21
-99.149985999999885
 31
0.0
  0
LINE
  5
7989
  8
0
 10
18.50006099999996
 20
-38.149989999999889
 30
0.0
 11
-18.499968999999961
 21
-38.149989999999889
 31
0.0
  0
LINE
  5
798A
  8
0
 10
19.000031000000028
 20
-38.649994000000333
 30
0.0
 11
19.000031000000028
 21
-43.649985999999899
 31
0.0
  0
LINE
  5
798B
  8
0
 10
19.000019000000059
 20
-43.649994000000333
 30
0.0
 11
18.500019000000059
 21
-44.149994000000333
 31
0.0
  0
LINE
  5
798C
  8
0
 10
19.000013000000081
 20
-38.650012999999937
 30
0.0
 11
18.499980999999931
 21
-38.149981999999902
 31
0.0
  0
LINE
  5
798D
  8
0
 10
-18.99993900000004
 20
-38.649994000000333
 30
0.0
 11
-18.99993900000004
 21
-43.649985999999899
 31
0.0
  0
LINE
  5
798E
  8
0
 10
-18.499988999999911
 20
-44.15002800000002
 30
0.0
 11
-19.000023000000049
 21
-43.649994000000333
 31
0.0
  0
LINE
  5
798F
  8
0
 10
-18.500025000000051
 20
-38.150016999999927
 30
0.0
 11
-18.99999200000002
 21
-38.649985999999899
 31
0.0
  0
LINE
  5
7990
  8
0
 10
-18.99993900000004
 20
-38.649994000000333
 30
0.0
 11
19.000031000000028
 21
-38.649994000000333
 31
0.0
  0
LINE
  5
7991
  8
0
 10
-18.99993900000004
 20
-43.649985999999899
 30
0.0
 11
19.000031000000028
 21
-43.649985999999899
 31
0.0
  0
LINE
  5
7992
  8
0
 10
55.5
 20
-42.149985999999892
 30
0.0
 11
34.5
 21
-42.149985999999892
 31
0.0
  0
LINE
  5
7993
  8
0
 10
34.5
 20
-42.149985999999892
 30
0.0
 11
34.5
 21
-44.149989999999889
 31
0.0
  0
LINE
  5
7994
  8
0
 10
55.5
 20
-42.149985999999892
 30
0.0
 11
55.5
 21
-44.149989999999889
 31
0.0
  0
LINE
  5
7995
  8
0
 10
54.237579000000089
 20
-40.349991000000038
 30
0.0
 11
35.762420999999897
 21
-40.349991000000038
 31
0.0
  0
LINE
  5
7996
  8
0
 10
54.0
 20
-40.349991000000038
 30
0.0
 11
54.0
 21
-42.149985999999892
 31
0.0
  0
LINE
  5
7997
  8
0
 10
36.754028000000062
 20
-40.349991000000038
 30
0.0
 11
36.754028000000062
 21
-42.149985999999892
 31
0.0
  0
LINE
  5
7998
  8
0
 10
36.0
 20
-40.349991000000038
 30
0.0
 11
36.0
 21
-42.149985999999892
 31
0.0
  0
LINE
  5
7999
  8
0
 10
37.75405900000009
 20
-40.349991000000038
 30
0.0
 11
37.75405900000009
 21
-42.149985999999892
 31
0.0
  0
LINE
  5
799A
  8
0
 10
39.661834999999883
 20
-40.349991000000038
 30
0.0
 11
39.661834999999883
 21
-42.149985999999892
 31
0.0
  0
LINE
  5
799B
  8
0
 10
41.393829000000089
 20
-40.349991000000038
 30
0.0
 11
41.393829000000089
 21
-42.149985999999892
 31
0.0
  0
LINE
  5
799C
  8
0
 10
43.999968999999957
 20
-40.349991000000038
 30
0.0
 11
43.999968999999957
 21
-42.149985999999892
 31
0.0
  0
LINE
  5
799D
  8
0
 10
46.000031000000028
 20
-40.349991000000038
 30
0.0
 11
46.000031000000028
 21
-42.149985999999892
 31
0.0
  0
LINE
  5
799E
  8
0
 10
48.606078999999902
 20
-40.349991000000038
 30
0.0
 11
48.606078999999902
 21
-42.149985999999892
 31
0.0
  0
LINE
  5
799F
  8
0
 10
50.33816500000011
 20
-40.349991000000038
 30
0.0
 11
50.33816500000011
 21
-42.149985999999892
 31
0.0
  0
LINE
  5
79A0
  8
0
 10
52.245940999999902
 20
-40.349991000000038
 30
0.0
 11
52.245940999999902
 21
-42.149985999999892
 31
0.0
  0
LINE
  5
79A1
  8
0
 10
53.245971999999938
 20
-40.349991000000038
 30
0.0
 11
53.245971999999938
 21
-42.149985999999892
 31
0.0
  0
LINE
  5
79A2
  8
0
 10
40.381165000000003
 20
-32.664528000000239
 30
0.0
 11
40.381165000000003
 21
-40.349991000000038
 31
0.0
  0
LINE
  5
79A3
  8
0
 10
35.762420999999897
 20
-32.664528000000239
 30
0.0
 11
35.762420999999897
 21
-40.349991000000038
 31
0.0
  0
LINE
  5
79A4
  8
0
 10
49.618744000000099
 20
-32.664528000000239
 30
0.0
 11
49.618744000000099
 21
-40.349991000000038
 31
0.0
  0
LINE
  5
79A5
  8
0
 10
37.000031000000028
 20
-31.94998000000032
 30
0.0
 11
35.762402000000058
 21
-32.664523999999801
 31
0.0
  0
LINE
  5
79A6
  8
0
 10
52.999968999999957
 20
-31.949988999999729
 30
0.0
 11
37.000031000000028
 21
-31.949988999999729
 31
0.0
  0
LINE
  5
79A7
  8
0
 10
53.000015000000069
 20
-31.949990999999951
 30
0.0
 11
54.237605999999907
 21
-32.664515999999821
 31
0.0
  0
LINE
  5
79A8
  8
0
 10
54.237579000000089
 20
-32.664528000000239
 30
0.0
 11
54.237579000000089
 21
-40.349991000000038
 31
0.0
  0
LINE
  5
79A9
  8
0
 10
55.5
 20
-49.149994000000333
 30
0.0
 11
55.5
 21
-47.149989999999889
 31
0.0
  0
LINE
  5
79AA
  8
0
 10
53.245971999999938
 20
-50.949988999999732
 30
0.0
 11
53.245971999999938
 21
-49.149994000000333
 31
0.0
  0
LINE
  5
79AB
  8
0
 10
55.5
 20
-49.149994000000333
 30
0.0
 11
52.088001000000077
 21
-49.149994000000333
 31
0.0
  0
LINE
  5
79AC
  8
0
 10
54.0
 20
-50.949988999999732
 30
0.0
 11
54.0
 21
-49.149994000000333
 31
0.0
  0
LINE
  5
79AD
  8
0
 10
50.33816500000011
 20
-50.949988999999732
 30
0.0
 11
50.33816500000011
 21
-50.513251999999738
 31
0.0
  0
LINE
  5
79AE
  8
0
 10
52.245940999999902
 20
-50.949988999999732
 30
0.0
 11
52.245940999999902
 21
-49.149994000000333
 31
0.0
  0
LINE
  5
79AF
  8
0
 10
54.237579000000089
 20
-50.949988999999732
 30
0.0
 11
47.963146000000037
 21
-50.949988999999732
 31
0.0
  0
LINE
  5
79B0
  8
0
 10
52.999968999999957
 20
-59.349987000000048
 30
0.0
 11
37.000031000000028
 21
-59.349987000000048
 31
0.0
  0
LINE
  5
79B1
  8
0
 10
53.000011000000093
 20
-59.350010000000111
 30
0.0
 11
54.237601999999931
 21
-58.635487000000012
 31
0.0
  0
LINE
  5
79B2
  8
0
 10
54.237579000000089
 20
-58.635440999999901
 30
0.0
 11
54.237579000000089
 21
-50.949988999999732
 31
0.0
  0
LINE
  5
79B3
  8
0
 10
49.618744000000099
 20
-58.635440999999901
 30
0.0
 11
49.618744000000099
 21
-50.949988999999732
 31
0.0
  0
LINE
  5
79B4
  8
0
 10
40.381165000000003
 20
-58.635440999999901
 30
0.0
 11
40.381165000000003
 21
-52.28689600000007
 31
0.0
  0
LINE
  5
79B5
  8
0
 10
35.762420999999897
 20
-58.635440999999901
 30
0.0
 11
35.762420999999897
 21
-53.101306999999913
 31
0.0
  0
LINE
  5
79B6
  8
0
 10
37.000027000000038
 20
-59.350040000000263
 30
0.0
 11
35.762355999999947
 21
-58.635471000000052
 31
0.0
  0
LINE
  5
79B7
  8
0
 10
-49.999968999999957
 20
-1.850006099999973
 30
0.0
 11
-49.999968999999957
 21
-31.949996999999708
 31
0.0
  0
LINE
  5
79B8
  8
0
 10
-39.99993900000004
 20
-1.850006099999973
 30
0.0
 11
-39.99993900000004
 21
-31.949996999999708
 31
0.0
  0
LINE
  5
79B9
  8
0
 10
40.000031000000028
 20
-1.850006099999973
 30
0.0
 11
40.000031000000028
 21
-31.949996999999708
 31
0.0
  0
LINE
  5
79BA
  8
0
 10
50.00006099999996
 20
-1.850006099999973
 30
0.0
 11
50.00006099999996
 21
-31.949996999999708
 31
0.0
  0
LINE
  5
79BB
  8
0
 10
-49.999968999999957
 20
-26.849991000000038
 30
0.0
 11
-39.99993900000004
 21
-26.849991000000038
 31
0.0
  0
LINE
  5
79BC
  8
0
 10
40.000031000000028
 20
-26.849991000000038
 30
0.0
 11
50.00006099999996
 21
-26.849991000000038
 31
0.0
  0
LINE
  5
79BD
  8
0
 10
-48.99993900000004
 20
-26.849991000000038
 30
0.0
 11
-48.99993900000004
 21
-31.949996999999708
 31
0.0
  0
LINE
  5
79BE
  8
0
 10
-40.999968999999957
 20
-26.849991000000038
 30
0.0
 11
-40.999968999999957
 21
-31.949996999999708
 31
0.0
  0
LINE
  5
79BF
  8
0
 10
41.00006099999996
 20
-26.849991000000038
 30
0.0
 11
41.00006099999996
 21
-31.949996999999708
 31
0.0
  0
LINE
  5
79C0
  8
0
 10
49.000031000000028
 20
-26.849991000000038
 30
0.0
 11
49.000031000000028
 21
-31.949996999999708
 31
0.0
  0
LINE
  5
79C1
  8
0
 10
-40.999862999999998
 20
-26.850073000000059
 30
0.0
 11
-39.999855000000018
 21
-25.11801000000014
 31
0.0
  0
LINE
  5
79C2
  8
0
 10
-48.999835999999959
 20
-26.849917999999889
 30
0.0
 11
-49.999821000000111
 21
-25.11789500000031
 31
0.0
  0
LINE
  5
79C3
  8
0
 10
41.00011399999994
 20
-26.849944999999931
 30
0.0
 11
40.000129999999899
 21
-25.117919999999678
 31
0.0
  0
LINE
  5
79C4
  8
0
 10
49.00017200000002
 20
-26.850093999999888
 30
0.0
 11
50.000178999999882
 21
-25.11803099999997
 31
0.0
  0
LINE
  5
79C5
  8
0
 10
-49.999968999999957
 20
-76.850006000000121
 30
0.0
 11
-39.99993900000004
 21
-76.850006000000121
 31
0.0
  0
LINE
  5
79C6
  8
0
 10
40.000031000000028
 20
-76.850006000000121
 30
0.0
 11
50.00006099999996
 21
-76.850006000000121
 31
0.0
  0
LINE
  5
79C7
  8
0
 10
-39.99993900000004
 20
-59.349987000000048
 30
0.0
 11
-39.99993900000004
 21
-76.850006000000121
 31
0.0
  0
LINE
  5
79C8
  8
0
 10
-40.999968999999957
 20
-59.349987000000048
 30
0.0
 11
-40.999968999999957
 21
-76.850006000000121
 31
0.0
  0
LINE
  5
79C9
  8
0
 10
-48.99993900000004
 20
-59.349987000000048
 30
0.0
 11
-48.99993900000004
 21
-76.850006000000121
 31
0.0
  0
LINE
  5
79CA
  8
0
 10
-49.999968999999957
 20
-59.349987000000048
 30
0.0
 11
-49.999968999999957
 21
-76.850006000000121
 31
0.0
  0
LINE
  5
79CB
  8
0
 10
40.000031000000028
 20
-59.349987000000048
 30
0.0
 11
40.000031000000028
 21
-76.850006000000121
 31
0.0
  0
LINE
  5
79CC
  8
0
 10
41.00006099999996
 20
-59.349987000000048
 30
0.0
 11
41.00006099999996
 21
-76.850006000000121
 31
0.0
  0
LINE
  5
79CD
  8
0
 10
49.000031000000028
 20
-59.349987000000048
 30
0.0
 11
49.000031000000028
 21
-76.850006000000121
 31
0.0
  0
LINE
  5
79CE
  8
0
 10
50.00006099999996
 20
-59.349987000000048
 30
0.0
 11
50.00006099999996
 21
-76.850006000000121
 31
0.0
  0
LINE
  5
79CF
  8
0
 10
-52.499968999999957
 20
-44.149989999999889
 30
0.0
 11
-52.499968999999957
 21
-47.632693999999901
 31
0.0
  0
LINE
  5
79D0
  8
0
 10
52.499968999999957
 20
-44.149989999999889
 30
0.0
 11
52.499968999999957
 21
-47.632724999999937
 31
0.0
  0
ARC
  5
79D1
  8
0
 10
-45.0
 20
-47.235477000000166
 30
0.0
 40
15.285469000000001
 50
72.412049999999681
 51
107.58795000000021
  0
ARC
  5
79D2
  8
0
 10
-38.071746999999952
 20
-36.039322000000077
 30
0.0
 40
4.0893163999999986
 50
64.384263999998609
 51
124.3842500000104
  0
ARC
  5
79D3
  8
0
 10
-51.928161999999929
 20
-36.039322000000077
 30
0.0
 40
4.0893163999999986
 50
55.615746000003497
 51
115.6157399999921
  0
ARC
  5
79D4
  8
0
 10
-51.928161999999929
 20
-55.260658000000149
 30
0.0
 40
4.0893163999999986
 50
244.3842600000078
 51
304.38425000001041
  0
ARC
  5
79D5
  8
0
 10
-45.0
 20
-44.064513999999683
 30
0.0
 40
15.285469000000001
 50
252.4120499999996
 51
287.58795000000032
  0
ARC
  5
79D6
  8
0
 10
-38.071746999999952
 20
-55.260658000000149
 30
0.0
 40
4.0893163999999986
 50
235.61574999998939
 51
295.61573999999212
  0
ARC
  5
79D7
  8
0
 10
13.5
 20
-88.149993999999879
 30
0.0
 40
1.0
 50
0.0
 51
90.0
  0
ARC
  5
79D8
  8
0
 10
18.0
 20
-93.898979000000054
 30
0.0
 40
3.0
 50
0.0
 51
85.000009000004951
  0
ARC
  5
79D9
  8
0
 10
16.5
 20
-88.748657000000094
 30
0.0
 40
2.0
 50
180.0
 51
265.00001000000088
  0
ARC
  5
79DA
  8
0
 10
-16.5
 20
-88.748657000000094
 30
0.0
 40
2.0
 50
274.99998999999889
 51
0.0
  0
ARC
  5
79DB
  8
0
 10
-18.0
 20
-93.898979000000054
 30
0.0
 40
3.0
 50
94.999990999995021
 51
180.0
  0
ARC
  5
79DC
  8
0
 10
-13.5
 20
-88.149993999999879
 30
0.0
 40
1.0
 50
90.0
 51
180.0
  0
ARC
  5
79DD
  8
0
 10
45.0
 20
-44.064513999999683
 30
0.0
 40
15.285469000000001
 50
252.4120499999996
 51
287.58795000000032
  0
ARC
  5
79DE
  8
0
 10
45.0
 20
-47.235477000000166
 30
0.0
 40
15.285469000000001
 50
72.412049999999681
 51
107.58795000000021
  0
ARC
  5
79DF
  8
0
 10
38.071746999999952
 20
-36.039322000000077
 30
0.0
 40
4.0893163999999986
 50
55.615746000003497
 51
115.6157399999921
  0
ARC
  5
79E0
  8
0
 10
51.928161999999929
 20
-36.039322000000077
 30
0.0
 40
4.0893163999999986
 50
64.384263999998609
 51
124.3842500000104
  0
ARC
  5
79E1
  8
0
 10
38.071746999999952
 20
-55.260658000000149
 30
0.0
 40
4.0893163999999986
 50
244.3842600000078
 51
304.38425000001041
  0
ARC
  5
79E2
  8
0
 10
51.928161999999929
 20
-55.260658000000149
 30
0.0
 40
4.0893163999999986
 50
235.61574999998939
 51
295.61573999999212
  0
ARC
  5
79E3
  8
0
 10
0.0
 20
-1.850006099999973
 30
0.0
 40
40.0
 50
0.0
 51
180.0
  0
ARC
  5
79E4
  8
0
 10
0.0
 20
-1.850006099999973
 30
0.0
 40
50.000003999999997
 50
0.0
 51
180.000010000001
  0
ARC
  5
79E5
  8
0
 10
-49.499968999999957
 20
-47.632693999999901
 30
0.0
 40
3.0
 50
180.0
 51
260.00002999999521
  0
ARC
  5
79E6
  8
0
 10
49.499968999999957
 20
-47.632724999999937
 30
0.0
 40
3.0
 50
280.00004000000592
 51
0.0
  0
LINE
  5
79E7
  8
0
 10
155.41121616341789
 20
-44.150012999999937
 30
0.0
 11
192.41120016341799
 21
-44.150012999999937
 31
0.0
  0
LINE
  5
79E8
  8
0
 10
157.908427163418
 20
-47.150012999999937
 30
0.0
 11
189.91398916341811
 21
-47.150012999999937
 31
0.0
  0
LINE
  5
79E9
  8
0
 10
153.91121616341789
 20
-57.150008999999962
 30
0.0
 11
156.91121616341789
 21
-57.150008999999962
 31
0.0
  0
LINE
  5
79EA
  8
0
 10
156.91121616341789
 20
-48.144478000000163
 30
0.0
 11
156.91121616341789
 21
-57.150008999999962
 31
0.0
  0
LINE
  5
79EB
  8
0
 10
153.91121616341789
 20
-47.150012999999937
 30
0.0
 11
153.91121616341789
 21
-57.150008999999962
 31
0.0
  0
LINE
  5
79EC
  8
0
 10
190.91120016341799
 20
-48.144478000000163
 30
0.0
 11
190.91120016341799
 21
-57.150008999999962
 31
0.0
  0
LINE
  5
79ED
  8
0
 10
193.91120016341799
 20
-47.150012999999937
 30
0.0
 11
193.91120016341799
 21
-57.150008999999962
 31
0.0
  0
LINE
  5
79EE
  8
0
 10
190.91120016341799
 20
-57.150008999999962
 30
0.0
 11
193.91120016341799
 21
-57.150008999999962
 31
0.0
  0
LINE
  5
79EF
  8
0
 10
192.41120016341799
 20
-38.150012999999937
 30
0.0
 11
181.9112006634179
 21
-38.150012999999937
 31
0.0
  0
LINE
  5
79F0
  8
0
 10
192.91121616341789
 20
-38.650016999999927
 30
0.0
 11
192.91121616341789
 21
-43.650008999999947
 31
0.0
  0
LINE
  5
79F1
  8
0
 10
188.41121616341789
 20
-47.150012999999937
 30
0.0
 11
188.41121616341789
 21
-69.150008999999955
 31
0.0
  0
LINE
  5
79F2
  8
0
 10
159.41120016341799
 20
-47.150012999999937
 30
0.0
 11
159.41120016341799
 21
-69.150008999999955
 31
0.0
  0
LINE
  5
79F3
  8
0
 10
154.91120016341799
 20
-38.650016999999927
 30
0.0
 11
154.91120016341799
 21
-43.650008999999947
 31
0.0
  0
LINE
  5
79F4
  8
0
 10
159.411219163418
 20
-69.149993999999879
 30
0.0
 11
160.41122016341791
 21
-70.149993999999879
 31
0.0
  0
LINE
  5
79F5
  8
0
 10
159.41120016341799
 20
-69.150008999999955
 30
0.0
 11
168.91121586341791
 21
-69.150008999999955
 31
0.0
  0
LINE
  5
79F6
  8
0
 10
155.41116816341801
 20
-44.150036
 30
0.0
 11
154.9111661634181
 21
-43.65003200000001
 31
0.0
  0
LINE
  5
79F7
  8
0
 10
155.4112121634179
 20
-38.15002400000003
 30
0.0
 11
154.9112121634179
 21
-38.65002400000003
 31
0.0
  0
LINE
  5
79F8
  8
0
 10
192.91121016341791
 20
-43.65003200000001
 30
0.0
 11
192.41120816341791
 21
-44.15003200000001
 31
0.0
  0
LINE
  5
79F9
  8
0
 10
192.9111891634181
 20
-38.650020999999917
 30
0.0
 11
192.4111891634181
 21
-38.150020999999917
 31
0.0
  0
LINE
  5
79FA
  8
0
 10
188.41116816341801
 20
-69.15003200000001
 30
0.0
 11
187.4111671634179
 21
-70.15003200000001
 31
0.0
  0
LINE
  5
79FB
  8
0
 10
155.41121616341789
 20
-38.650016999999927
 30
0.0
 11
165.91121586341791
 21
-38.650016999999927
 31
0.0
  0
LINE
  5
79FC
  8
0
 10
155.41121616341789
 20
-43.650008999999947
 30
0.0
 11
163.41123116341799
 21
-43.650008999999947
 31
0.0
  0
LINE
  5
79FD
  8
0
 10
187.91120016341799
 20
-71.150008999999955
 30
0.0
 11
187.91120016341799
 21
-81.150008999999955
 31
0.0
  0
LINE
  5
79FE
  8
0
 10
186.911149163418
 20
-82.150002000000313
 30
0.0
 11
187.911182163418
 21
-81.149970999999823
 31
0.0
  0
LINE
  5
79FF
  8
0
 10
187.911184163418
 20
-71.15002400000003
 30
0.0
 11
186.91118316341789
 21
-70.15002400000003
 31
0.0
  0
LINE
  5
7A00
  8
0
 10
159.91123516341801
 20
-71.15003200000001
 30
0.0
 11
160.9112361634181
 21
-70.15003200000001
 31
0.0
  0
LINE
  5
7A01
  8
0
 10
159.91121616341789
 20
-71.150008999999955
 30
0.0
 11
159.91121616341789
 21
-81.150008999999955
 31
0.0
  0
LINE
  5
7A02
  8
0
 10
160.91120216341801
 20
-82.150008999999955
 30
0.0
 11
159.9112011634181
 21
-81.150008999999955
 31
0.0
  0
LINE
  5
7A03
  8
0
 10
159.91121616341789
 20
-71.150008999999955
 30
0.0
 11
168.91121586341791
 21
-71.150008999999955
 31
0.0
  0
LINE
  5
7A04
  8
0
 10
159.91121616341789
 20
-81.150008999999955
 30
0.0
 11
187.91120016341799
 21
-81.150008999999955
 31
0.0
  0
LINE
  5
7A05
  8
0
 10
193.91120016341799
 20
-100.15002
 30
0.0
 11
153.91121616341789
 21
-100.15002
 31
0.0
  0
LINE
  5
7A06
  8
0
 10
194.91123116341799
 20
-93.899002000000124
 30
0.0
 11
194.91123116341799
 21
-99.150008999999955
 31
0.0
  0
LINE
  5
7A07
  8
0
 10
188.41121616341789
 20
-88.150016999999934
 30
0.0
 11
188.41121616341789
 21
-88.748679999999695
 31
0.0
  0
LINE
  5
7A08
  8
0
 10
183.91121586341791
 20
-82.150016999999934
 30
0.0
 11
183.91121586341791
 21
-87.150008999999955
 31
0.0
  0
LINE
  5
7A09
  8
0
 10
182.4112054634181
 20
-82.149993999999865
 30
0.0
 11
183.9112054634181
 21
-84.748070000000098
 31
0.0
  0
LINE
  5
7A0A
  8
0
 10
190.23689016341811
 20
-90.741058000000066
 30
0.0
 11
192.17265616341791
 21
-90.910415999999714
 31
0.0
  0
LINE
  5
7A0B
  8
0
 10
160.41123116341799
 20
-87.150008999999955
 30
0.0
 11
187.41123116341799
 21
-87.150008999999955
 31
0.0
  0
LINE
  5
7A0C
  8
0
 10
160.91120016341799
 20
-82.150016999999934
 30
0.0
 11
186.91121616341789
 21
-82.150016999999934
 31
0.0
  0
LINE
  5
7A0D
  8
0
 10
152.91123116341799
 20
-93.899002000000124
 30
0.0
 11
152.91123116341799
 21
-99.150008999999955
 31
0.0
  0
LINE
  5
7A0E
  8
0
 10
159.41120016341799
 20
-88.150016999999934
 30
0.0
 11
159.41120016341799
 21
-88.748679999999695
 31
0.0
  0
LINE
  5
7A0F
  8
0
 10
163.91120016341799
 20
-82.150016999999934
 30
0.0
 11
163.91120016341799
 21
-87.150008999999955
 31
0.0
  0
LINE
  5
7A10
  8
0
 10
165.4112034634181
 20
-82.15002400000003
 30
0.0
 11
163.91120316341809
 21
-84.748099999999795
 31
0.0
  0
LINE
  5
7A11
  8
0
 10
157.58551316341789
 20
-90.741066000000046
 30
0.0
 11
155.64974516341789
 21
-90.910423000000264
 31
0.0
  0
LINE
  5
7A12
  8
0
 10
159.41120016341799
 20
-90.581337000000076
 30
0.0
 11
188.41121616341789
 21
-90.581337000000076
 31
0.0
  0
LINE
  5
7A13
  8
0
 10
153.91119516341811
 20
-100.1500299999997
 30
0.0
 11
152.91119316341809
 21
-99.150024000000045
 31
0.0
  0
LINE
  5
7A14
  8
0
 10
194.911174163418
 20
-99.15003200000001
 30
0.0
 11
193.911174163418
 21
-100.1500299999997
 31
0.0
  0
LINE
  5
7A15
  8
0
 10
152.91123116341799
 20
-99.150008999999955
 30
0.0
 11
194.91123116341799
 21
-99.150008999999955
 31
0.0
  0
LINE
  5
7A16
  8
0
 10
160.41123116341799
 20
-70.150016999999934
 30
0.0
 11
168.91121586341791
 21
-70.150016999999934
 31
0.0
  0
LINE
  5
7A17
  8
0
 10
178.9112006634179
 20
43.150002000000313
 30
0.0
 11
178.9112006634179
 21
-31.950020000000219
 31
0.0
  0
LINE
  5
7A18
  8
0
 10
178.9112006634179
 20
-27.150008999999951
 30
0.0
 11
168.91121586341791
 21
-27.150008999999951
 31
0.0
  0
LINE
  5
7A19
  8
0
 10
177.91121586341791
 20
-27.150008999999951
 30
0.0
 11
177.91121586341791
 21
-31.950020000000219
 31
0.0
  0
LINE
  5
7A1A
  8
0
 10
169.9112006634179
 20
-27.150008999999951
 30
0.0
 11
169.9112006634179
 21
-31.950020000000219
 31
0.0
  0
LINE
  5
7A1B
  8
0
 10
169.91116676341809
 20
-27.150016999999931
 30
0.0
 11
168.91115916341801
 21
-25.417951999999779
 31
0.0
  0
LINE
  5
7A1C
  8
0
 10
177.91119946341809
 20
-27.150023000000139
 30
0.0
 11
178.9112068634181
 21
-25.417957000000111
 31
0.0
  0
LINE
  5
7A1D
  8
0
 10
184.41123116341799
 20
-42.150008999999947
 30
0.0
 11
163.41123116341799
 21
-42.150008999999947
 31
0.0
  0
LINE
  5
7A1E
  8
0
 10
163.41123116341799
 20
-42.150008999999947
 30
0.0
 11
163.41123116341799
 21
-44.150012999999937
 31
0.0
  0
LINE
  5
7A1F
  8
0
 10
184.41123116341799
 20
-42.150008999999947
 30
0.0
 11
184.41123116341799
 21
-44.150012999999937
 31
0.0
  0
LINE
  5
7A20
  8
0
 10
168.91121586341791
 20
43.150002000000313
 30
0.0
 11
168.91121586341791
 21
-31.950020000000219
 31
0.0
  0
LINE
  5
7A21
  8
0
 10
182.91123116341799
 20
-40.350014000000101
 30
0.0
 11
164.91123116341799
 21
-40.350014000000101
 31
0.0
  0
LINE
  5
7A22
  8
0
 10
182.91123116341799
 20
-40.350014000000101
 30
0.0
 11
182.91123116341799
 21
-42.150008999999947
 31
0.0
  0
LINE
  5
7A23
  8
0
 10
165.6652594634181
 20
-40.350014000000101
 30
0.0
 11
165.6652594634181
 21
-42.150008999999947
 31
0.0
  0
LINE
  5
7A24
  8
0
 10
164.91123116341799
 20
-40.350014000000101
 30
0.0
 11
164.91123116341799
 21
-42.150008999999947
 31
0.0
  0
LINE
  5
7A25
  8
0
 10
166.66524426341809
 20
-40.350014000000101
 30
0.0
 11
166.66524426341809
 21
-42.150008999999947
 31
0.0
  0
LINE
  5
7A26
  8
0
 10
168.57302006341791
 20
-40.350014000000101
 30
0.0
 11
168.57302006341791
 21
-42.150008999999947
 31
0.0
  0
LINE
  5
7A27
  8
0
 10
170.3050604634181
 20
-40.350014000000101
 30
0.0
 11
170.3050604634181
 21
-42.150008999999947
 31
0.0
  0
LINE
  5
7A28
  8
0
 10
172.9112006634179
 20
-40.350014000000101
 30
0.0
 11
172.9112006634179
 21
-42.150008999999947
 31
0.0
  0
LINE
  5
7A29
  8
0
 10
174.911215903418
 20
-40.350014000000101
 30
0.0
 11
174.911215903418
 21
-42.150008999999947
 31
0.0
  0
LINE
  5
7A2A
  8
0
 10
177.51731026341801
 20
-40.350014000000101
 30
0.0
 11
177.51731026341801
 21
-42.150008999999947
 31
0.0
  0
LINE
  5
7A2B
  8
0
 10
179.249350663418
 20
-40.350014000000101
 30
0.0
 11
179.249350663418
 21
-42.150008999999947
 31
0.0
  0
LINE
  5
7A2C
  8
0
 10
181.15717236341811
 20
-40.350014000000101
 30
0.0
 11
181.15717236341811
 21
-42.150008999999947
 31
0.0
  0
LINE
  5
7A2D
  8
0
 10
182.15720286341789
 20
-40.350014000000101
 30
0.0
 11
182.15720286341789
 21
-42.150008999999947
 31
0.0
  0
LINE
  5
7A2E
  8
0
 10
182.15720286341789
 20
-50.950012000000243
 30
0.0
 11
182.15720286341789
 21
-49.150016999999941
 31
0.0
  0
LINE
  5
7A2F
  8
0
 10
184.41123116341799
 20
-49.150016999999941
 30
0.0
 11
163.41123116341799
 21
-49.150016999999941
 31
0.0
  0
LINE
  5
7A30
  8
0
 10
163.41123116341799
 20
-49.150016999999941
 30
0.0
 11
163.41123116341799
 21
-47.150012999999937
 31
0.0
  0
LINE
  5
7A31
  8
0
 10
184.41123116341799
 20
-49.150016999999941
 30
0.0
 11
184.41123116341799
 21
-47.150012999999937
 31
0.0
  0
LINE
  5
7A32
  8
0
 10
182.91123116341799
 20
-50.950012000000243
 30
0.0
 11
182.91123116341799
 21
-49.150016999999941
 31
0.0
  0
LINE
  5
7A33
  8
0
 10
165.6652594634181
 20
-50.950012000000243
 30
0.0
 11
165.6652594634181
 21
-49.150016999999941
 31
0.0
  0
LINE
  5
7A34
  8
0
 10
164.91123116341799
 20
-50.950012000000243
 30
0.0
 11
164.91123116341799
 21
-49.150016999999941
 31
0.0
  0
LINE
  5
7A35
  8
0
 10
166.66524426341809
 20
-50.950012000000243
 30
0.0
 11
166.66524426341809
 21
-49.150016999999941
 31
0.0
  0
LINE
  5
7A36
  8
0
 10
168.57302006341791
 20
-50.950012000000243
 30
0.0
 11
168.57302006341791
 21
-49.150016999999941
 31
0.0
  0
LINE
  5
7A37
  8
0
 10
170.3050604634181
 20
-50.950012000000243
 30
0.0
 11
170.3050604634181
 21
-49.150016999999941
 31
0.0
  0
LINE
  5
7A38
  8
0
 10
172.9112006634179
 20
-50.950012000000243
 30
0.0
 11
172.9112006634179
 21
-49.150016999999941
 31
0.0
  0
LINE
  5
7A39
  8
0
 10
174.911215903418
 20
-50.950012000000243
 30
0.0
 11
174.911215903418
 21
-49.150016999999941
 31
0.0
  0
LINE
  5
7A3A
  8
0
 10
177.51731026341801
 20
-50.950012000000243
 30
0.0
 11
177.51731026341801
 21
-49.150016999999941
 31
0.0
  0
LINE
  5
7A3B
  8
0
 10
179.249350663418
 20
-50.950012000000243
 30
0.0
 11
179.249350663418
 21
-49.150016999999941
 31
0.0
  0
LINE
  5
7A3C
  8
0
 10
181.15717236341811
 20
-50.950012000000243
 30
0.0
 11
181.15717236341811
 21
-49.150016999999941
 31
0.0
  0
LINE
  5
7A3D
  8
0
 10
178.9112006634179
 20
-59.350010000000111
 30
0.0
 11
178.9112006634179
 21
-76.850021000000197
 31
0.0
  0
LINE
  5
7A3E
  8
0
 10
177.91121586341791
 20
-59.350010000000111
 30
0.0
 11
177.91121586341791
 21
-76.850021000000197
 31
0.0
  0
LINE
  5
7A3F
  8
0
 10
169.9112006634179
 20
-59.350010000000111
 30
0.0
 11
169.9112006634179
 21
-76.850021000000197
 31
0.0
  0
LINE
  5
7A40
  8
0
 10
168.91121586341791
 20
-59.350010000000111
 30
0.0
 11
168.91121586341791
 21
-76.850021000000197
 31
0.0
  0
LINE
  5
7A41
  8
0
 10
178.9112006634179
 20
-71.150008999999955
 30
0.0
 11
187.91120016341799
 21
-71.150008999999955
 31
0.0
  0
LINE
  5
7A42
  8
0
 10
178.9112006634179
 20
-70.150016999999934
 30
0.0
 11
187.41123116341799
 21
-70.150016999999934
 31
0.0
  0
LINE
  5
7A43
  8
0
 10
178.9112006634179
 20
-69.150008999999955
 30
0.0
 11
188.41121616341789
 21
-69.150008999999955
 31
0.0
  0
LINE
  5
7A44
  8
0
 10
184.41123116341799
 20
-43.650008999999947
 30
0.0
 11
192.41120016341799
 21
-43.650008999999947
 31
0.0
  0
LINE
  5
7A45
  8
0
 10
165.91121586341791
 20
-38.150012999999937
 30
0.0
 11
155.41121616341789
 21
-38.150012999999937
 31
0.0
  0
LINE
  5
7A46
  8
0
 10
181.9112006634179
 20
-38.650016999999927
 30
0.0
 11
192.41120016341799
 21
-38.650016999999927
 31
0.0
  0
LINE
  5
7A47
  8
0
 10
167.14884106341799
 20
-31.95000100000015
 30
0.0
 11
165.91125076341811
 21
-32.664523999999801
 31
0.0
  0
LINE
  5
7A48
  8
0
 10
180.67360076341811
 20
-31.94996999999967
 30
0.0
 11
181.91119156341799
 21
-32.664494000000097
 31
0.0
  0
LINE
  5
7A49
  8
0
 10
173.91123116341799
 20
-32.664542999999867
 30
0.0
 11
173.91123116341799
 21
-40.350014000000101
 31
0.0
  0
LINE
  5
7A4A
  8
0
 10
181.9112006634179
 20
-32.664542999999867
 30
0.0
 11
181.9112006634179
 21
-40.350014000000101
 31
0.0
  0
LINE
  5
7A4B
  8
0
 10
165.91121586341791
 20
-32.664536000000219
 30
0.0
 11
165.91121586341791
 21
-40.350014000000101
 31
0.0
  0
LINE
  5
7A4C
  8
0
 10
167.14882576341799
 20
-31.950020000000219
 30
0.0
 11
180.673636563418
 21
-31.950020000000219
 31
0.0
  0
LINE
  5
7A4D
  8
0
 10
182.91123116341799
 20
-50.950012000000243
 30
0.0
 11
164.91123116341799
 21
-50.950012000000243
 31
0.0
  0
LINE
  5
7A4E
  8
0
 10
165.91121586341791
 20
-58.635487000000012
 30
0.0
 11
165.91121586341791
 21
-50.950012000000243
 31
0.0
  0
LINE
  5
7A4F
  8
0
 10
167.14885436341791
 20
-59.350006000000121
 30
0.0
 11
165.911263563418
 21
-58.635483000000022
 31
0.0
  0
LINE
  5
7A50
  8
0
 10
167.14882576341799
 20
-59.350010000000111
 30
0.0
 11
180.673636563418
 21
-59.350010000000111
 31
0.0
  0
LINE
  5
7A51
  8
0
 10
173.91123116341799
 20
-58.635487000000012
 30
0.0
 11
173.91123116341799
 21
-50.950012000000243
 31
0.0
  0
LINE
  5
7A52
  8
0
 10
180.67364986341789
 20
-59.350051999999771
 30
0.0
 11
181.911240663418
 21
-58.635529000000133
 31
0.0
  0
LINE
  5
7A53
  8
0
 10
181.9112006634179
 20
-58.635487000000012
 30
0.0
 11
181.9112006634179
 21
-50.950012000000243
 31
0.0
  0
LINE
  5
7A54
  8
0
 10
178.9112006634179
 20
-76.850021000000197
 30
0.0
 11
168.91121586341791
 21
-76.850021000000197
 31
0.0
  0
LINE
  5
7A55
  8
0
 10
155.64974516341789
 20
-91.150008999999955
 30
0.0
 11
191.204772163418
 21
-91.150008999999955
 31
0.0
  0
ARC
  5
7A56
  8
0
 10
156.91121616341789
 20
-47.150012999999937
 30
0.0
 40
3.0
 50
90.0
 51
180.0
  0
ARC
  5
7A57
  8
0
 10
190.91120016341799
 20
-47.150012999999937
 30
0.0
 40
3.0
 50
0.0
 51
90.0
  0
ARC
  5
7A58
  8
0
 10
157.91120016341799
 20
-48.150008999999947
 30
0.0
 40
1.0
 50
90.0
 51
180.0
  0
ARC
  5
7A59
  8
0
 10
189.91121616341789
 20
-48.150008999999947
 30
0.0
 40
1.0
 50
0.0
 51
90.0
  0
ARC
  5
7A5A
  8
0
 10
187.41123116341799
 20
-88.150016999999934
 30
0.0
 40
1.0
 50
0.0
 51
90.0
  0
ARC
  5
7A5B
  8
0
 10
191.91123116341799
 20
-93.899002000000124
 30
0.0
 40
3.0
 50
0.0
 51
85.000009000004951
  0
ARC
  5
7A5C
  8
0
 10
190.41123116341799
 20
-88.748679999999695
 30
0.0
 40
2.0
 50
180.0
 51
265.00001000000088
  0
ARC
  5
7A5D
  8
0
 10
157.41123116341799
 20
-88.748679999999695
 30
0.0
 40
2.0
 50
274.99998999999889
 51
0.0
  0
ARC
  5
7A5E
  8
0
 10
155.91123116341799
 20
-93.899002000000124
 30
0.0
 40
3.0
 50
94.999990999995021
 51
180.0
  0
ARC
  5
7A5F
  8
0
 10
160.41123116341799
 20
-88.150016999999934
 30
0.0
 40
1.0
 50
90.0
 51
180.0
  0
ARC
  5
7A60
  8
0
 10
173.91123116341799
 20
43.150002000000313
 30
0.0
 40
5.0
 50
0.0
 51
180.0
  0
ARC
  5
7A61
  8
0
 10
169.9112006634179
 20
-43.503432999999859
 30
0.0
 40
11.55341799999999
 50
69.743839000003774
 51
110.2561599999963
  0
ARC
  5
7A62
  8
0
 10
177.91121586341791
 20
-43.503432999999859
 30
0.0
 40
11.55341799999999
 50
69.743839000003774
 51
110.2561599999963
  0
ARC
  5
7A63
  8
0
 10
169.9112006634179
 20
-47.79659300000003
 30
0.0
 40
11.55341799999999
 50
249.74384000000359
 51
290.25615999999633
  0
ARC
  5
7A64
  8
0
 10
177.91121586341791
 20
-47.79659300000003
 30
0.0
 40
11.55341799999999
 50
249.74384000000359
 51
290.25615999999633
  0
LINE
  5
7A65
  8
0
 10
-52.5
 20
184.9545723159126
 30
0.0
 11
-52.5
 21
181.9545723159126
 31
0.0
  0
LINE
  5
7A66
  8
0
 10
-57.499968999999957
 20
213.95456431591259
 30
0.0
 11
-57.499968999999957
 21
189.95456431591259
 31
0.0
  0
LINE
  5
7A67
  8
0
 10
-52.5
 20
221.95455631591261
 30
0.0
 11
-52.5
 21
218.95455631591261
 31
0.0
  0
LINE
  5
7A68
  8
0
 10
57.499968999999957
 20
213.95456431591259
 30
0.0
 11
57.499968999999957
 21
189.95456431591259
 31
0.0
  0
LINE
  5
7A69
  8
0
 10
-52.5
 20
181.9545723159126
 30
0.0
 11
52.5
 21
181.9545723159126
 31
0.0
  0
LINE
  5
7A6A
  8
0
 10
-52.5
 20
221.95455631591261
 30
0.0
 11
52.5
 21
221.95455631591261
 31
0.0
  0
LINE
  5
7A6B
  8
0
 10
52.5
 20
221.95455631591261
 30
0.0
 11
52.5
 21
218.95455631591261
 31
0.0
  0
LINE
  5
7A6C
  8
0
 10
52.5
 20
184.9545723159126
 30
0.0
 11
52.5
 21
181.9545723159126
 31
0.0
  0
LINE
  5
7A6D
  8
0
 10
-45.0
 20
206.95455671591299
 30
0.0
 11
45.0
 21
206.95455671591299
 31
0.0
  0
LINE
  5
7A6E
  8
0
 10
-45.0
 20
196.95457191591231
 30
0.0
 11
45.0
 21
196.95457191591231
 31
0.0
  0
LINE
  5
7A6F
  8
0
 10
-38.649143000000088
 20
206.95454191591261
 30
0.0
 11
-40.381202999999907
 21
209.95456621591251
 31
0.0
  0
LINE
  5
7A70
  8
0
 10
-40.381165000000003
 20
209.9545567159129
 30
0.0
 11
-49.61883499999999
 21
209.9545567159129
 31
0.0
  0
LINE
  5
7A71
  8
0
 10
-49.618819999999921
 20
209.95459481591291
 30
0.0
 11
-54.23762099999999
 21
201.9545976960666
 31
0.0
  0
LINE
  5
7A72
  8
0
 10
-54.237572
 20
201.9545340022068
 30
0.0
 11
-49.61877800000002
 21
193.95455671591299
 31
0.0
  0
LINE
  5
7A73
  8
0
 10
-49.61883499999999
 20
193.95457191591231
 30
0.0
 11
-40.381165000000003
 21
193.95457191591231
 31
0.0
  0
LINE
  5
7A74
  8
0
 10
-40.381141999999947
 20
193.9545529159127
 30
0.0
 11
-38.649094000000098
 21
196.95455711591231
 31
0.0
  0
LINE
  5
7A75
  8
0
 10
49.61883499999999
 20
193.95457191591231
 30
0.0
 11
40.381255999999887
 21
193.95457191591231
 31
0.0
  0
LINE
  5
7A76
  8
0
 10
40.381229000000069
 20
193.9545867159126
 30
0.0
 11
38.649169999999913
 21
196.95461011591249
 31
0.0
  0
LINE
  5
7A77
  8
0
 10
54.237579000000089
 20
201.9546087262369
 30
0.0
 11
49.61877800000002
 21
193.95461201591289
 31
0.0
  0
LINE
  5
7A78
  8
0
 10
49.618786
 20
209.95458911591231
 30
0.0
 11
54.237601999999931
 21
201.95457252639869
 31
0.0
  0
LINE
  5
7A79
  8
0
 10
40.381255999999887
 20
209.9545567159129
 30
0.0
 11
49.61883499999999
 21
209.9545567159129
 31
0.0
  0
LINE
  5
7A7A
  8
0
 10
38.649155000000057
 20
206.95458001591251
 30
0.0
 11
40.381202999999907
 21
209.95458341591251
 31
0.0
  0
ARC
  5
7A7B
  8
0
 10
-52.5
 20
189.95456431591259
 30
0.0
 40
5.0
 50
179.99998999999889
 51
270.0
  0
ARC
  5
7A7C
  8
0
 10
-52.5
 20
213.95456431591259
 30
0.0
 40
5.0
 50
90.0
 51
180.0
  0
ARC
  5
7A7D
  8
0
 10
52.5
 20
189.95456431591259
 30
0.0
 40
5.0
 50
270.0
 51
0.0
  0
ARC
  5
7A7E
  8
0
 10
52.5
 20
213.95456431591259
 30
0.0
 40
5.0
 50
0.0
 51
90.0
  0
ARC
  5
7A7F
  8
0
 10
-45.0
 20
201.95456431591259
 30
0.0
 40
5.0
 50
90.0
 51
270.0
  0
ARC
  5
7A80
  8
0
 10
45.0
 20
201.95456431591259
 30
0.0
 40
5.0
 50
270.0
 51
90.0
  0
ARC
  5
7A81
  8
0
 10
-45.0
 20
201.95456431591259
 30
0.0
 40
8.0
 50
38.682182999995611
 51
321.31780999999631
  0
ARC
  5
7A82
  8
0
 10
0.0
 20
201.95456431591259
 30
0.0
 40
18.5
 50
195.68034999999739
 51
344.31965000000253
  0
ARC
  5
7A83
  8
0
 10
0.0
 20
201.95456431591259
 30
0.0
 40
19.0
 50
195.25752000001739
 51
344.74247999998238
  0
ARC
  5
7A84
  8
0
 10
0.0
 20
201.95456431591259
 30
0.0
 40
18.5
 50
15.680348999994081
 51
164.3196500000025
  0
ARC
  5
7A85
  8
0
 10
0.0
 20
201.95456431591259
 30
0.0
 40
19.0
 50
15.257521999996619
 51
164.74247999998249
  0
ARC
  5
7A86
  8
0
 10
-45.0
 20
201.95456431591259
 30
0.0
 40
10.5
 50
28.43688899999859
 51
331.56312000000253
  0
ARC
  5
7A87
  8
0
 10
45.0
 20
201.95456431591259
 30
0.0
 40
8.0
 50
218.6821800000136
 51
141.31781999998631
  0
ARC
  5
7A88
  8
0
 10
45.0
 20
201.95456431591259
 30
0.0
 40
10.5
 50
208.43688999998761
 51
151.5631100000123
  0
ARC
  5
7A89
  8
0
 10
-37.5
 20
201.95456431591259
 30
0.0
 40
6.0
 50
56.442568000013573
 51
78.4630340000042
  0
ARC
  5
7A8A
  8
0
 10
-37.5
 20
201.95456431591259
 30
0.0
 40
6.0
 50
281.53696999999403
 51
303.55743000001007
  0
ARC
  5
7A8B
  8
0
 10
37.5
 20
201.95456431591259
 30
0.0
 40
6.0
 50
101.5369699999941
 51
123.5574300000101
  0
ARC
  5
7A8C
  8
0
 10
37.5
 20
201.95456431591259
 30
0.0
 40
6.0
 50
236.44256999998979
 51
258.46303000000569
  0
LINE
  5
7F8D
  8
0
  6
CENTER
 62
     0
 10
0.0
 20
167.37458069734561
 30
0.0
 11
0.0
 21
236.5345479344796
 31
0.0
  0
LINE
  5
7F8E
  8
0
  6
CENTER
 62
     0
 10
-66.08294666830875
 20
201.95456431591259
 30
0.0
 11
66.082946668308963
 21
201.95456431591259
 31
0.0
  0
LINE
  5
7F9D
  8
0
  6
CENTER
 62
     0
 10
0.0
 20
-109.4449465013513
 30
0.0
 11
0.0
 21
64.212139669784392
 31
0.0
  0
LINE
  5
7F9E
  8
0
  6
CENTER
 62
     0
 10
-61.36305376119526
 20
0.0
 30
0.0
 11
61.539930656634169
 21
0.0
 31
0.0
  0
LINE
  5
7FAB
  8
0
  6
CENTER
 62
     0
 10
173.911208163418
 20
-109.44497650135141
 30
0.0
 11
173.911208163418
 21
64.21210966978424
 31
0.0
  0
LINE
  5
7FAC
  8
0
  6
CENTER
 62
     0
 10
153.7842844724446
 20
-0.0000300000001516
 30
0.0
 11
194.03813185439139
 21
-0.0000300000001516
 31
0.0
  0
TEXT
  5
7FBA
  8
0
 10
-372.14288198141412
 20
303.57348811461901
 30
0.0
 40
50.0
  1
P-SUPPORT-UB 3S
 72
     4
 11
-0.0000248385567829
 21
328.57348811461901
 31
0.0
  0
ENDSEC
  0
EOF
