  0
SECTION
  2
HEADER
  9
$ACADVER
  1
AC1009
  9
$INSBASE
 10
0.0
 20
0.0
 30
0.0
  9
$EXTMIN
 10
-362.6190726190481
 20
-63.984852857558053
 30
0.0
  9
$EXTMAX
 10
362.61902261904709
 20
300.28559604455762
 30
0.0
  9
$LIMMIN
 10
0.0
 20
0.0
  9
$LIMMAX
 10
420.0
 20
297.0
  9
$ORTHOMODE
 70
     0
  9
$REGENMODE
 70
     1
  9
$FILLMODE
 70
     1
  9
$QTEXTMODE
 70
     0
  9
$MIRRTEXT
 70
     1
  9
$DRAGMODE
 70
     2
  9
$LTSCALE
 40
1.0
  9
$OSMODE
 70
    37
  9
$ATTMODE
 70
     1
  9
$TEXTSIZE
 40
73.985717453579113
  9
$TRACEWID
 40
1.0
  9
$TEXTSTYLE
  7
STANDARD
  9
$CLAYER
  8
0
  9
$CELTYPE
  6
BYLAYER
  9
$CECOLOR
 62
   256
  9
$DIMSCALE
 40
1.0
  9
$DIMASZ
 40
0.18
  9
$DIMEXO
 40
0.0625
  9
$DIMDLI
 40
0.38
  9
$DIMRND
 40
0.0
  9
$DIMDLE
 40
0.0
  9
$DIMEXE
 40
0.18
  9
$DIMTP
 40
0.0
  9
$DIMTM
 40
0.0
  9
$DIMTXT
 40
30.0
  9
$DIMCEN
 40
0.09
  9
$DIMTSZ
 40
0.0
  9
$DIMTOL
 70
     0
  9
$DIMLIM
 70
     0
  9
$DIMTIH
 70
     1
  9
$DIMTOH
 70
     1
  9
$DIMSE1
 70
     0
  9
$DIMSE2
 70
     0
  9
$DIMTAD
 70
     0
  9
$DIMZIN
 70
     0
  9
$DIMBLK
  1

  9
$DIMASO
 70
     1
  9
$DIMSHO
 70
     1
  9
$DIMPOST
  1

  9
$DIMAPOST
  1

  9
$DIMALT
 70
     0
  9
$DIMALTD
 70
     2
  9
$DIMALTF
 40
25.399999999999999
  9
$DIMLFAC
 40
1.0
  9
$DIMTOFL
 70
     0
  9
$DIMTVP
 40
0.0
  9
$DIMTIX
 70
     0
  9
$DIMSOXD
 70
     0
  9
$DIMSAH
 70
     0
  9
$DIMBLK1
  1

  9
$DIMBLK2
  1

  9
$DIMSTYLE
  2
STANDARD
  9
$DIMCLRD
 70
     0
  9
$DIMCLRE
 70
     0
  9
$DIMCLRT
 70
     0
  9
$DIMTFAC
 40
1.0
  9
$DIMGAP
 40
0.09
  9
$LUNITS
 70
     2
  9
$LUPREC
 70
     8
  9
$SKETCHINC
 40
1.0
  9
$FILLETRAD
 40
0.0
  9
$AUNITS
 70
     0
  9
$AUPREC
 70
     8
  9
$MENU
  1
.
  9
$ELEVATION
 40
0.0
  9
$PELEVATION
 40
0.0
  9
$THICKNESS
 40
0.0
  9
$LIMCHECK
 70
     0
  9
$BLIPMODE
 70
     0
  9
$CHAMFERA
 40
2.5
  9
$CHAMFERB
 40
2.5
  9
$SKPOLY
 70
     0
  9
$TDCREATE
 40
2454739.7204081588
  9
$TDUPDATE
 40
2454749.7570556598
  9
$TDINDWG
 40
0.2967916435
  9
$TDUSRTIMER
 40
0.2967916435
  9
$USRTIMER
 70
     1
  9
$ANGBASE
 50
0.0
  9
$ANGDIR
 70
     1
  9
$PDMODE
 70
     0
  9
$PDSIZE
 40
0.0
  9
$PLINEWID
 40
0.0
  9
$COORDS
 70
     1
  9
$SPLFRAME
 70
     0
  9
$SPLINETYPE
 70
     6
  9
$SPLINESEGS
 70
     8
  9
$ATTDIA
 70
     0
  9
$ATTREQ
 70
     1
  9
$HANDLING
 70
 22529
  9
$HANDSEED
  5
80A5
  9
$SURFTAB1
 70
     6
  9
$SURFTAB2
 70
     6
  9
$SURFTYPE
 70
     6
  9
$SURFU
 70
     6
  9
$SURFV
 70
     6
  9
$UCSNAME
  2

  9
$UCSORG
 10
0.0
 20
0.0
 30
0.0
  9
$UCSXDIR
 10
1.0
 20
0.0
 30
0.0
  9
$UCSYDIR
 10
0.0
 20
1.0
 30
0.0
  9
$PUCSNAME
  2

  9
$PUCSORG
 10
0.0
 20
0.0
 30
0.0
  9
$PUCSXDIR
 10
1.0
 20
0.0
 30
0.0
  9
$PUCSYDIR
 10
0.0
 20
1.0
 30
0.0
  9
$USERI1
 70
     0
  9
$USERI2
 70
     0
  9
$USERI3
 70
     0
  9
$USERI4
 70
     0
  9
$USERI5
 70
     0
  9
$USERR1
 40
0.0
  9
$USERR2
 40
0.0
  9
$USERR3
 40
0.0
  9
$USERR4
 40
0.0
  9
$USERR5
 40
0.0
  9
$WORLDVIEW
 70
     1
  9
$SHADEDGE
 70
     3
  9
$SHADEDIF
 70
    70
  9
$TILEMODE
 70
     1
  9
$MAXACTVP
 70
    48
  9
$PLIMCHECK
 70
     0
  9
$PEXTMIN
 10
1.0000000000000000E+020
 20
1.0000000000000000E+020
 30
1.0000000000000000E+020
  9
$PEXTMAX
 10
-1.0000000000000000E+020
 20
-1.0000000000000000E+020
 30
-1.0000000000000000E+020
  9
$PLIMMIN
 10
0.0
 20
0.0
  9
$PLIMMAX
 10
420.0
 20
297.0
  9
$UNITMODE
 70
     0
  9
$VISRETAIN
 70
     1
  9
$PLINEGEN
 70
     0
  9
$PSLTSCALE
 70
     1
  0
ENDSEC
  0
SECTION
  2
TABLES
  0
TABLE
  2
VPORT
 70
     2
  0
VPORT
  2
*ACTIVE
 70
     0
 10
0.0
 20
0.0
 11
1.0
 21
1.0
 12
-0.0003629570095427
 22
118.1557897436808
 13
0.0
 23
0.0
 14
2.5
 24
2.5
 15
10.0
 25
10.0
 16
0.0
 26
0.0
 36
1.0
 17
0.0
 27
0.0
 37
0.0
 40
476.13235558488759
 41
1.531806615776081
 42
50.0
 43
0.0
 44
0.0
 50
0.0
 51
0.0
 71
     0
 72
   100
 73
     1
 74
     3
 75
     0
 76
     0
 77
     0
 78
     0
  0
ENDTAB
  0
TABLE
  2
LTYPE
 70
     2
  0
LTYPE
  2
CONTINUOUS
 70
     0
  3
Solid line
 72
    65
 73
     0
 40
0.0
  0
LTYPE
  2
CENTER
 70
     0
  3
__ . __
 72
    65
 73
     4
 40
7.0
 49
4.0
 49
-1.0
 49
1.0
 49
-1.0
  0
ENDTAB
  0
TABLE
  2
LAYER
 70
     1
  0
LAYER
  2
0
 70
     0
 62
     7
  6
CONTINUOUS
  0
ENDTAB
  0
TABLE
  2
STYLE
 70
     2
  0
STYLE
  2
STANDARD
 70
     0
 40
0.0
 41
0.7
 50
0.0
 71
     0
 42
73.985717453579113
  3
romans.shx
  4
bigfont.shx
  0
STYLE
  2
TSKDIM
 70
     0
 40
0.0
 41
0.75
 50
0.0
 71
     0
 42
4.0
  3
romans.shx
  4
EXTFONT.SHX
  0
ENDTAB
  0
TABLE
  2
VIEW
 70
     0
  0
ENDTAB
  0
TABLE
  2
UCS
 70
     0
  0
ENDTAB
  0
TABLE
  2
APPID
 70
    41
  0
APPID
  2
ACAD
 70
     0
  0
APPID
  2
MCAD_NO_VIS
 70
     0
  0
APPID
  2
ACAD_TEMP_GRAPHIC
 70
     0
  0
APPID
  2
ACATTRIBSERVICES
 70
     0
  0
APPID
  2
AD_DRAW
 70
     0
  0
APPID
  2
DESIGNERASSEMBLIES
 70
     0
  0
APPID
  2
ASURF_PCURVE_APPNAME
 70
     0
  0
APPID
  2
ACADM_DIM_EDIT
 70
     0
  0
APPID
  2
GENIUS_GENDIM_13
 70
     0
  0
APPID
  2
GENIUS_GENDTOL_13
 70
     0
  0
APPID
  2
GENIUS_GE3DTOL_13
 70
     0
  0
APPID
  2
AMG_3D2D_5_0
 70
     0
  0
APPID
  2
AMDT_DM_ADJ
 70
     0
  0
APPID
  2
CK_MATE-SERIES
 70
     0
  0
APPID
  2
GEVID1042077799
 70
     0
  0
APPID
  2
GEVMK
 70
     0
  0
APPID
  2
GEVDC
 70
     0
  0
APPID
  2
GENIUS_GENBH_13
 70
     0
  0
APPID
  2
GENIUS_GENOLIS_13
 70
     0
  0
APPID
  2
GENIUS_GENOENT_13
 70
     0
  0
APPID
  2
GENIUS_GENODEF_13
 70
     0
  0
APPID
  2
GENIUS_GENOBJ-NBEHI-BHF_13
 70
     0
  0
APPID
  2
GENIUS_GENOREF_13
 70
     0
  0
APPID
  2
GENIUS_GENOBJ-NBEHI-BHB_13
 70
     0
  0
APPID
  2
GEVID1042183772
 70
     0
  0
APPID
  2
GEVID1042183773
 70
     0
  0
APPID
  2
GEVID1042183774
 70
     0
  0
APPID
  2
DCO15
 70
     0
  0
APPID
  2
ACAD_DSTYLE_DIMARC_LENGTH_
 70
     0
  0
APPID
  2
ACAD_DSTYLE_DIMJOGGED_JOGA
 70
     0
  0
APPID
  2
ACAD_MLEADERVER
 70
     0
  0
APPID
  2
ACAD_DSTYLE_DIMJAG
 70
     0
  0
APPID
  2
ACAD_DSTYLE_DIMTALN
 70
     0
  0
APPID
  2
ACAD_PSEXT
 70
     0
  0
APPID
  2
ACAD_EXEMPT_FROM_CAD_STANDARDS
 70
     0
  0
APPID
  2
ACAD_DSTYLE_DIMINSPECT
 70
     0
  0
APPID
  2
ACAD_DSTYLE_DIMANGULAR_EXT
 70
     0
  0
APPID
  2
GENIUS_GENOBJ-N-FIL_13
 70
     0
  0
APPID
  2
ACAD_DSTYLE_DIM_LINETYPE
 70
     0
  0
APPID
  2
ACAD_DSTYLE_DIM_EXT1_LINETYPE
 70
     0
  0
APPID
  2
ACAD_DSTYLE_DIM_EXT2_LINETYPE
 70
     0
  0
ENDTAB
  0
TABLE
  2
DIMSTYLE
 70
     1
  0
DIMSTYLE
  2
STANDARD
 70
     0
  3

  4

  5

  6

  7

 40
1.0
 41
0.18
 42
0.0625
 43
0.38
 44
0.18
 45
0.0
 46
0.0
 47
0.0
 48
0.0
140
30.0
141
0.09
142
0.0
143
25.399999999999999
144
1.0
145
0.0
146
1.0
147
0.09
 71
     0
 72
     0
 73
     1
 74
     1
 75
     0
 76
     0
 77
     0
 78
     0
170
     0
171
     2
172
     0
173
     0
174
     0
175
     0
176
     0
177
     0
178
     0
  0
ENDTAB
  0
ENDSEC
  0
SECTION
  2
BLOCKS
  0
BLOCK
  8
0
  2
$MODEL_SPACE
 70
     0
 10
0.0
 20
0.0
 30
0.0
  3
$MODEL_SPACE
  1

  0
ENDBLK
  5
21
  8
0
  0
BLOCK
 67
     1
  8
0
  2
$PAPER_SPACE
 70
     0
 10
0.0
 20
0.0
 30
0.0
  3
$PAPER_SPACE
  1

  0
ENDBLK
  5
1D
 67
     1
  8
0
  0
BLOCK
  8
0
  2
_OPEN
 70
     0
 10
0.0
 20
0.0
 30
0.0
  3
_OPEN
  1

  0
LINE
  5
15A
  8
0
  6
BYBLOCK
 62
     0
 10
-1.0
 20
0.1666666666666666
 30
0.0
 11
0.0
 21
0.0
 31
0.0
  0
LINE
  5
15B
  8
0
  6
BYBLOCK
 62
     0
 10
-1.0
 20
-0.1666666666666666
 30
0.0
 11
0.0
 21
0.0
 31
0.0
  0
LINE
  5
15C
  8
0
  6
BYBLOCK
 62
     0
 10
0.0
 20
0.0
 30
0.0
 11
-1.0
 21
0.0
 31
0.0
  0
ENDBLK
  5
15E
  8
0
  0
ENDSEC
  0
SECTION
  2
ENTITIES
  0
LINE
  5
76D7
  8
0
 10
-38.0
 20
-30.29999590000034
 30
0.0
 11
-22.0
 21
-30.29999590000034
 31
0.0
  0
LINE
  5
76D8
  8
0
 10
-38.0
 20
-27.29999590000034
 30
0.0
 11
38.0
 21
-27.29999590000034
 31
0.0
  0
LINE
  5
76D9
  8
0
 10
2.5881902999999511
 20
-39.506492900000012
 30
0.0
 11
19.77645699999993
 21
-34.900909899999981
 31
0.0
  0
LINE
  5
76DA
  8
0
 10
-19.776455000000169
 20
-34.900909899999981
 30
0.0
 11
-2.5881902999999511
 21
-39.506492900000012
 31
0.0
  0
LINE
  5
76DB
  8
0
 10
-37.5
 20
-27.29999590000034
 30
0.0
 11
-37.5
 21
-30.29999590000034
 31
0.0
  0
LINE
  5
76DC
  8
0
 10
37.5
 20
-27.29999590000034
 30
0.0
 11
37.5
 21
-30.29999590000034
 31
0.0
  0
LINE
  5
76DD
  8
0
 10
22.0
 20
-30.29999590000034
 30
0.0
 11
38.0
 21
-30.29999590000034
 31
0.0
  0
LINE
  5
76DE
  8
0
 10
-10.0
 20
-25.29999590000034
 30
0.0
 11
10.0
 21
-25.29999590000034
 31
0.0
  0
LINE
  5
76DF
  8
0
 10
-11.0
 20
-26.29999590000034
 30
0.0
 11
-11.0
 21
-27.29999590000034
 31
0.0
  0
LINE
  5
76E0
  8
0
 10
11.0
 20
-26.29999590000034
 30
0.0
 11
11.0
 21
-27.29999590000034
 31
0.0
  0
LINE
  5
76E1
  8
0
 10
-11.0
 20
-26.29999590000034
 30
0.0
 11
11.0
 21
-26.29999590000034
 31
0.0
  0
LINE
  5
76E2
  8
0
 10
-11.000027999999929
 20
-26.299989900000131
 30
0.0
 11
-10.00002099999983
 21
-25.299983899999908
 31
0.0
  0
LINE
  5
76E3
  8
0
 10
9.9999886000000515
 20
-25.29999590000034
 30
0.0
 11
10.999989999999791
 21
-26.299996899999758
 31
0.0
  0
LINE
  5
76E4
  8
0
 10
-8.6000060999999732
 20
-54.29999590000034
 30
0.0
 11
8.6000060999999732
 21
-54.29999590000034
 31
0.0
  0
LINE
  5
76E5
  8
0
 10
-8.6000060999999732
 20
-51.29999590000034
 30
0.0
 11
-8.6000060999999732
 21
-54.29999590000034
 31
0.0
  0
LINE
  5
76E6
  8
0
 10
8.6000060999999732
 20
-51.29999590000034
 30
0.0
 11
8.6000060999999732
 21
-54.29999590000034
 31
0.0
  0
LINE
  5
76E7
  8
0
 10
-9.5
 20
-51.29999590000034
 30
0.0
 11
9.5
 21
-51.29999590000034
 31
0.0
  0
LINE
  5
76E8
  8
0
 10
9.5
 20
-37.654475900000307
 30
0.0
 11
9.5
 21
-51.29999590000034
 31
0.0
  0
LINE
  5
76E9
  8
0
 10
-9.5
 20
-37.654475900000307
 30
0.0
 11
-9.5
 21
-51.29999590000034
 31
0.0
  0
LINE
  5
76EA
  8
0
 10
-33.5
 20
0.0
 30
0.0
 11
-33.5
 21
-17.099998899999719
 31
0.0
  0
LINE
  5
76EB
  8
0
 10
-25.5
 20
0.0
 30
0.0
 11
-25.5
 21
-17.099998899999719
 31
0.0
  0
LINE
  5
76EC
  8
0
 10
-38.0
 20
-31.90000190000001
 30
0.0
 11
-22.0
 21
-31.90000190000001
 31
0.0
  0
LINE
  5
76ED
  8
0
 10
-38.0
 20
-30.29999590000034
 30
0.0
 11
-38.0
 21
-31.90000190000001
 31
0.0
  0
LINE
  5
76EE
  8
0
 10
-37.0
 20
-33.699996900000308
 30
0.0
 11
-22.0
 21
-33.699996900000308
 31
0.0
  0
LINE
  5
76EF
  8
0
 10
-37.0
 20
-31.90000190000001
 30
0.0
 11
-37.00555399999984
 21
-39.77510089999987
 31
0.0
  0
LINE
  5
76F0
  8
0
 10
-22.0
 20
-27.29999590000034
 30
0.0
 11
-21.994446000000149
 21
-39.77510089999987
 31
0.0
  0
LINE
  5
76F1
  8
0
 10
-23.250027000000038
 20
-40.500011900000118
 30
0.0
 11
-21.994465000000211
 21
-39.775111899999949
 31
0.0
  0
LINE
  5
76F2
  8
0
 10
-35.750034000000142
 20
-40.499969899999989
 30
0.0
 11
-37.005572999999913
 21
-39.775085900000249
 31
0.0
  0
LINE
  5
76F3
  8
0
 10
-35.75
 20
-40.499999899999693
 30
0.0
 11
-23.25
 21
-40.499999899999693
 31
0.0
  0
LINE
  5
76F4
  8
0
 10
-33.252777000000151
 20
-33.699996900000308
 30
0.0
 11
-33.252777000000151
 21
-39.77510089999987
 31
0.0
  0
LINE
  5
76F5
  8
0
 10
-25.747222999999849
 20
-33.699996900000308
 30
0.0
 11
-25.747222999999849
 21
-39.77510089999987
 31
0.0
  0
LINE
  5
76F6
  8
0
 10
-33.5
 20
-40.499999899999693
 30
0.0
 11
-33.5
 21
-43.199996900000308
 31
0.0
  0
LINE
  5
76F7
  8
0
 10
-25.5
 20
-40.499999899999693
 30
0.0
 11
-25.5
 21
-43.199996900000308
 31
0.0
  0
LINE
  5
76F8
  8
0
 10
-36.437194999999967
 20
-31.90000190000001
 30
0.0
 11
-36.437194999999967
 21
-33.699996900000308
 31
0.0
  0
LINE
  5
76F9
  8
0
 10
-35.437194999999967
 20
-31.90000190000001
 30
0.0
 11
-35.437194999999967
 21
-33.699996900000308
 31
0.0
  0
LINE
  5
76FA
  8
0
 10
-34.082550000000083
 20
-31.90000190000001
 30
0.0
 11
-34.082550000000083
 21
-33.699996900000308
 31
0.0
  0
LINE
  5
76FB
  8
0
 10
-32.350493999999792
 20
-31.90000190000001
 30
0.0
 11
-32.350493999999792
 21
-33.699996900000308
 31
0.0
  0
LINE
  5
76FC
  8
0
 10
-30.5
 20
-31.90000190000001
 30
0.0
 11
-30.5
 21
-33.699996900000308
 31
0.0
  0
LINE
  5
76FD
  8
0
 10
-28.5
 20
-31.90000190000001
 30
0.0
 11
-28.5
 21
-33.699996900000308
 31
0.0
  0
LINE
  5
76FE
  8
0
 10
-26.649506000000201
 20
-31.90000190000001
 30
0.0
 11
-26.649506000000201
 21
-33.699996900000308
 31
0.0
  0
LINE
  5
76FF
  8
0
 10
-24.91744999999991
 20
-31.90000190000001
 30
0.0
 11
-24.91744999999991
 21
-33.699996900000308
 31
0.0
  0
LINE
  5
7700
  8
0
 10
-23.562805000000019
 20
-31.90000190000001
 30
0.0
 11
-23.562805000000019
 21
-33.699996900000308
 31
0.0
  0
LINE
  5
7701
  8
0
 10
-22.562805000000019
 20
-31.90000190000001
 30
0.0
 11
-22.562805000000019
 21
-33.699996900000308
 31
0.0
  0
LINE
  5
7702
  8
0
 10
-22.562805000000019
 20
-25.699996900000311
 30
0.0
 11
-22.562805000000019
 21
-23.900001899999999
 31
0.0
  0
LINE
  5
7703
  8
0
 10
-38.0
 20
-25.699996900000311
 30
0.0
 11
-21.0
 21
-25.699996900000311
 31
0.0
  0
LINE
  5
7704
  8
0
 10
-38.0
 20
-27.29999590000034
 30
0.0
 11
-38.0
 21
-25.699996900000311
 31
0.0
  0
LINE
  5
7705
  8
0
 10
-21.0
 20
-27.29999590000034
 30
0.0
 11
-21.0
 21
-25.699996900000311
 31
0.0
  0
LINE
  5
7706
  8
0
 10
-37.0
 20
-23.900001899999999
 30
0.0
 11
-22.0
 21
-23.900001899999999
 31
0.0
  0
LINE
  5
7707
  8
0
 10
-37.0
 20
-25.699996900000311
 30
0.0
 11
-37.00555399999984
 21
-17.824897899999989
 31
0.0
  0
LINE
  5
7708
  8
0
 10
-22.0
 20
-25.699996900000311
 30
0.0
 11
-21.994446000000149
 21
-17.824897899999989
 31
0.0
  0
LINE
  5
7709
  8
0
 10
-23.250050999999981
 20
-17.09997390000035
 30
0.0
 11
-21.994490000000042
 21
-17.82487290000017
 31
0.0
  0
LINE
  5
770A
  8
0
 10
-35.750011000000079
 20
-17.10001590000001
 30
0.0
 11
-37.005547000000199
 21
-17.824899900000212
 31
0.0
  0
LINE
  5
770B
  8
0
 10
-35.75
 20
-17.099998899999719
 30
0.0
 11
-23.25
 21
-17.099998899999719
 31
0.0
  0
LINE
  5
770C
  8
0
 10
-33.252777000000151
 20
-23.900001899999999
 30
0.0
 11
-33.252777000000151
 21
-17.824897899999989
 31
0.0
  0
LINE
  5
770D
  8
0
 10
-25.747222999999849
 20
-23.900001899999999
 30
0.0
 11
-25.747222999999849
 21
-17.824897899999989
 31
0.0
  0
LINE
  5
770E
  8
0
 10
-36.437194999999967
 20
-25.699996900000311
 30
0.0
 11
-36.437194999999967
 21
-23.900001899999999
 31
0.0
  0
LINE
  5
770F
  8
0
 10
-35.437194999999967
 20
-25.699996900000311
 30
0.0
 11
-35.437194999999967
 21
-23.900001899999999
 31
0.0
  0
LINE
  5
7710
  8
0
 10
-34.082550000000083
 20
-25.699996900000311
 30
0.0
 11
-34.082550000000083
 21
-23.900001899999999
 31
0.0
  0
LINE
  5
7711
  8
0
 10
-32.350493999999792
 20
-25.699996900000311
 30
0.0
 11
-32.350493999999792
 21
-23.900001899999999
 31
0.0
  0
LINE
  5
7712
  8
0
 10
-30.5
 20
-25.699996900000311
 30
0.0
 11
-30.5
 21
-23.900001899999999
 31
0.0
  0
LINE
  5
7713
  8
0
 10
-28.5
 20
-25.699996900000311
 30
0.0
 11
-28.5
 21
-23.900001899999999
 31
0.0
  0
LINE
  5
7714
  8
0
 10
-26.649506000000201
 20
-25.699996900000311
 30
0.0
 11
-26.649506000000201
 21
-23.900001899999999
 31
0.0
  0
LINE
  5
7715
  8
0
 10
-24.91744999999991
 20
-25.699996900000311
 30
0.0
 11
-24.91744999999991
 21
-23.900001899999999
 31
0.0
  0
LINE
  5
7716
  8
0
 10
-23.562805000000019
 20
-25.699996900000311
 30
0.0
 11
-23.562805000000019
 21
-23.900001899999999
 31
0.0
  0
LINE
  5
7717
  8
0
 10
-33.5
 20
-43.199996900000308
 30
0.0
 11
-25.5
 21
-43.199996900000308
 31
0.0
  0
LINE
  5
7718
  8
0
 10
-33.5
 20
-13.199996900000309
 30
0.0
 11
-25.5
 21
-13.199996900000309
 31
0.0
  0
LINE
  5
7719
  8
0
 10
-32.5
 20
-40.499999899999693
 30
0.0
 11
-32.5
 21
-43.199996900000308
 31
0.0
  0
LINE
  5
771A
  8
0
 10
-26.5
 20
-40.499999899999693
 30
0.0
 11
-26.5
 21
-43.199996900000308
 31
0.0
  0
LINE
  5
771B
  8
0
 10
-26.5
 20
-13.199996900000309
 30
0.0
 11
-26.5
 21
-17.099998899999719
 31
0.0
  0
LINE
  5
771C
  8
0
 10
-32.5
 20
-13.199996900000309
 30
0.0
 11
-32.5
 21
-17.099998899999719
 31
0.0
  0
LINE
  5
771D
  8
0
 10
-26.50002499999982
 20
-13.19998090000035
 30
0.0
 11
-25.50002499999982
 21
-11.467929899999939
 31
0.0
  0
LINE
  5
771E
  8
0
 10
-32.49999600000001
 20
-13.20000290000007
 30
0.0
 11
-33.49999600000001
 21
-11.467951900000109
 31
0.0
  0
LINE
  5
771F
  8
0
 10
32.500019000000059
 20
-13.200007899999941
 30
0.0
 11
33.500019000000059
 21
-11.46795689999999
 31
0.0
  0
LINE
  5
7720
  8
0
 10
38.0
 20
-31.90000190000001
 30
0.0
 11
22.0
 21
-31.90000190000001
 31
0.0
  0
LINE
  5
7721
  8
0
 10
38.0
 20
-30.29999590000034
 30
0.0
 11
38.0
 21
-31.90000190000001
 31
0.0
  0
LINE
  5
7722
  8
0
 10
37.0
 20
-33.699996900000308
 30
0.0
 11
22.0
 21
-33.699996900000308
 31
0.0
  0
LINE
  5
7723
  8
0
 10
37.0
 20
-31.90000190000001
 30
0.0
 11
37.00555399999984
 21
-39.77510089999987
 31
0.0
  0
LINE
  5
7724
  8
0
 10
22.0
 20
-27.29999590000034
 30
0.0
 11
21.994446000000149
 21
-39.77510089999987
 31
0.0
  0
LINE
  5
7725
  8
0
 10
23.250035999999909
 20
-40.500011900000118
 30
0.0
 11
21.994473000000198
 21
-39.775111899999949
 31
0.0
  0
LINE
  5
7726
  8
0
 10
35.750019000000059
 20
-40.499984900000072
 30
0.0
 11
37.00555399999984
 21
-39.77510089999987
 31
0.0
  0
LINE
  5
7727
  8
0
 10
35.75
 20
-40.499999899999693
 30
0.0
 11
23.25
 21
-40.499999899999693
 31
0.0
  0
LINE
  5
7728
  8
0
 10
33.252777000000151
 20
-33.699996900000308
 30
0.0
 11
33.252777000000151
 21
-39.77510089999987
 31
0.0
  0
LINE
  5
7729
  8
0
 10
25.747222999999849
 20
-33.699996900000308
 30
0.0
 11
25.747222999999849
 21
-39.77510089999987
 31
0.0
  0
LINE
  5
772A
  8
0
 10
33.5
 20
-40.499999899999693
 30
0.0
 11
33.5
 21
-43.199996900000308
 31
0.0
  0
LINE
  5
772B
  8
0
 10
25.5
 20
-40.499999899999693
 30
0.0
 11
25.5
 21
-43.199996900000308
 31
0.0
  0
LINE
  5
772C
  8
0
 10
36.437194999999967
 20
-31.90000190000001
 30
0.0
 11
36.437194999999967
 21
-33.699996900000308
 31
0.0
  0
LINE
  5
772D
  8
0
 10
35.437194999999967
 20
-31.90000190000001
 30
0.0
 11
35.437194999999967
 21
-33.699996900000308
 31
0.0
  0
LINE
  5
772E
  8
0
 10
34.082535
 20
-31.90000190000001
 30
0.0
 11
34.082535
 21
-33.699996900000308
 31
0.0
  0
LINE
  5
772F
  8
0
 10
32.350493999999792
 20
-31.90000190000001
 30
0.0
 11
32.350493999999792
 21
-33.699996900000308
 31
0.0
  0
LINE
  5
7730
  8
0
 10
30.5
 20
-31.90000190000001
 30
0.0
 11
30.5
 21
-33.699996900000308
 31
0.0
  0
LINE
  5
7731
  8
0
 10
28.5
 20
-31.90000190000001
 30
0.0
 11
28.5
 21
-33.699996900000308
 31
0.0
  0
LINE
  5
7732
  8
0
 10
26.649506000000201
 20
-31.90000190000001
 30
0.0
 11
26.649506000000201
 21
-33.699996900000308
 31
0.0
  0
LINE
  5
7733
  8
0
 10
24.91744999999991
 20
-31.90000190000001
 30
0.0
 11
24.91744999999991
 21
-33.699996900000308
 31
0.0
  0
LINE
  5
7734
  8
0
 10
23.562805000000019
 20
-31.90000190000001
 30
0.0
 11
23.562805000000019
 21
-33.699996900000308
 31
0.0
  0
LINE
  5
7735
  8
0
 10
22.562805000000019
 20
-31.90000190000001
 30
0.0
 11
22.562805000000019
 21
-33.699996900000308
 31
0.0
  0
LINE
  5
7736
  8
0
 10
33.5
 20
-43.199996900000308
 30
0.0
 11
25.5
 21
-43.199996900000308
 31
0.0
  0
LINE
  5
7737
  8
0
 10
32.5
 20
-40.499999899999693
 30
0.0
 11
32.5
 21
-43.199996900000308
 31
0.0
  0
LINE
  5
7738
  8
0
 10
26.5
 20
-40.499999899999693
 30
0.0
 11
26.5
 21
-43.199996900000308
 31
0.0
  0
LINE
  5
7739
  8
0
 10
33.5
 20
0.0
 30
0.0
 11
33.5
 21
-17.099998899999719
 31
0.0
  0
LINE
  5
773A
  8
0
 10
25.5
 20
0.0
 30
0.0
 11
25.5
 21
-17.099998899999719
 31
0.0
  0
LINE
  5
773B
  8
0
 10
35.75
 20
-17.099998899999719
 30
0.0
 11
23.25
 21
-17.099998899999719
 31
0.0
  0
LINE
  5
773C
  8
0
 10
33.252777000000151
 20
-23.900001899999999
 30
0.0
 11
33.252777000000151
 21
-17.824897899999989
 31
0.0
  0
LINE
  5
773D
  8
0
 10
25.747222999999849
 20
-23.900001899999999
 30
0.0
 11
25.747222999999849
 21
-17.824897899999989
 31
0.0
  0
LINE
  5
773E
  8
0
 10
26.5
 20
-13.199996900000309
 30
0.0
 11
26.5
 21
-17.099998899999719
 31
0.0
  0
LINE
  5
773F
  8
0
 10
32.5
 20
-13.199996900000309
 30
0.0
 11
32.5
 21
-17.099998899999719
 31
0.0
  0
LINE
  5
7740
  8
0
 10
22.562805000000019
 20
-25.699996900000311
 30
0.0
 11
22.562805000000019
 21
-23.900001899999999
 31
0.0
  0
LINE
  5
7741
  8
0
 10
38.0
 20
-25.699996900000311
 30
0.0
 11
21.0
 21
-25.699996900000311
 31
0.0
  0
LINE
  5
7742
  8
0
 10
38.0
 20
-27.29999590000034
 30
0.0
 11
38.0
 21
-25.699996900000311
 31
0.0
  0
LINE
  5
7743
  8
0
 10
21.0
 20
-27.29999590000034
 30
0.0
 11
21.0
 21
-25.699996900000311
 31
0.0
  0
LINE
  5
7744
  8
0
 10
37.0
 20
-23.900001899999999
 30
0.0
 11
22.0
 21
-23.900001899999999
 31
0.0
  0
LINE
  5
7745
  8
0
 10
37.0
 20
-25.699996900000311
 30
0.0
 11
37.00555399999984
 21
-17.824897899999989
 31
0.0
  0
LINE
  5
7746
  8
0
 10
22.0
 20
-25.699996900000311
 30
0.0
 11
21.994446000000149
 21
-17.824897899999989
 31
0.0
  0
LINE
  5
7747
  8
0
 10
23.250031999999909
 20
-17.099988899999971
 30
0.0
 11
21.994470999999969
 21
-17.824887899999791
 31
0.0
  0
LINE
  5
7748
  8
0
 10
35.750019000000059
 20
-17.10001590000001
 30
0.0
 11
37.00555399999984
 21
-17.824899900000212
 31
0.0
  0
LINE
  5
7749
  8
0
 10
36.437194999999967
 20
-25.699996900000311
 30
0.0
 11
36.437194999999967
 21
-23.900001899999999
 31
0.0
  0
LINE
  5
774A
  8
0
 10
35.437194999999967
 20
-25.699996900000311
 30
0.0
 11
35.437194999999967
 21
-23.900001899999999
 31
0.0
  0
LINE
  5
774B
  8
0
 10
34.082535
 20
-25.699996900000311
 30
0.0
 11
34.082535
 21
-23.900001899999999
 31
0.0
  0
LINE
  5
774C
  8
0
 10
32.350493999999792
 20
-25.699996900000311
 30
0.0
 11
32.350493999999792
 21
-23.900001899999999
 31
0.0
  0
LINE
  5
774D
  8
0
 10
30.5
 20
-25.699996900000311
 30
0.0
 11
30.5
 21
-23.900001899999999
 31
0.0
  0
LINE
  5
774E
  8
0
 10
28.5
 20
-25.699996900000311
 30
0.0
 11
28.5
 21
-23.900001899999999
 31
0.0
  0
LINE
  5
774F
  8
0
 10
26.649506000000201
 20
-25.699996900000311
 30
0.0
 11
26.649506000000201
 21
-23.900001899999999
 31
0.0
  0
LINE
  5
7750
  8
0
 10
24.91744999999991
 20
-25.699996900000311
 30
0.0
 11
24.91744999999991
 21
-23.900001899999999
 31
0.0
  0
LINE
  5
7751
  8
0
 10
23.562805000000019
 20
-25.699996900000311
 30
0.0
 11
23.562805000000019
 21
-23.900001899999999
 31
0.0
  0
LINE
  5
7752
  8
0
 10
26.49999600000001
 20
-13.20000589999972
 30
0.0
 11
25.49999600000001
 21
-11.467955900000099
 31
0.0
  0
LINE
  5
7753
  8
0
 10
33.5
 20
-13.199996900000309
 30
0.0
 11
25.5
 21
-13.199996900000309
 31
0.0
  0
ARC
  5
7754
  8
0
 10
-23.870849999999791
 20
-37.709029900000132
 30
0.0
 40
2.7909625
 50
227.7544700000075
 51
287.75451000000749
  0
ARC
  5
7755
  8
0
 10
-35.129180999999782
 20
-37.709029900000132
 30
0.0
 40
2.7909625
 50
252.24548999999249
 51
312.2455299999923
  0
ARC
  5
7756
  8
0
 10
-29.5
 20
-30.423492899999928
 30
0.0
 40
10.076509
 50
248.13454999999149
 51
291.86545000000842
  0
ARC
  5
7757
  8
0
 10
-29.5
 20
-27.176505899999938
 30
0.0
 40
10.076509
 50
68.134543999996126
 51
111.86546000001741
  0
ARC
  5
7758
  8
0
 10
-23.870849999999791
 20
-19.890967900000302
 30
0.0
 40
2.7909625
 50
72.245483000000505
 51
132.24549999999871
  0
ARC
  5
7759
  8
0
 10
-35.129180999999782
 20
-19.890967900000302
 30
0.0
 40
2.7909625
 50
47.75449899998474
 51
107.75452000000899
  0
ARC
  5
775A
  8
0
 10
29.5
 20
-30.423492899999928
 30
0.0
 40
10.076509
 50
248.13454999999149
 51
291.86545000000842
  0
ARC
  5
775B
  8
0
 10
23.870849999999791
 20
-37.709029900000132
 30
0.0
 40
2.7909625
 50
252.24548999999249
 51
312.2455299999923
  0
ARC
  5
775C
  8
0
 10
35.129180999999782
 20
-37.709029900000132
 30
0.0
 40
2.7909625
 50
227.7544700000075
 51
287.75451000000749
  0
ARC
  5
775D
  8
0
 10
29.5
 20
-27.176505899999938
 30
0.0
 40
10.076509
 50
68.134543999996126
 51
111.86546000001741
  0
ARC
  5
775E
  8
0
 10
23.870849999999791
 20
-19.890967900000302
 30
0.0
 40
2.7909625
 50
47.75449899998474
 51
107.75452000000899
  0
ARC
  5
775F
  8
0
 10
35.129180999999782
 20
-19.890967900000302
 30
0.0
 40
2.7909625
 50
72.245483000000505
 51
132.24549999999871
  0
ARC
  5
7760
  8
0
 10
19.0
 20
-32.003127899999981
 30
0.0
 40
3.0
 50
284.99999000000179
 51
0.0
  0
ARC
  5
7761
  8
0
 10
-19.0
 20
-32.003127899999981
 30
0.0
 40
3.0
 50
180.0
 51
255.00000999999801
  0
ARC
  5
7762
  8
0
 10
0.0
 20
0.0
 30
0.0
 40
25.5
 50
0.0
 51
180.000010000001
  0
ARC
  5
7763
  8
0
 10
0.0
 20
0.0
 30
0.0
 40
33.5
 50
0.0
 51
180.000010000001
  0
ARC
  5
7764
  8
0
 10
0.0
 20
-29.847232900000101
 30
0.0
 40
10.0
 50
255.00000000000551
 51
284.99999999999437
  0
LINE
  5
7765
  8
0
 10
152.91870338382071
 20
-39.847228900000118
 30
0.0
 11
155.9187033838206
 21
-39.847228900000118
 31
0.0
  0
LINE
  5
7766
  8
0
 10
155.9187033838206
 20
-27.29999590000034
 30
0.0
 11
177.91870338382071
 21
-27.29999590000034
 31
0.0
  0
LINE
  5
7767
  8
0
 10
152.91870338382071
 20
-30.29999590000034
 30
0.0
 11
152.91870338382071
 21
-39.847228900000118
 31
0.0
  0
LINE
  5
7768
  8
0
 10
180.9187033838206
 20
-30.29999590000034
 30
0.0
 11
180.9187033838206
 21
-39.847228900000118
 31
0.0
  0
LINE
  5
7769
  8
0
 10
155.9187033838206
 20
-31.29999590000034
 30
0.0
 11
155.9187033838206
 21
-39.847228900000118
 31
0.0
  0
LINE
  5
776A
  8
0
 10
177.91870338382071
 20
-31.29999590000034
 30
0.0
 11
177.91870338382071
 21
-39.847228900000118
 31
0.0
  0
LINE
  5
776B
  8
0
 10
156.9187033838206
 20
-30.29999590000034
 30
0.0
 11
176.9187033838206
 21
-30.29999590000034
 31
0.0
  0
LINE
  5
776C
  8
0
 10
177.91870338382071
 20
-39.847228900000118
 30
0.0
 11
180.9187033838206
 21
-39.847228900000118
 31
0.0
  0
LINE
  5
776D
  8
0
 10
158.31869728382071
 20
-54.29999590000034
 30
0.0
 11
175.5187094838206
 21
-54.29999590000034
 31
0.0
  0
LINE
  5
776E
  8
0
 10
156.9187033838206
 20
-25.29999590000034
 30
0.0
 11
159.41314918382059
 21
-25.29999590000034
 31
0.0
  0
LINE
  5
776F
  8
0
 10
155.9187033838206
 20
-26.29999590000034
 30
0.0
 11
155.9187033838206
 21
-27.29999590000034
 31
0.0
  0
LINE
  5
7770
  8
0
 10
177.91870338382071
 20
-26.29999590000034
 30
0.0
 11
177.91870338382071
 21
-27.29999590000034
 31
0.0
  0
LINE
  5
7771
  8
0
 10
155.9187033838206
 20
-26.29999590000034
 30
0.0
 11
158.4187033838206
 21
-26.29999590000034
 31
0.0
  0
LINE
  5
7772
  8
0
 10
155.91868938382041
 20
-26.29998790000036
 30
0.0
 11
156.9186903838208
 21
-25.299985900000141
 31
0.0
  0
LINE
  5
7773
  8
0
 10
176.9186890838204
 20
-25.29998790000036
 30
0.0
 11
177.91869138382069
 21
-26.299989900000131
 31
0.0
  0
LINE
  5
7774
  8
0
 10
158.31869728382071
 20
-51.29999590000034
 30
0.0
 11
158.31869728382071
 21
-54.29999590000034
 31
0.0
  0
LINE
  5
7775
  8
0
 10
175.5187094838206
 20
-51.29999590000034
 30
0.0
 11
175.5187094838206
 21
-54.29999590000034
 31
0.0
  0
LINE
  5
7776
  8
0
 10
157.4187033838206
 20
-51.29999590000034
 30
0.0
 11
176.4187033838206
 21
-51.29999590000034
 31
0.0
  0
LINE
  5
7777
  8
0
 10
176.4187033838206
 20
-30.29999590000034
 30
0.0
 11
176.4187033838206
 21
-51.29999590000034
 31
0.0
  0
LINE
  5
7778
  8
0
 10
157.4187033838206
 20
-30.29999590000034
 30
0.0
 11
157.4187033838206
 21
-51.29999590000034
 31
0.0
  0
LINE
  5
7779
  8
0
 10
170.9187033838206
 20
29.5000001000003
 30
0.0
 11
170.9187033838206
 21
-17.099998899999719
 31
0.0
  0
LINE
  5
777A
  8
0
 10
162.9187033838206
 20
29.5000001000003
 30
0.0
 11
162.9187033838206
 21
-17.099998899999719
 31
0.0
  0
LINE
  5
777B
  8
0
 10
170.9187033838206
 20
-13.200004900000289
 30
0.0
 11
162.9187033838206
 21
-13.200004900000289
 31
0.0
  0
LINE
  5
777C
  8
0
 10
169.9187033838206
 20
-13.200004900000289
 30
0.0
 11
169.9187033838206
 21
-17.099998899999719
 31
0.0
  0
LINE
  5
777D
  8
0
 10
163.91870078382081
 20
-13.20000690000006
 30
0.0
 11
162.9187004838208
 21
-11.467955900000099
 31
0.0
  0
LINE
  5
777E
  8
0
 10
169.9186945838205
 20
-13.199999899999961
 30
0.0
 11
170.9186945838205
 21
-11.46794890000001
 31
0.0
  0
LINE
  5
777F
  8
0
 10
159.98150858382081
 20
-25.700004900000291
 30
0.0
 11
159.98150858382081
 21
-23.900001899999999
 31
0.0
  0
LINE
  5
7780
  8
0
 10
175.4187033838206
 20
-25.700004900000291
 30
0.0
 11
158.4187033838206
 21
-25.700004900000291
 31
0.0
  0
LINE
  5
7781
  8
0
 10
175.4187033838206
 20
-27.300002899999981
 30
0.0
 11
175.4187033838206
 21
-25.700004900000291
 31
0.0
  0
LINE
  5
7782
  8
0
 10
158.4187033838206
 20
-27.300002899999981
 30
0.0
 11
158.4187033838206
 21
-25.700004900000291
 31
0.0
  0
LINE
  5
7783
  8
0
 10
174.4187033838206
 20
-23.900001899999999
 30
0.0
 11
159.4187033838206
 21
-23.900001899999999
 31
0.0
  0
LINE
  5
7784
  8
0
 10
174.4187033838206
 20
-25.700004900000291
 30
0.0
 11
174.4187033838206
 21
-23.900001899999999
 31
0.0
  0
LINE
  5
7785
  8
0
 10
159.4187033838206
 20
-25.700004900000291
 30
0.0
 11
159.4187033838206
 21
-23.900001899999999
 31
0.0
  0
LINE
  5
7786
  8
0
 10
173.85589818382039
 20
-25.700004900000291
 30
0.0
 11
173.85589818382039
 21
-23.900001899999999
 31
0.0
  0
LINE
  5
7787
  8
0
 10
172.85589818382039
 20
-25.700004900000291
 30
0.0
 11
172.85589818382039
 21
-23.900001899999999
 31
0.0
  0
LINE
  5
7788
  8
0
 10
171.5012381838205
 20
-25.700004900000291
 30
0.0
 11
171.5012381838205
 21
-23.900001899999999
 31
0.0
  0
LINE
  5
7789
  8
0
 10
169.7691977838208
 20
-25.700004900000291
 30
0.0
 11
169.7691977838208
 21
-23.900001899999999
 31
0.0
  0
LINE
  5
778A
  8
0
 10
167.9187033838206
 20
-25.700004900000291
 30
0.0
 11
167.9187033838206
 21
-23.900001899999999
 31
0.0
  0
LINE
  5
778B
  8
0
 10
165.9187033838206
 20
-25.700004900000291
 30
0.0
 11
165.9187033838206
 21
-23.900001899999999
 31
0.0
  0
LINE
  5
778C
  8
0
 10
164.06820898382051
 20
-25.700004900000291
 30
0.0
 11
164.06820898382051
 21
-23.900001899999999
 31
0.0
  0
LINE
  5
778D
  8
0
 10
162.3361533838206
 20
-25.700004900000291
 30
0.0
 11
162.3361533838206
 21
-23.900001899999999
 31
0.0
  0
LINE
  5
778E
  8
0
 10
160.98150858382081
 20
-25.700004900000291
 30
0.0
 11
160.98150858382081
 21
-23.900001899999999
 31
0.0
  0
LINE
  5
778F
  8
0
 10
175.4187033838206
 20
-31.90000190000001
 30
0.0
 11
158.4187033838206
 21
-31.90000190000001
 31
0.0
  0
LINE
  5
7790
  8
0
 10
175.4187033838206
 20
-30.300002899999981
 30
0.0
 11
175.4187033838206
 21
-31.90000190000001
 31
0.0
  0
LINE
  5
7791
  8
0
 10
158.4187033838206
 20
-30.300002899999981
 30
0.0
 11
158.4187033838206
 21
-31.90000190000001
 31
0.0
  0
LINE
  5
7792
  8
0
 10
174.4187033838206
 20
-33.700004900000287
 30
0.0
 11
159.4187033838206
 21
-33.700004900000287
 31
0.0
  0
LINE
  5
7793
  8
0
 10
174.4187033838206
 20
-31.90000190000001
 30
0.0
 11
174.4187033838206
 21
-33.700004900000287
 31
0.0
  0
LINE
  5
7794
  8
0
 10
159.4187033838206
 20
-31.90000190000001
 30
0.0
 11
159.4187033838206
 21
-33.700004900000287
 31
0.0
  0
LINE
  5
7795
  8
0
 10
170.9187033838206
 20
-40.500007900000121
 30
0.0
 11
170.9187033838206
 21
-43.200004900000287
 31
0.0
  0
LINE
  5
7796
  8
0
 10
162.9187033838206
 20
-40.500007900000121
 30
0.0
 11
162.9187033838206
 21
-43.200004900000287
 31
0.0
  0
LINE
  5
7797
  8
0
 10
173.85589818382039
 20
-31.90000190000001
 30
0.0
 11
173.85589818382039
 21
-33.700004900000287
 31
0.0
  0
LINE
  5
7798
  8
0
 10
172.85589818382039
 20
-31.90000190000001
 30
0.0
 11
172.85589818382039
 21
-33.700004900000287
 31
0.0
  0
LINE
  5
7799
  8
0
 10
171.5012381838205
 20
-31.90000190000001
 30
0.0
 11
171.5012381838205
 21
-33.700004900000287
 31
0.0
  0
LINE
  5
779A
  8
0
 10
169.7691977838208
 20
-31.90000190000001
 30
0.0
 11
169.7691977838208
 21
-33.700004900000287
 31
0.0
  0
LINE
  5
779B
  8
0
 10
167.9187033838206
 20
-31.90000190000001
 30
0.0
 11
167.9187033838206
 21
-33.700004900000287
 31
0.0
  0
LINE
  5
779C
  8
0
 10
165.9187033838206
 20
-31.90000190000001
 30
0.0
 11
165.9187033838206
 21
-33.700004900000287
 31
0.0
  0
LINE
  5
779D
  8
0
 10
164.06820898382051
 20
-31.90000190000001
 30
0.0
 11
164.06820898382051
 21
-33.700004900000287
 31
0.0
  0
LINE
  5
779E
  8
0
 10
162.3361533838206
 20
-31.90000190000001
 30
0.0
 11
162.3361533838206
 21
-33.700004900000287
 31
0.0
  0
LINE
  5
779F
  8
0
 10
160.98150858382081
 20
-31.90000190000001
 30
0.0
 11
160.98150858382081
 21
-33.700004900000287
 31
0.0
  0
LINE
  5
77A0
  8
0
 10
159.98150858382081
 20
-31.90000190000001
 30
0.0
 11
159.98150858382081
 21
-33.700004900000287
 31
0.0
  0
LINE
  5
77A1
  8
0
 10
170.9187033838206
 20
-43.200004900000287
 30
0.0
 11
162.9187033838206
 21
-43.200004900000287
 31
0.0
  0
LINE
  5
77A2
  8
0
 10
169.9187033838206
 20
-40.500007900000121
 30
0.0
 11
169.9187033838206
 21
-43.200004900000287
 31
0.0
  0
LINE
  5
77A3
  8
0
 10
163.9187033838206
 20
-40.500007900000121
 30
0.0
 11
163.9187033838206
 21
-43.200004900000287
 31
0.0
  0
LINE
  5
77A4
  8
0
 10
175.4187033838206
 20
-26.29999590000034
 30
0.0
 11
177.91870338382071
 21
-26.29999590000034
 31
0.0
  0
LINE
  5
77A5
  8
0
 10
174.42425758382069
 20
-25.29999590000034
 30
0.0
 11
176.9187033838206
 21
-25.29999590000034
 31
0.0
  0
LINE
  5
77A6
  8
0
 10
160.4187033838206
 20
-33.700004900000287
 30
0.0
 11
160.4187033838206
 21
-39.775107899999959
 31
0.0
  0
LINE
  5
77A7
  8
0
 10
161.67429568382059
 20
-40.500007900000121
 30
0.0
 11
160.41873338382081
 21
-39.775107899999959
 31
0.0
  0
LINE
  5
77A8
  8
0
 10
166.9187033838206
 20
-33.700004900000287
 30
0.0
 11
166.9187033838206
 21
-39.775107899999959
 31
0.0
  0
LINE
  5
77A9
  8
0
 10
173.4187033838206
 20
-33.700004900000287
 30
0.0
 11
173.4187033838206
 21
-39.775107899999959
 31
0.0
  0
LINE
  5
77AA
  8
0
 10
172.16314918382059
 20
-40.500007900000121
 30
0.0
 11
161.67425758382061
 21
-40.500007900000121
 31
0.0
  0
LINE
  5
77AB
  8
0
 10
172.16319878382041
 20
-40.500037899999832
 30
0.0
 11
173.4187348838208
 21
-39.77515390000007
 31
0.0
  0
LINE
  5
77AC
  8
0
 10
163.9187033838206
 20
-13.200004900000289
 30
0.0
 11
163.9187033838206
 21
-17.099998899999719
 31
0.0
  0
LINE
  5
77AD
  8
0
 10
160.4187033838206
 20
-23.900001899999999
 30
0.0
 11
160.4187033838206
 21
-17.824897899999989
 31
0.0
  0
LINE
  5
77AE
  8
0
 10
161.67430718382039
 20
-17.100032900000311
 30
0.0
 11
160.41874488382061
 21
-17.824931900000131
 31
0.0
  0
LINE
  5
77AF
  8
0
 10
166.9187033838206
 20
-23.900001899999999
 30
0.0
 11
166.9187033838206
 21
-17.824897899999989
 31
0.0
  0
LINE
  5
77B0
  8
0
 10
173.4187033838206
 20
-23.900001899999999
 30
0.0
 11
173.4187033838206
 21
-17.824897899999989
 31
0.0
  0
LINE
  5
77B1
  8
0
 10
172.16314918382059
 20
-17.099998899999719
 30
0.0
 11
161.67425758382061
 21
-17.099998899999719
 31
0.0
  0
LINE
  5
77B2
  8
0
 10
172.1631729838204
 20
-17.100013900000249
 30
0.0
 11
173.4187090838208
 21
-17.824897899999989
 31
0.0
  0
ARC
  5
77B3
  8
0
 10
177.91870338382071
 20
-30.29999590000034
 30
0.0
 40
3.0
 50
0.0
 51
90.0
  0
ARC
  5
77B4
  8
0
 10
155.9187033838206
 20
-30.29999590000034
 30
0.0
 40
3.0
 50
90.0
 51
180.0
  0
ARC
  5
77B5
  8
0
 10
156.9187033838206
 20
-31.29999590000034
 30
0.0
 40
1.0
 50
90.0
 51
180.0
  0
ARC
  5
77B6
  8
0
 10
176.9187033838206
 20
-31.29999590000034
 30
0.0
 40
1.0
 50
0.0
 51
90.0
  0
ARC
  5
77B7
  8
0
 10
166.9187033838206
 20
29.5000001000003
 30
0.0
 40
4.0
 50
0.0
 51
180.0
  0
ARC
  5
77B8
  8
0
 10
163.6687033838206
 20
-32.852012900000311
 30
0.0
 40
7.6479936000000004
 50
244.8526300000126
 51
295.14736999998729
  0
ARC
  5
77B9
  8
0
 10
170.1687033838206
 20
-32.852012900000311
 30
0.0
 40
7.6479936000000004
 50
244.8526300000126
 51
295.14738000000102
  0
ARC
  5
77BA
  8
0
 10
163.6687033838206
 20
-24.74799389999998
 30
0.0
 40
7.6479936000000004
 50
64.852625999999361
 51
115.1473699999873
  0
ARC
  5
77BB
  8
0
 10
170.1687033838206
 20
-24.74799389999998
 30
0.0
 40
7.6479936000000004
 50
64.852624999992557
 51
115.1473699999873
  0
LINE
  5
77BC
  8
0
 10
-37.5
 20
160.66666424585171
 30
0.0
 11
-37.5
 21
157.53894814585189
 31
0.0
  0
LINE
  5
77BD
  8
0
 10
37.5
 20
160.66666424585171
 30
0.0
 11
37.5
 21
157.53894814585189
 31
0.0
  0
LINE
  5
77BE
  8
0
 10
-22.0
 20
168.66666424585171
 30
0.0
 11
22.0
 21
168.66666424585171
 31
0.0
  0
LINE
  5
77BF
  8
0
 10
-22.0
 20
140.66666424585171
 30
0.0
 11
22.0
 21
140.66666424585171
 31
0.0
  0
LINE
  5
77C0
  8
0
 10
-22.0
 20
168.66666424585171
 30
0.0
 11
-22.0
 21
165.66666424585171
 31
0.0
  0
LINE
  5
77C1
  8
0
 10
22.0
 20
168.66666424585171
 30
0.0
 11
22.0
 21
165.66666424585171
 31
0.0
  0
LINE
  5
77C2
  8
0
 10
-22.0
 20
143.66666424585171
 30
0.0
 11
-22.0
 21
140.66666424585171
 31
0.0
  0
LINE
  5
77C3
  8
0
 10
22.0
 20
143.66666424585171
 30
0.0
 11
22.0
 21
140.66666424585171
 31
0.0
  0
LINE
  5
77C4
  8
0
 10
-32.5
 20
143.66666424585171
 30
0.0
 11
-22.0
 21
143.66666424585171
 31
0.0
  0
LINE
  5
77C5
  8
0
 10
-32.5
 20
165.66666424585171
 30
0.0
 11
-22.0
 21
165.66666424585171
 31
0.0
  0
LINE
  5
77C6
  8
0
 10
22.0
 20
143.66666424585171
 30
0.0
 11
32.5
 21
143.66666424585171
 31
0.0
  0
LINE
  5
77C7
  8
0
 10
22.0
 20
165.66666424585171
 30
0.0
 11
32.5
 21
165.66666424585171
 31
0.0
  0
LINE
  5
77C8
  8
0
 10
-29.5
 20
158.66666424585171
 30
0.0
 11
29.5
 21
158.66666424585171
 31
0.0
  0
LINE
  5
77C9
  8
0
 10
-29.5
 20
150.66666424585171
 30
0.0
 11
29.5
 21
150.66666424585171
 31
0.0
  0
LINE
  5
77CA
  8
0
 10
-37.005557999999837
 20
154.66664879293461
 30
0.0
 11
-33.252781000000141
 21
148.1666485458517
 31
0.0
  0
LINE
  5
77CB
  8
0
 10
-33.252777000000151
 20
148.16666424585171
 30
0.0
 11
-25.747222999999849
 21
148.16666424585171
 31
0.0
  0
LINE
  5
77CC
  8
0
 10
-25.747233999999931
 20
148.1666828458514
 30
0.0
 11
-24.303858000000218
 21
150.6666833458516
 31
0.0
  0
LINE
  5
77CD
  8
0
 10
-24.303851999999999
 20
158.66665234585199
 30
0.0
 11
-25.747226999999839
 21
161.1666504458517
 31
0.0
  0
LINE
  5
77CE
  8
0
 10
-25.747222999999849
 20
161.16666424585171
 30
0.0
 11
-33.252777000000151
 21
161.16666424585171
 31
0.0
  0
LINE
  5
77CF
  8
0
 10
-33.252789000000121
 20
161.1666828458514
 30
0.0
 11
-37.00556599999981
 21
154.6666818616545
 31
0.0
  0
LINE
  5
77D0
  8
0
 10
-37.5
 20
151.79438034585149
 30
0.0
 11
-37.5
 21
148.66666424585171
 31
0.0
  0
LINE
  5
77D1
  8
0
 10
37.00555399999984
 20
154.6666542594443
 30
0.0
 11
33.252777000000151
 21
148.1666547458517
 31
0.0
  0
LINE
  5
77D2
  8
0
 10
33.252769000000171
 20
161.166686145852
 30
0.0
 11
37.005547000000199
 21
154.66668579494441
 31
0.0
  0
LINE
  5
77D3
  8
0
 10
25.747222999999849
 20
161.16666424585171
 30
0.0
 11
33.252777000000151
 21
161.16666424585171
 31
0.0
  0
LINE
  5
77D4
  8
0
 10
24.303848000000009
 20
158.66665754585159
 30
0.0
 11
25.747222999999849
 21
161.1666547458517
 31
0.0
  0
LINE
  5
77D5
  8
0
 10
33.252777000000151
 20
148.16666424585171
 30
0.0
 11
25.747222999999849
 21
148.16666424585171
 31
0.0
  0
LINE
  5
77D6
  8
0
 10
25.747217000000092
 20
148.166686145852
 30
0.0
 11
24.303843000000139
 21
150.6666842458516
 31
0.0
  0
LINE
  5
77D7
  8
0
 10
37.5
 20
151.79438034585149
 30
0.0
 11
37.5
 21
148.66666424585171
 31
0.0
  0
ARC
  5
77D8
  8
0
 10
-32.5
 20
160.66666424585171
 30
0.0
 40
5.0
 50
90.0
 51
180.000010000001
  0
ARC
  5
77D9
  8
0
 10
-32.5
 20
148.66666424585171
 30
0.0
 40
5.0
 50
179.99998999999889
 51
270.0
  0
ARC
  5
77DA
  8
0
 10
32.5
 20
148.66666424585171
 30
0.0
 40
5.0
 50
270.0
 51
0.0
  0
ARC
  5
77DB
  8
0
 10
32.5
 20
160.66666424585171
 30
0.0
 40
5.0
 50
0.0
 51
90.0
  0
ARC
  5
77DC
  8
0
 10
0.0
 20
154.66666424585171
 30
0.0
 40
10.0
 50
23.578177999986089
 51
156.42182000001571
  0
ARC
  5
77DD
  8
0
 10
0.0
 20
154.66666424585171
 30
0.0
 40
11.0
 50
21.323686000000858
 51
158.6763200000149
  0
ARC
  5
77DE
  8
0
 10
-29.5
 20
154.66666424585171
 30
0.0
 40
4.0
 50
90.0
 51
270.0
  0
ARC
  5
77DF
  8
0
 10
0.0
 20
154.66666424585171
 30
0.0
 40
11.0
 50
201.32367999998499
 51
338.67630999999551
  0
ARC
  5
77E0
  8
0
 10
0.0
 20
154.66666424585171
 30
0.0
 40
10.0
 50
203.5781799999842
 51
336.4218200000156
  0
ARC
  5
77E1
  8
0
 10
-29.5
 20
154.66666424585171
 30
0.0
 40
6.5
 50
37.979869000002573
 51
322.0201100000059
  0
ARC
  5
77E2
  8
0
 10
-29.5
 20
154.66666424585171
 30
0.0
 40
8.5
 50
28.072487000019009
 51
331.92752000000343
  0
ARC
  5
77E3
  8
0
 10
-23.5
 20
154.66666424585171
 30
0.0
 40
5.0
 50
280.806919999993
 51
306.86990000002157
  0
ARC
  5
77E4
  8
0
 10
-23.5
 20
154.66666424585171
 30
0.0
 40
5.0
 50
53.13010200000199
 51
79.193076999994119
  0
ARC
  5
77E5
  8
0
 10
23.5
 20
154.66666424585171
 30
0.0
 40
5.0
 50
100.806919999993
 51
126.8699000000216
  0
ARC
  5
77E6
  8
0
 10
23.5
 20
154.66666424585171
 30
0.0
 40
5.0
 50
233.13009999997831
 51
259.193080000007
  0
ARC
  5
77E7
  8
0
 10
29.5
 20
154.66666424585171
 30
0.0
 40
8.5
 50
208.07247999999649
 51
151.9275200000034
  0
ARC
  5
77E8
  8
0
 10
29.5
 20
154.66666424585171
 30
0.0
 40
6.5
 50
217.9798899999941
 51
142.02013000000301
  0
ARC
  5
77E9
  8
0
 10
29.5
 20
154.66666424585171
 30
0.0
 40
4.0
 50
270.0
 51
90.0
  0
LINE
  5
7F91
  8
0
  6
CENTER
 62
     0
 10
0.0
 20
120.08668062728469
 30
0.0
 11
0.0
 21
189.24664786441869
 31
0.0
  0
LINE
  5
7F92
  8
0
  6
CENTER
 62
     0
 10
-46.187724029819947
 20
154.66666424585171
 30
0.0
 11
46.187724029819947
 21
154.66666424585171
 31
0.0
  0
LINE
  5
7FA1
  8
0
  6
CENTER
 62
     0
 10
0.0
 20
-63.984852857558053
 30
0.0
 11
0.0
 21
45.018124981458179
 31
0.0
  0
LINE
  5
7FA2
  8
0
  6
CENTER
 62
     0
 10
-49.151738132713938
 20
0.1000060999999732
 30
0.0
 11
49.151738132713938
 21
0.1000060999999732
 31
0.0
  0
LINE
  5
7FAF
  8
0
  6
CENTER
 62
     0
 10
166.9187033838206
 20
-63.984852857558053
 30
0.0
 11
166.9187033838206
 21
45.018124981458179
 31
0.0
  0
LINE
  5
7FB0
  8
0
  6
CENTER
 62
     0
 10
149.5245242011305
 20
0.1000060999999732
 30
0.0
 11
184.3128825665103
 21
0.1000060999999732
 31
0.0
  0
TEXT
  5
7FBC
  8
0
 10
-372.14288214285762
 20
250.28559604455759
 30
0.0
 40
50.0
  1
P-SUPPORT-UB 2S
 72
     4
 11
-0.0000250000002779
 21
275.28559604455762
 31
0.0
  0
ENDSEC
  0
EOF
