  0
SECTION
  2
HEADER
  9
$ACADVER
  1
AC1009
  9
$INSBASE
 10
0.0
 20
0.0
 30
0.0
  9
$EXTMIN
 10
-147.2835174494663
 20
-73.201021286599484
 30
0.0
  9
$EXTMAX
 10
229.28791112196211
 20
223.26244209987891
 30
0.0
  9
$LIMMIN
 10
0.0
 20
0.0
  9
$LIMMAX
 10
420.0
 20
297.0
  9
$ORTHOMODE
 70
     0
  9
$REGENMODE
 70
     1
  9
$FILLMODE
 70
     1
  9
$QTEXTMODE
 70
     0
  9
$MIRRTEXT
 70
     1
  9
$DRAGMODE
 70
     2
  9
$LTSCALE
 40
1.0
  9
$OSMODE
 70
    37
  9
$ATTMODE
 70
     1
  9
$TEXTSIZE
 40
73.985717453579113
  9
$TRACEWID
 40
1.0
  9
$TEXTSTYLE
  7
STANDARD
  9
$CLAYER
  8
0
  9
$CELTYPE
  6
BYLAYER
  9
$CECOLOR
 62
   256
  9
$DIMSCALE
 40
1.0
  9
$DIMASZ
 40
0.18
  9
$DIMEXO
 40
0.0625
  9
$DIMDLI
 40
0.38
  9
$DIMRND
 40
0.0
  9
$DIMDLE
 40
0.0
  9
$DIMEXE
 40
0.18
  9
$DIMTP
 40
0.0
  9
$DIMTM
 40
0.0
  9
$DIMTXT
 40
0.18
  9
$DIMCEN
 40
0.09
  9
$DIMTSZ
 40
0.0
  9
$DIMTOL
 70
     0
  9
$DIMLIM
 70
     0
  9
$DIMTIH
 70
     1
  9
$DIMTOH
 70
     1
  9
$DIMSE1
 70
     0
  9
$DIMSE2
 70
     0
  9
$DIMTAD
 70
     0
  9
$DIMZIN
 70
     0
  9
$DIMBLK
  1

  9
$DIMASO
 70
     1
  9
$DIMSHO
 70
     1
  9
$DIMPOST
  1

  9
$DIMAPOST
  1

  9
$DIMALT
 70
     0
  9
$DIMALTD
 70
     2
  9
$DIMALTF
 40
25.399999999999999
  9
$DIMLFAC
 40
1.0
  9
$DIMTOFL
 70
     0
  9
$DIMTVP
 40
0.0
  9
$DIMTIX
 70
     0
  9
$DIMSOXD
 70
     0
  9
$DIMSAH
 70
     0
  9
$DIMBLK1
  1

  9
$DIMBLK2
  1

  9
$DIMSTYLE
  2
STANDARD
  9
$DIMCLRD
 70
     0
  9
$DIMCLRE
 70
     0
  9
$DIMCLRT
 70
     0
  9
$DIMTFAC
 40
1.0
  9
$DIMGAP
 40
0.09
  9
$LUNITS
 70
     2
  9
$LUPREC
 70
     8
  9
$SKETCHINC
 40
1.0
  9
$FILLETRAD
 40
0.0
  9
$AUNITS
 70
     0
  9
$AUPREC
 70
     8
  9
$MENU
  1
.
  9
$ELEVATION
 40
0.0
  9
$PELEVATION
 40
0.0
  9
$THICKNESS
 40
0.0
  9
$LIMCHECK
 70
     0
  9
$BLIPMODE
 70
     0
  9
$CHAMFERA
 40
2.5
  9
$CHAMFERB
 40
2.5
  9
$SKPOLY
 70
     0
  9
$TDCREATE
 40
2454749.4701119331
  9
$TDUPDATE
 40
2454749.7564161918
  9
$TDINDWG
 40
0.1758882986
  9
$TDUSRTIMER
 40
0.1758877662
  9
$USRTIMER
 70
     1
  9
$ANGBASE
 50
0.0
  9
$ANGDIR
 70
     1
  9
$PDMODE
 70
     0
  9
$PDSIZE
 40
0.0
  9
$PLINEWID
 40
0.0
  9
$COORDS
 70
     1
  9
$SPLFRAME
 70
     0
  9
$SPLINETYPE
 70
     6
  9
$SPLINESEGS
 70
     8
  9
$ATTDIA
 70
     0
  9
$ATTREQ
 70
     1
  9
$HANDLING
 70
 22529
  9
$HANDSEED
  5
10C9B
  9
$SURFTAB1
 70
     6
  9
$SURFTAB2
 70
     6
  9
$SURFTYPE
 70
     6
  9
$SURFU
 70
     6
  9
$SURFV
 70
     6
  9
$UCSNAME
  2

  9
$UCSORG
 10
0.0
 20
0.0
 30
0.0
  9
$UCSXDIR
 10
1.0
 20
0.0
 30
0.0
  9
$UCSYDIR
 10
0.0
 20
1.0
 30
0.0
  9
$PUCSNAME
  2

  9
$PUCSORG
 10
0.0
 20
0.0
 30
0.0
  9
$PUCSXDIR
 10
1.0
 20
0.0
 30
0.0
  9
$PUCSYDIR
 10
0.0
 20
1.0
 30
0.0
  9
$USERI1
 70
     0
  9
$USERI2
 70
     0
  9
$USERI3
 70
     0
  9
$USERI4
 70
     0
  9
$USERI5
 70
     0
  9
$USERR1
 40
0.0
  9
$USERR2
 40
0.0
  9
$USERR3
 40
0.0
  9
$USERR4
 40
0.0
  9
$USERR5
 40
0.0
  9
$WORLDVIEW
 70
     1
  9
$SHADEDGE
 70
     3
  9
$SHADEDIF
 70
    70
  9
$TILEMODE
 70
     1
  9
$MAXACTVP
 70
    48
  9
$PLIMCHECK
 70
     0
  9
$PEXTMIN
 10
1.0000000000000000E+020
 20
1.0000000000000000E+020
 30
1.0000000000000000E+020
  9
$PEXTMAX
 10
-1.0000000000000000E+020
 20
-1.0000000000000000E+020
 30
-1.0000000000000000E+020
  9
$PLIMMIN
 10
0.0
 20
0.0
  9
$PLIMMAX
 10
420.0
 20
297.0
  9
$UNITMODE
 70
     0
  9
$VISRETAIN
 70
     1
  9
$PLINEGEN
 70
     0
  9
$PSLTSCALE
 70
     1
  0
ENDSEC
  0
SECTION
  2
TABLES
  0
TABLE
  2
VPORT
 70
     2
  0
VPORT
  2
*ACTIVE
 70
     0
 10
0.0
 20
0.0
 11
1.0
 21
1.0
 12
41.011746746768829
 22
75.026822230643603
 13
0.0
 23
0.0
 14
2.5
 24
2.5
 15
10.0
 25
10.0
 16
0.0
 26
0.0
 36
1.0
 17
0.0
 27
0.0
 37
0.0
 40
298.82697101842501
 41
1.531806615776081
 42
50.0
 43
0.0
 44
0.0
 50
0.0
 51
0.0
 71
     0
 72
   100
 73
     1
 74
     3
 75
     0
 76
     0
 77
     0
 78
     0
  0
ENDTAB
  0
TABLE
  2
LTYPE
 70
     2
  0
LTYPE
  2
CONTINUOUS
 70
     0
  3
Solid line
 72
    65
 73
     0
 40
0.0
  0
LTYPE
  2
CENTER
 70
     0
  3
__ . __
 72
    65
 73
     4
 40
7.0
 49
4.0
 49
-1.0
 49
1.0
 49
-1.0
  0
ENDTAB
  0
TABLE
  2
LAYER
 70
     1
  0
LAYER
  2
0
 70
     0
 62
     7
  6
CONTINUOUS
  0
ENDTAB
  0
TABLE
  2
STYLE
 70
     2
  0
STYLE
  2
STANDARD
 70
     0
 40
0.0
 41
0.7
 50
0.0
 71
     0
 42
73.985717453579113
  3
romans.shx
  4
bigfont.shx
  0
STYLE
  2
TSKDIM
 70
     0
 40
0.0
 41
0.75
 50
0.0
 71
     0
 42
4.0
  3
romans.shx
  4
EXTFONT.SHX
  0
ENDTAB
  0
TABLE
  2
VIEW
 70
     0
  0
ENDTAB
  0
TABLE
  2
UCS
 70
     0
  0
ENDTAB
  0
TABLE
  2
APPID
 70
    43
  0
APPID
  2
ACAD
 70
     0
  0
APPID
  2
MCAD_NO_VIS
 70
     0
  0
APPID
  2
ACAD_TEMP_GRAPHIC
 70
     0
  0
APPID
  2
ACATTRIBSERVICES
 70
     0
  0
APPID
  2
AD_DRAW
 70
     0
  0
APPID
  2
DESIGNERASSEMBLIES
 70
     0
  0
APPID
  2
ASURF_PCURVE_APPNAME
 70
     0
  0
APPID
  2
ACADM_DIM_EDIT
 70
     0
  0
APPID
  2
GENIUS_GENDIM_13
 70
     0
  0
APPID
  2
GENIUS_GENDTOL_13
 70
     0
  0
APPID
  2
GENIUS_GE3DTOL_13
 70
     0
  0
APPID
  2
AMG_3D2D_5_0
 70
     0
  0
APPID
  2
AMDT_DM_ADJ
 70
     0
  0
APPID
  2
CK_MATE-SERIES
 70
     0
  0
APPID
  2
GEVID1042077799
 70
     0
  0
APPID
  2
GEVMK
 70
     0
  0
APPID
  2
GEVDC
 70
     0
  0
APPID
  2
GENIUS_GENBH_13
 70
     0
  0
APPID
  2
GENIUS_GENOLIS_13
 70
     0
  0
APPID
  2
GENIUS_GENOENT_13
 70
     0
  0
APPID
  2
GENIUS_GENODEF_13
 70
     0
  0
APPID
  2
GENIUS_GENOBJ-NBEHI-BHF_13
 70
     0
  0
APPID
  2
GENIUS_GENOREF_13
 70
     0
  0
APPID
  2
GENIUS_GENOBJ-NBEHI-BHB_13
 70
     0
  0
APPID
  2
GEVID1042183772
 70
     0
  0
APPID
  2
GEVID1042183773
 70
     0
  0
APPID
  2
GEVID1042183774
 70
     0
  0
APPID
  2
DCO15
 70
     0
  0
APPID
  2
ACAD_DSTYLE_DIMARC_LENGTH_
 70
     0
  0
APPID
  2
ACAD_DSTYLE_DIMJOGGED_JOGA
 70
     0
  0
APPID
  2
ACAD_MLEADERVER
 70
     0
  0
APPID
  2
ACAD_DSTYLE_DIMJAG
 70
     0
  0
APPID
  2
ACAD_DSTYLE_DIMTALN
 70
     0
  0
APPID
  2
ACAD_PSEXT
 70
     0
  0
APPID
  2
ACAD_EXEMPT_FROM_CAD_STANDARDS
 70
     0
  0
APPID
  2
ACAECLAYERSTANDARD
 70
     0
  0
APPID
  2
ACAD_DSTYLE_DIMINSPECT
 70
     0
  0
APPID
  2
ACAD_DSTYLE_DIM_LINETYPE
 70
     0
  0
APPID
  2
ACAD_DSTYLE_DIM_EXT1_LINETYPE
 70
     0
  0
APPID
  2
ACAD_DSTYLE_DIM_EXT2_LINETYPE
 70
     0
  0
APPID
  2
ACADANNOTATIVE
 70
     0
  0
APPID
  2
ACAD_DSTYLE_DIMANGULAR_EXT
 70
     0
  0
APPID
  2
GENIUS_GENOBJ-N-FIL_13
 70
     0
  0
ENDTAB
  0
TABLE
  2
DIMSTYLE
 70
     1
  0
DIMSTYLE
  2
STANDARD
 70
     0
  3

  4

  5

  6

  7

 40
1.0
 41
0.18
 42
0.0625
 43
0.38
 44
0.18
 45
0.0
 46
0.0
 47
0.0
 48
0.0
140
0.18
141
0.09
142
0.0
143
25.399999999999999
144
1.0
145
0.0
146
1.0
147
0.09
 71
     0
 72
     0
 73
     1
 74
     1
 75
     0
 76
     0
 77
     0
 78
     0
170
     0
171
     2
172
     0
173
     0
174
     0
175
     0
176
     0
177
     0
178
     0
  0
ENDTAB
  0
ENDSEC
  0
SECTION
  2
BLOCKS
  0
BLOCK
  8
0
  2
$MODEL_SPACE
 70
     0
 10
0.0
 20
0.0
 30
0.0
  3
$MODEL_SPACE
  1

  0
ENDBLK
  5
21
  8
0
  0
BLOCK
 67
     1
  8
0
  2
$PAPER_SPACE
 70
     0
 10
0.0
 20
0.0
 30
0.0
  3
$PAPER_SPACE
  1

  0
ENDBLK
  5
1D
 67
     1
  8
0
  0
BLOCK
  8
0
  2
_OPEN
 70
     0
 10
0.0
 20
0.0
 30
0.0
  3
_OPEN
  1

  0
LINE
  5
15A
  8
0
  6
BYBLOCK
 62
     0
 10
-1.0
 20
0.1666666666666666
 30
0.0
 11
0.0
 21
0.0
 31
0.0
  0
LINE
  5
15B
  8
0
  6
BYBLOCK
 62
     0
 10
-1.0
 20
-0.1666666666666666
 30
0.0
 11
0.0
 21
0.0
 31
0.0
  0
LINE
  5
15C
  8
0
  6
BYBLOCK
 62
     0
 10
0.0
 20
0.0
 30
0.0
 11
-1.0
 21
0.0
 31
0.0
  0
ENDBLK
  5
15E
  8
0
  0
ENDSEC
  0
SECTION
  2
ENTITIES
  0
LINE
  5
18AD
  8
0
 10
-57.0
 20
-10.0
 30
0.0
 11
-42.851470104719731
 21
-10.0
 31
0.0
  0
LINE
  5
18AF
  8
0
 10
-57.0
 20
-8.0
 30
0.0
 11
-42.851469999999608
 21
-8.0
 31
0.0
  0
LINE
  5
18B0
  8
0
  6
CENTER
 10
-51.0
 20
-18.179270000000081
 30
0.0
 11
-51.0
 21
18.179270000000081
 31
0.0
  0
LINE
  5
18B1
  8
0
  6
CENTER
 10
53.0
 20
28.875263352239919
 30
0.0
 11
53.0
 21
-15.15148999999996
 31
0.0
  0
LINE
  5
18B2
  8
0
 10
60.0
 20
4.0
 30
0.0
 11
60.0
 21
-10.0
 31
0.0
  0
LINE
  5
18B3
  8
0
 10
46.0
 20
4.0
 30
0.0
 11
46.0
 21
-8.0
 31
0.0
  0
LINE
  5
18B4
  8
0
  6
CENTER
 10
-61.689639999999592
 20
0.0
 30
0.0
 11
66.630970000000161
 21
0.0
 31
0.0
  0
LINE
  5
18B5
  8
0
 10
42.851490000000922
 20
-6.0
 30
0.0
 11
46.0
 21
-6.0
 31
0.0
  0
LINE
  5
18B6
  8
0
 10
42.851490000000922
 20
-8.0
 30
0.0
 11
60.0
 21
-8.0
 31
0.0
  0
LINE
  5
18B7
  8
0
 10
42.851490000000922
 20
-10.0
 30
0.0
 11
60.0
 21
-10.0
 31
0.0
  0
LINE
  5
18B8
  8
0
 10
-57.0
 20
-10.0
 30
0.0
 11
-57.0
 21
10.0
 31
0.0
  0
LINE
  5
18B9
  8
0
 10
-45.0
 20
-8.0
 30
0.0
 11
-45.0
 21
8.0
 31
0.0
  0
LINE
  5
18BA
  8
0
 10
-45.0
 20
-6.0
 30
0.0
 11
-42.851469999999608
 21
-6.0
 31
0.0
  0
LINE
  5
18BB
  8
0
  6
CENTER
 10
0.0
 20
47.567019999999957
 30
0.0
 11
0.0
 21
-70.172005000000127
 31
0.0
  0
LINE
  5
18BE
  8
0
 10
15.0
 20
-37.619808611953538
 30
0.0
 11
15.0
 21
-40.99999600000001
 31
0.0
  0
LINE
  5
18BF
  8
0
 10
-15.0
 20
-37.619808611953196
 30
0.0
 11
-15.0
 21
-40.99999600000001
 31
0.0
  0
LINE
  5
18C0
  8
0
 10
-14.0
 20
-41.999996000000003
 30
0.0
 11
14.0
 21
-41.999996000000003
 31
0.0
  0
LINE
  5
18C6
  8
0
 10
12.70000000000072
 20
-41.999996000000003
 30
0.0
 11
12.70000000000072
 21
-66.99999600000001
 31
0.0
  0
LINE
  5
18C7
  8
0
 10
-12.6999999999989
 20
-41.999996000000003
 30
0.0
 11
-12.6999999999989
 21
-66.99999600000001
 31
0.0
  0
LINE
  5
18C8
  8
0
 10
-12.6999999999989
 20
-66.99999600000001
 30
0.0
 11
12.70000000000072
 21
-66.99999600000001
 31
0.0
  0
ARC
  5
1945
  8
0
 10
0.0
 20
0.0
 30
0.0
 40
38.5
 50
195.64421999999519
 51
344.35578999999819
  0
ARC
  5
1946
  8
0
 10
0.0
 20
0.0
 30
0.0
 40
40.499999999999993
 50
195.64421642968111
 51
344.35578999999819
  0
ARC
  5
1947
  8
0
 10
0.0
 20
0.0
 30
0.0
 40
42.5
 50
195.64421612712169
 51
249.33269000002181
  0
ARC
  5
1948
  8
0
 10
-51.0
 20
0.0
 30
0.0
 40
6.0
 50
0.0
 51
180.000010000001
  0
ARC
  5
1949
  8
0
 10
48.0
 20
4.0
 30
0.0
 40
2.0
 50
90.000002999984659
 51
180.000010000001
  0
ARC
  5
194A
  8
0
 10
58.0
 20
4.0
 30
0.0
 40
2.0
 50
0.0
 51
90.000002999984659
  0
ARC
  5
194D
  8
0
 10
-42.851469999999608
 20
-12.0
 30
0.0
 40
2.0
 50
15.64421000000171
 51
90.000002999984659
  0
ARC
  5
194E
  8
0
 10
-42.851469999999608
 20
-12.0
 30
0.0
 40
4.0
 50
15.64421000000171
 51
90.0
  0
ARC
  5
194F
  8
0
 10
-42.851469999999608
 20
-12.0
 30
0.0
 40
6.0
 50
15.64421000000171
 51
90.000002999984659
  0
ARC
  5
1950
  8
0
 10
42.851490000000922
 20
-12.0
 30
0.0
 40
2.0
 50
90.000002999984659
 51
164.3557800000047
  0
ARC
  5
1951
  8
0
 10
42.851490000000922
 20
-12.0
 30
0.0
 40
4.0
 50
90.000002999984659
 51
164.3557800000047
  0
ARC
  5
1952
  8
0
 10
42.851490000000922
 20
-12.0
 30
0.0
 40
6.0
 50
90.000002999984659
 51
164.3557800000047
  0
ARC
  5
1953
  8
0
 10
0.0
 20
0.0
 30
0.0
 40
42.5
 50
290.66732000001252
 51
344.35578999999819
  0
ARC
  5
1959
  8
0
 10
-14.0
 20
-40.99999600000001
 30
0.0
 40
1.0
 50
179.99998999999889
 51
270.0
  0
ARC
  5
195A
  8
0
 10
14.0
 20
-40.99999600000001
 30
0.0
 40
1.0
 50
270.0
 51
0.0
  0
LINE
  5
F960
  8
0
  6
CENTER
 10
0.0
 20
113.2651340459153
 30
0.0
 11
0.0
 21
79.473794045915156
 31
0.0
  0
LINE
  5
F961
  8
0
  6
CENTER
 10
-60.516540000000532
 20
96.662149045915385
 30
0.0
 11
64.446519999999509
 21
96.662154045915244
 31
0.0
  0
LINE
  5
F962
  8
0
 10
-38.934719999999281
 20
81.662149045915385
 30
0.0
 11
62.0
 21
81.662154045915244
 31
0.0
  0
LINE
  5
F963
  8
0
 10
-38.934719999999281
 20
111.6621490459153
 30
0.0
 11
62.0
 21
111.6621540459152
 31
0.0
  0
LINE
  5
F964
  8
0
 10
62.0
 20
111.6621540459152
 30
0.0
 11
62.0
 21
100.9121540459152
 31
0.0
  0
LINE
  5
F965
  8
0
 10
58.562153647646483
 20
100.9121540459152
 30
0.0
 11
62.0
 21
100.9121540459152
 31
0.0
  0
LINE
  5
F966
  8
0
 10
58.562153647646483
 20
92.412154045915258
 30
0.0
 11
62.0
 21
92.412154045915258
 31
0.0
  0
LINE
  5
F967
  8
0
 10
62.0
 20
92.412154045915258
 30
0.0
 11
62.0
 21
81.662154045915244
 31
0.0
  0
LINE
  5
F968
  8
0
 10
-57.0
 20
111.1621490459153
 30
0.0
 11
-57.0
 21
82.162149045915385
 31
0.0
  0
LINE
  5
F969
  8
0
 10
-57.0
 20
82.162149045915385
 30
0.0
 11
-45.0
 21
82.162149045915385
 31
0.0
  0
LINE
  5
F96A
  8
0
 10
-41.642886512469879
 20
102.6598240459152
 30
0.0
 11
-41.642886512469879
 21
90.664484045915287
 31
0.0
  0
LINE
  5
F96B
  8
0
 10
-57.0
 20
104.1621490459153
 30
0.0
 11
62.0
 21
104.1621540459152
 31
0.0
  0
LINE
  5
F96C
  8
0
 10
-57.0
 20
89.162149045915385
 30
0.0
 11
62.0
 21
89.162154045915244
 31
0.0
  0
LINE
  5
F96D
  8
0
 10
-41.434719999999281
 20
109.1621490459153
 30
0.0
 11
-38.934719999999281
 21
111.6621490459153
 31
0.0
  0
LINE
  5
F96E
  8
0
 10
-41.434719999999281
 20
84.162149045915385
 30
0.0
 11
-38.934719999999281
 21
81.662159045915374
 31
0.0
  0
LINE
  5
F96F
  8
0
 10
-40.434302941503113
 20
109.1621490459153
 30
0.0
 11
-40.434302941503113
 21
104.16214975327981
 31
0.0
  0
LINE
  5
F970
  8
0
 10
-40.434302941503113
 20
89.162149774390159
 30
0.0
 11
-40.434302941503113
 21
84.162149045915385
 31
0.0
  0
LINE
  5
F976
  8
0
 10
-45.0
 20
84.162149045915385
 30
0.0
 11
-41.434719999999281
 21
84.162149045915385
 31
0.0
  0
LINE
  5
F977
  8
0
 10
-45.0
 20
109.1621490459153
 30
0.0
 11
-41.434719999999281
 21
109.1621490459153
 31
0.0
  0
LINE
  5
F979
  8
0
 10
-45.0
 20
84.162149045915385
 30
0.0
 11
-45.0
 21
82.162149045915385
 31
0.0
  0
LINE
  5
F97A
  8
0
 10
-57.0
 20
111.1621490459153
 30
0.0
 11
-45.0
 21
111.1621490459153
 31
0.0
  0
LINE
  5
F97B
  8
0
  6
CENTER
 10
-51.0
 20
80.795729045915323
 30
0.0
 11
-51.0
 21
112.52857904591539
 31
0.0
  0
LINE
  5
F97C
  8
0
 10
-45.0
 20
109.1621490459153
 30
0.0
 11
-45.0
 21
111.1621490459153
 31
0.0
  0
LINE
  5
F97D
  8
0
 10
38.387658000000549
 20
98.912154045915273
 30
0.0
 11
47.981285000000753
 21
98.912154045915273
 31
0.0
  0
LINE
  5
F97E
  8
0
 10
38.387658000000549
 20
94.412154045915258
 30
0.0
 11
47.981285000000753
 21
94.412154045915258
 31
0.0
  0
LINE
  5
F97F
  8
0
 10
58.018715000000149
 20
94.412154045915258
 30
0.0
 11
67.612343000000692
 21
94.412154045915258
 31
0.0
  0
LINE
  5
F980
  8
0
 10
58.018715000000149
 20
98.912154045915273
 30
0.0
 11
67.612343000000692
 21
98.912154045915273
 31
0.0
  0
ARC
  5
F981
  8
0
 10
53.0
 20
96.662154045915244
 30
0.0
 40
7.0000037999999991
 50
18.749332000004159
 51
161.25067000000399
  0
ARC
  5
F982
  8
0
 10
53.0
 20
96.662154045915244
 30
0.0
 40
7.0000037999999991
 50
198.74932999999589
 51
341.25067000000399
  0
POLYLINE
  5
F983
  8
0
 10
46.646107272319462
 20
94.229647646148891
 30
0.0
 66
     1
 70
     8
  0
VERTEX
  8
0
  5
10507
 10
46.6461
 20
94.2296
 30
0.000000
  70
    32
  0
VERTEX
  8
0
  5
10508
 10
46.6713
 20
94.2600
 30
0.000000
  70
    32
  0
VERTEX
  8
0
  5
10509
 10
46.6962
 20
94.2908
 30
0.000000
  70
    32
  0
VERTEX
  8
0
  5
1050A
 10
46.7207
 20
94.3219
 30
0.000000
  70
    32
  0
VERTEX
  8
0
  5
1050B
 10
46.7450
 20
94.3533
 30
0.000000
  70
    32
  0
VERTEX
  8
0
  5
1050C
 10
46.7689
 20
94.3850
 30
0.000000
  70
    32
  0
VERTEX
  8
0
  5
1050D
 10
46.7925
 20
94.4171
 30
0.000000
  70
    32
  0
VERTEX
  8
0
  5
1050E
 10
46.8157
 20
94.4495
 30
0.000000
  70
    32
  0
VERTEX
  8
0
  5
1050F
 10
46.8386
 20
94.4822
 30
0.000000
  70
    32
  0
VERTEX
  8
0
  5
10510
 10
46.8611
 20
94.5152
 30
0.000000
  70
    32
  0
VERTEX
  8
0
  5
10511
 10
46.8833
 20
94.5486
 30
0.000000
  70
    32
  0
VERTEX
  8
0
  5
10512
 10
46.9052
 20
94.5822
 30
0.000000
  70
    32
  0
VERTEX
  8
0
  5
10513
 10
46.9267
 20
94.6162
 30
0.000000
  70
    32
  0
VERTEX
  8
0
  5
10514
 10
46.9479
 20
94.6504
 30
0.000000
  70
    32
  0
VERTEX
  8
0
  5
10515
 10
46.9687
 20
94.6850
 30
0.000000
  70
    32
  0
VERTEX
  8
0
  5
10516
 10
46.9891
 20
94.7198
 30
0.000000
  70
    32
  0
VERTEX
  8
0
  5
10517
 10
47.0092
 20
94.7549
 30
0.000000
  70
    32
  0
VERTEX
  8
0
  5
10518
 10
47.0288
 20
94.7902
 30
0.000000
  70
    32
  0
VERTEX
  8
0
  5
10519
 10
47.0482
 20
94.8259
 30
0.000000
  70
    32
  0
VERTEX
  8
0
  5
1051A
 10
47.0671
 20
94.8618
 30
0.000000
  70
    32
  0
VERTEX
  8
0
  5
1051B
 10
47.0857
 20
94.8980
 30
0.000000
  70
    32
  0
VERTEX
  8
0
  5
1051C
 10
47.1039
 20
94.9344
 30
0.000000
  70
    32
  0
VERTEX
  8
0
  5
1051D
 10
47.1217
 20
94.9710
 30
0.000000
  70
    32
  0
VERTEX
  8
0
  5
1051E
 10
47.1392
 20
95.0080
 30
0.000000
  70
    32
  0
VERTEX
  8
0
  5
1051F
 10
47.1562
 20
95.0451
 30
0.000000
  70
    32
  0
VERTEX
  8
0
  5
10520
 10
47.1729
 20
95.0825
 30
0.000000
  70
    32
  0
VERTEX
  8
0
  5
10521
 10
47.1892
 20
95.1201
 30
0.000000
  70
    32
  0
VERTEX
  8
0
  5
10522
 10
47.2050
 20
95.1579
 30
0.000000
  70
    32
  0
VERTEX
  8
0
  5
10523
 10
47.2205
 20
95.1960
 30
0.000000
  70
    32
  0
VERTEX
  8
0
  5
10524
 10
47.2356
 20
95.2343
 30
0.000000
  70
    32
  0
VERTEX
  8
0
  5
10525
 10
47.2503
 20
95.2727
 30
0.000000
  70
    32
  0
VERTEX
  8
0
  5
10526
 10
47.2646
 20
95.3114
 30
0.000000
  70
    32
  0
VERTEX
  8
0
  5
10527
 10
47.2785
 20
95.3503
 30
0.000000
  70
    32
  0
VERTEX
  8
0
  5
10528
 10
47.2919
 20
95.3893
 30
0.000000
  70
    32
  0
VERTEX
  8
0
  5
10529
 10
47.3050
 20
95.4285
 30
0.000000
  70
    32
  0
VERTEX
  8
0
  5
1052A
 10
47.3176
 20
95.4680
 30
0.000000
  70
    32
  0
VERTEX
  8
0
  5
1052B
 10
47.3299
 20
95.5075
 30
0.000000
  70
    32
  0
VERTEX
  8
0
  5
1052C
 10
47.3417
 20
95.5473
 30
0.000000
  70
    32
  0
VERTEX
  8
0
  5
1052D
 10
47.3531
 20
95.5872
 30
0.000000
  70
    32
  0
VERTEX
  8
0
  5
1052E
 10
47.3641
 20
95.6273
 30
0.000000
  70
    32
  0
VERTEX
  8
0
  5
1052F
 10
47.3747
 20
95.6675
 30
0.000000
  70
    32
  0
VERTEX
  8
0
  5
10530
 10
47.3849
 20
95.7079
 30
0.000000
  70
    32
  0
VERTEX
  8
0
  5
10531
 10
47.3946
 20
95.7484
 30
0.000000
  70
    32
  0
VERTEX
  8
0
  5
10532
 10
47.4039
 20
95.7890
 30
0.000000
  70
    32
  0
VERTEX
  8
0
  5
10533
 10
47.4128
 20
95.8297
 30
0.000000
  70
    32
  0
VERTEX
  8
0
  5
10534
 10
47.4213
 20
95.8706
 30
0.000000
  70
    32
  0
VERTEX
  8
0
  5
10535
 10
47.4293
 20
95.9116
 30
0.000000
  70
    32
  0
VERTEX
  8
0
  5
10536
 10
47.4369
 20
95.9527
 30
0.000000
  70
    32
  0
VERTEX
  8
0
  5
10537
 10
47.4441
 20
95.9939
 30
0.000000
  70
    32
  0
VERTEX
  8
0
  5
10538
 10
47.4508
 20
96.0352
 30
0.000000
  70
    32
  0
VERTEX
  8
0
  5
10539
 10
47.4572
 20
96.0766
 30
0.000000
  70
    32
  0
VERTEX
  8
0
  5
1053A
 10
47.4631
 20
96.1181
 30
0.000000
  70
    32
  0
VERTEX
  8
0
  5
1053B
 10
47.4685
 20
96.1596
 30
0.000000
  70
    32
  0
VERTEX
  8
0
  5
1053C
 10
47.4735
 20
96.2012
 30
0.000000
  70
    32
  0
VERTEX
  8
0
  5
1053D
 10
47.4781
 20
96.2429
 30
0.000000
  70
    32
  0
VERTEX
  8
0
  5
1053E
 10
47.4823
 20
96.2847
 30
0.000000
  70
    32
  0
VERTEX
  8
0
  5
1053F
 10
47.4860
 20
96.3265
 30
0.000000
  70
    32
  0
VERTEX
  8
0
  5
10540
 10
47.4893
 20
96.3683
 30
0.000000
  70
    32
  0
VERTEX
  8
0
  5
10541
 10
47.4921
 20
96.4102
 30
0.000000
  70
    32
  0
VERTEX
  8
0
  5
10542
 10
47.4945
 20
96.4522
 30
0.000000
  70
    32
  0
VERTEX
  8
0
  5
10543
 10
47.4965
 20
96.4941
 30
0.000000
  70
    32
  0
VERTEX
  8
0
  5
10544
 10
47.4980
 20
96.5361
 30
0.000000
  70
    32
  0
VERTEX
  8
0
  5
10545
 10
47.4991
 20
96.5781
 30
0.000000
  70
    32
  0
VERTEX
  8
0
  5
10546
 10
47.4998
 20
96.6201
 30
0.000000
  70
    32
  0
VERTEX
  8
0
  5
10547
 10
47.5000
 20
96.6622
 30
0.000000
  70
    32
  0
VERTEX
  8
0
  5
10548
 10
47.4998
 20
96.7042
 30
0.000000
  70
    32
  0
VERTEX
  8
0
  5
10549
 10
47.4991
 20
96.7462
 30
0.000000
  70
    32
  0
VERTEX
  8
0
  5
1054A
 10
47.4980
 20
96.7882
 30
0.000000
  70
    32
  0
VERTEX
  8
0
  5
1054B
 10
47.4965
 20
96.8302
 30
0.000000
  70
    32
  0
VERTEX
  8
0
  5
1054C
 10
47.4945
 20
96.8721
 30
0.000000
  70
    32
  0
VERTEX
  8
0
  5
1054D
 10
47.4921
 20
96.9141
 30
0.000000
  70
    32
  0
VERTEX
  8
0
  5
1054E
 10
47.4893
 20
96.9560
 30
0.000000
  70
    32
  0
VERTEX
  8
0
  5
1054F
 10
47.4860
 20
96.9978
 30
0.000000
  70
    32
  0
VERTEX
  8
0
  5
10550
 10
47.4823
 20
97.0396
 30
0.000000
  70
    32
  0
VERTEX
  8
0
  5
10551
 10
47.4781
 20
97.0814
 30
0.000000
  70
    32
  0
VERTEX
  8
0
  5
10552
 10
47.4735
 20
97.1231
 30
0.000000
  70
    32
  0
VERTEX
  8
0
  5
10553
 10
47.4685
 20
97.1647
 30
0.000000
  70
    32
  0
VERTEX
  8
0
  5
10554
 10
47.4631
 20
97.2062
 30
0.000000
  70
    32
  0
VERTEX
  8
0
  5
10555
 10
47.4572
 20
97.2477
 30
0.000000
  70
    32
  0
VERTEX
  8
0
  5
10556
 10
47.4508
 20
97.2891
 30
0.000000
  70
    32
  0
VERTEX
  8
0
  5
10557
 10
47.4441
 20
97.3304
 30
0.000000
  70
    32
  0
VERTEX
  8
0
  5
10558
 10
47.4369
 20
97.3716
 30
0.000000
  70
    32
  0
VERTEX
  8
0
  5
10559
 10
47.4293
 20
97.4127
 30
0.000000
  70
    32
  0
VERTEX
  8
0
  5
1055A
 10
47.4213
 20
97.4537
 30
0.000000
  70
    32
  0
VERTEX
  8
0
  5
1055B
 10
47.4128
 20
97.4946
 30
0.000000
  70
    32
  0
VERTEX
  8
0
  5
1055C
 10
47.4039
 20
97.5353
 30
0.000000
  70
    32
  0
VERTEX
  8
0
  5
1055D
 10
47.3946
 20
97.5759
 30
0.000000
  70
    32
  0
VERTEX
  8
0
  5
1055E
 10
47.3849
 20
97.6164
 30
0.000000
  70
    32
  0
VERTEX
  8
0
  5
1055F
 10
47.3747
 20
97.6568
 30
0.000000
  70
    32
  0
VERTEX
  8
0
  5
10560
 10
47.3641
 20
97.6970
 30
0.000000
  70
    32
  0
VERTEX
  8
0
  5
10561
 10
47.3531
 20
97.7371
 30
0.000000
  70
    32
  0
VERTEX
  8
0
  5
10562
 10
47.3417
 20
97.7770
 30
0.000000
  70
    32
  0
VERTEX
  8
0
  5
10563
 10
47.3299
 20
97.8168
 30
0.000000
  70
    32
  0
VERTEX
  8
0
  5
10564
 10
47.3176
 20
97.8563
 30
0.000000
  70
    32
  0
VERTEX
  8
0
  5
10565
 10
47.3050
 20
97.8958
 30
0.000000
  70
    32
  0
VERTEX
  8
0
  5
10566
 10
47.2919
 20
97.9350
 30
0.000000
  70
    32
  0
VERTEX
  8
0
  5
10567
 10
47.2785
 20
97.9741
 30
0.000000
  70
    32
  0
VERTEX
  8
0
  5
10568
 10
47.2646
 20
98.0129
 30
0.000000
  70
    32
  0
VERTEX
  8
0
  5
10569
 10
47.2503
 20
98.0516
 30
0.000000
  70
    32
  0
VERTEX
  8
0
  5
1056A
 10
47.2356
 20
98.0901
 30
0.000000
  70
    32
  0
VERTEX
  8
0
  5
1056B
 10
47.2205
 20
98.1283
 30
0.000000
  70
    32
  0
VERTEX
  8
0
  5
1056C
 10
47.2050
 20
98.1664
 30
0.000000
  70
    32
  0
VERTEX
  8
0
  5
1056D
 10
47.1892
 20
98.2042
 30
0.000000
  70
    32
  0
VERTEX
  8
0
  5
1056E
 10
47.1729
 20
98.2418
 30
0.000000
  70
    32
  0
VERTEX
  8
0
  5
1056F
 10
47.1562
 20
98.2792
 30
0.000000
  70
    32
  0
VERTEX
  8
0
  5
10570
 10
47.1392
 20
98.3164
 30
0.000000
  70
    32
  0
VERTEX
  8
0
  5
10571
 10
47.1217
 20
98.3533
 30
0.000000
  70
    32
  0
VERTEX
  8
0
  5
10572
 10
47.1039
 20
98.3899
 30
0.000000
  70
    32
  0
VERTEX
  8
0
  5
10573
 10
47.0857
 20
98.4264
 30
0.000000
  70
    32
  0
VERTEX
  8
0
  5
10574
 10
47.0671
 20
98.4625
 30
0.000000
  70
    32
  0
VERTEX
  8
0
  5
10575
 10
47.0482
 20
98.4984
 30
0.000000
  70
    32
  0
VERTEX
  8
0
  5
10576
 10
47.0288
 20
98.5341
 30
0.000000
  70
    32
  0
VERTEX
  8
0
  5
10577
 10
47.0092
 20
98.5694
 30
0.000000
  70
    32
  0
VERTEX
  8
0
  5
10578
 10
46.9891
 20
98.6045
 30
0.000000
  70
    32
  0
VERTEX
  8
0
  5
10579
 10
46.9687
 20
98.6394
 30
0.000000
  70
    32
  0
VERTEX
  8
0
  5
1057A
 10
46.9479
 20
98.6739
 30
0.000000
  70
    32
  0
VERTEX
  8
0
  5
1057B
 10
46.9267
 20
98.7081
 30
0.000000
  70
    32
  0
VERTEX
  8
0
  5
1057C
 10
46.9052
 20
98.7421
 30
0.000000
  70
    32
  0
VERTEX
  8
0
  5
1057D
 10
46.8833
 20
98.7757
 30
0.000000
  70
    32
  0
VERTEX
  8
0
  5
1057E
 10
46.8611
 20
98.8091
 30
0.000000
  70
    32
  0
VERTEX
  8
0
  5
1057F
 10
46.8386
 20
98.8421
 30
0.000000
  70
    32
  0
VERTEX
  8
0
  5
10580
 10
46.8157
 20
98.8748
 30
0.000000
  70
    32
  0
VERTEX
  8
0
  5
10581
 10
46.7925
 20
98.9072
 30
0.000000
  70
    32
  0
VERTEX
  8
0
  5
10582
 10
46.7689
 20
98.9393
 30
0.000000
  70
    32
  0
VERTEX
  8
0
  5
10583
 10
46.7450
 20
98.9710
 30
0.000000
  70
    32
  0
VERTEX
  8
0
  5
10584
 10
46.7207
 20
99.0025
 30
0.000000
  70
    32
  0
VERTEX
  8
0
  5
10585
 10
46.6962
 20
99.0335
 30
0.000000
  70
    32
  0
VERTEX
  8
0
  5
10586
 10
46.6713
 20
99.0643
 30
0.000000
  70
    32
  0
VERTEX
  8
0
  5
10587
 10
46.6461
 20
99.0947
 30
0.000000
  70
    32
  0
SEQEND
  8
0
  5
10588
  0
POLYLINE
  5
F984
  8
0
 10
67.401915269674518
 20
94.13235856414542
 30
0.0
 66
     1
 70
     8
  0
VERTEX
  8
0
  5
10589
 10
67.4019
 20
94.1324
 30
0.000000
  70
    32
  0
VERTEX
  8
0
  5
1058A
 10
67.4274
 20
94.1631
 30
0.000000
  70
    32
  0
VERTEX
  8
0
  5
1058B
 10
67.4525
 20
94.1942
 30
0.000000
  70
    32
  0
VERTEX
  8
0
  5
1058C
 10
67.4774
 20
94.2257
 30
0.000000
  70
    32
  0
VERTEX
  8
0
  5
1058D
 10
67.5019
 20
94.2577
 30
0.000000
  70
    32
  0
VERTEX
  8
0
  5
1058E
 10
67.5261
 20
94.2899
 30
0.000000
  70
    32
  0
VERTEX
  8
0
  5
1058F
 10
67.5499
 20
94.3226
 30
0.000000
  70
    32
  0
VERTEX
  8
0
  5
10590
 10
67.5735
 20
94.3557
 30
0.000000
  70
    32
  0
VERTEX
  8
0
  5
10591
 10
67.5967
 20
94.3891
 30
0.000000
  70
    32
  0
VERTEX
  8
0
  5
10592
 10
67.6195
 20
94.4228
 30
0.000000
  70
    32
  0
VERTEX
  8
0
  5
10593
 10
67.6420
 20
94.4570
 30
0.000000
  70
    32
  0
VERTEX
  8
0
  5
10594
 10
67.6642
 20
94.4915
 30
0.000000
  70
    32
  0
VERTEX
  8
0
  5
10595
 10
67.6860
 20
94.5263
 30
0.000000
  70
    32
  0
VERTEX
  8
0
  5
10596
 10
67.7074
 20
94.5615
 30
0.000000
  70
    32
  0
VERTEX
  8
0
  5
10597
 10
67.7285
 20
94.5970
 30
0.000000
  70
    32
  0
VERTEX
  8
0
  5
10598
 10
67.7493
 20
94.6328
 30
0.000000
  70
    32
  0
VERTEX
  8
0
  5
10599
 10
67.7697
 20
94.6689
 30
0.000000
  70
    32
  0
VERTEX
  8
0
  5
1059A
 10
67.7897
 20
94.7054
 30
0.000000
  70
    32
  0
VERTEX
  8
0
  5
1059B
 10
67.8093
 20
94.7422
 30
0.000000
  70
    32
  0
VERTEX
  8
0
  5
1059C
 10
67.8285
 20
94.7793
 30
0.000000
  70
    32
  0
VERTEX
  8
0
  5
1059D
 10
67.8474
 20
94.8167
 30
0.000000
  70
    32
  0
VERTEX
  8
0
  5
1059E
 10
67.8659
 20
94.8544
 30
0.000000
  70
    32
  0
VERTEX
  8
0
  5
1059F
 10
67.8840
 20
94.8923
 30
0.000000
  70
    32
  0
VERTEX
  8
0
  5
105A0
 10
67.9018
 20
94.9306
 30
0.000000
  70
    32
  0
VERTEX
  8
0
  5
105A1
 10
67.9191
 20
94.9691
 30
0.000000
  70
    32
  0
VERTEX
  8
0
  5
105A2
 10
67.9361
 20
95.0079
 30
0.000000
  70
    32
  0
VERTEX
  8
0
  5
105A3
 10
67.9526
 20
95.0470
 30
0.000000
  70
    32
  0
VERTEX
  8
0
  5
105A4
 10
67.9688
 20
95.0863
 30
0.000000
  70
    32
  0
VERTEX
  8
0
  5
105A5
 10
67.9845
 20
95.1259
 30
0.000000
  70
    32
  0
VERTEX
  8
0
  5
105A6
 10
67.9999
 20
95.1657
 30
0.000000
  70
    32
  0
VERTEX
  8
0
  5
105A7
 10
68.0149
 20
95.2058
 30
0.000000
  70
    32
  0
VERTEX
  8
0
  5
105A8
 10
68.0294
 20
95.2460
 30
0.000000
  70
    32
  0
VERTEX
  8
0
  5
105A9
 10
68.0435
 20
95.2866
 30
0.000000
  70
    32
  0
VERTEX
  8
0
  5
105AA
 10
68.0573
 20
95.3273
 30
0.000000
  70
    32
  0
VERTEX
  8
0
  5
105AB
 10
68.0706
 20
95.3682
 30
0.000000
  70
    32
  0
VERTEX
  8
0
  5
105AC
 10
68.0835
 20
95.4094
 30
0.000000
  70
    32
  0
VERTEX
  8
0
  5
105AD
 10
68.0960
 20
95.4507
 30
0.000000
  70
    32
  0
VERTEX
  8
0
  5
105AE
 10
68.1080
 20
95.4923
 30
0.000000
  70
    32
  0
VERTEX
  8
0
  5
105AF
 10
68.1197
 20
95.5340
 30
0.000000
  70
    32
  0
VERTEX
  8
0
  5
105B0
 10
68.1309
 20
95.5759
 30
0.000000
  70
    32
  0
VERTEX
  8
0
  5
105B1
 10
68.1417
 20
95.6180
 30
0.000000
  70
    32
  0
VERTEX
  8
0
  5
105B2
 10
68.1520
 20
95.6603
 30
0.000000
  70
    32
  0
VERTEX
  8
0
  5
105B3
 10
68.1620
 20
95.7027
 30
0.000000
  70
    32
  0
VERTEX
  8
0
  5
105B4
 10
68.1715
 20
95.7452
 30
0.000000
  70
    32
  0
VERTEX
  8
0
  5
105B5
 10
68.1805
 20
95.7879
 30
0.000000
  70
    32
  0
VERTEX
  8
0
  5
105B6
 10
68.1892
 20
95.8308
 30
0.000000
  70
    32
  0
VERTEX
  8
0
  5
105B7
 10
68.1974
 20
95.8738
 30
0.000000
  70
    32
  0
VERTEX
  8
0
  5
105B8
 10
68.2051
 20
95.9169
 30
0.000000
  70
    32
  0
VERTEX
  8
0
  5
105B9
 10
68.2125
 20
95.9601
 30
0.000000
  70
    32
  0
VERTEX
  8
0
  5
105BA
 10
68.2194
 20
96.0034
 30
0.000000
  70
    32
  0
VERTEX
  8
0
  5
105BB
 10
68.2258
 20
96.0469
 30
0.000000
  70
    32
  0
VERTEX
  8
0
  5
105BC
 10
68.2318
 20
96.0904
 30
0.000000
  70
    32
  0
VERTEX
  8
0
  5
105BD
 10
68.2374
 20
96.1340
 30
0.000000
  70
    32
  0
VERTEX
  8
0
  5
105BE
 10
68.2425
 20
96.1777
 30
0.000000
  70
    32
  0
VERTEX
  8
0
  5
105BF
 10
68.2472
 20
96.2215
 30
0.000000
  70
    32
  0
VERTEX
  8
0
  5
105C0
 10
68.2514
 20
96.2654
 30
0.000000
  70
    32
  0
VERTEX
  8
0
  5
105C1
 10
68.2552
 20
96.3093
 30
0.000000
  70
    32
  0
VERTEX
  8
0
  5
105C2
 10
68.2586
 20
96.3533
 30
0.000000
  70
    32
  0
VERTEX
  8
0
  5
105C3
 10
68.2615
 20
96.3973
 30
0.000000
  70
    32
  0
VERTEX
  8
0
  5
105C4
 10
68.2640
 20
96.4414
 30
0.000000
  70
    32
  0
VERTEX
  8
0
  5
105C5
 10
68.2660
 20
96.4855
 30
0.000000
  70
    32
  0
VERTEX
  8
0
  5
105C6
 10
68.2675
 20
96.5297
 30
0.000000
  70
    32
  0
VERTEX
  8
0
  5
105C7
 10
68.2687
 20
96.5738
 30
0.000000
  70
    32
  0
VERTEX
  8
0
  5
105C8
 10
68.2693
 20
96.6180
 30
0.000000
  70
    32
  0
VERTEX
  8
0
  5
105C9
 10
68.2695
 20
96.6622
 30
0.000000
  70
    32
  0
VERTEX
  8
0
  5
105CA
 10
68.2693
 20
96.7063
 30
0.000000
  70
    32
  0
VERTEX
  8
0
  5
105CB
 10
68.2687
 20
96.7505
 30
0.000000
  70
    32
  0
VERTEX
  8
0
  5
105CC
 10
68.2675
 20
96.7947
 30
0.000000
  70
    32
  0
VERTEX
  8
0
  5
105CD
 10
68.2660
 20
96.8388
 30
0.000000
  70
    32
  0
VERTEX
  8
0
  5
105CE
 10
68.2640
 20
96.8829
 30
0.000000
  70
    32
  0
VERTEX
  8
0
  5
105CF
 10
68.2615
 20
96.9270
 30
0.000000
  70
    32
  0
VERTEX
  8
0
  5
105D0
 10
68.2586
 20
96.9710
 30
0.000000
  70
    32
  0
VERTEX
  8
0
  5
105D1
 10
68.2552
 20
97.0150
 30
0.000000
  70
    32
  0
VERTEX
  8
0
  5
105D2
 10
68.2514
 20
97.0589
 30
0.000000
  70
    32
  0
VERTEX
  8
0
  5
105D3
 10
68.2472
 20
97.1028
 30
0.000000
  70
    32
  0
VERTEX
  8
0
  5
105D4
 10
68.2425
 20
97.1466
 30
0.000000
  70
    32
  0
VERTEX
  8
0
  5
105D5
 10
68.2374
 20
97.1903
 30
0.000000
  70
    32
  0
VERTEX
  8
0
  5
105D6
 10
68.2318
 20
97.2339
 30
0.000000
  70
    32
  0
VERTEX
  8
0
  5
105D7
 10
68.2258
 20
97.2774
 30
0.000000
  70
    32
  0
VERTEX
  8
0
  5
105D8
 10
68.2194
 20
97.3209
 30
0.000000
  70
    32
  0
VERTEX
  8
0
  5
105D9
 10
68.2125
 20
97.3642
 30
0.000000
  70
    32
  0
VERTEX
  8
0
  5
105DA
 10
68.2051
 20
97.4074
 30
0.000000
  70
    32
  0
VERTEX
  8
0
  5
105DB
 10
68.1974
 20
97.4506
 30
0.000000
  70
    32
  0
VERTEX
  8
0
  5
105DC
 10
68.1892
 20
97.4935
 30
0.000000
  70
    32
  0
VERTEX
  8
0
  5
105DD
 10
68.1805
 20
97.5364
 30
0.000000
  70
    32
  0
VERTEX
  8
0
  5
105DE
 10
68.1715
 20
97.5791
 30
0.000000
  70
    32
  0
VERTEX
  8
0
  5
105DF
 10
68.1620
 20
97.6216
 30
0.000000
  70
    32
  0
VERTEX
  8
0
  5
105E0
 10
68.1520
 20
97.6641
 30
0.000000
  70
    32
  0
VERTEX
  8
0
  5
105E1
 10
68.1417
 20
97.7063
 30
0.000000
  70
    32
  0
VERTEX
  8
0
  5
105E2
 10
68.1309
 20
97.7484
 30
0.000000
  70
    32
  0
VERTEX
  8
0
  5
105E3
 10
68.1197
 20
97.7903
 30
0.000000
  70
    32
  0
VERTEX
  8
0
  5
105E4
 10
68.1080
 20
97.8320
 30
0.000000
  70
    32
  0
VERTEX
  8
0
  5
105E5
 10
68.0960
 20
97.8736
 30
0.000000
  70
    32
  0
VERTEX
  8
0
  5
105E6
 10
68.0835
 20
97.9149
 30
0.000000
  70
    32
  0
VERTEX
  8
0
  5
105E7
 10
68.0706
 20
97.9561
 30
0.000000
  70
    32
  0
VERTEX
  8
0
  5
105E8
 10
68.0573
 20
97.9970
 30
0.000000
  70
    32
  0
VERTEX
  8
0
  5
105E9
 10
68.0435
 20
98.0378
 30
0.000000
  70
    32
  0
VERTEX
  8
0
  5
105EA
 10
68.0294
 20
98.0783
 30
0.000000
  70
    32
  0
VERTEX
  8
0
  5
105EB
 10
68.0149
 20
98.1186
 30
0.000000
  70
    32
  0
VERTEX
  8
0
  5
105EC
 10
67.9999
 20
98.1586
 30
0.000000
  70
    32
  0
VERTEX
  8
0
  5
105ED
 10
67.9845
 20
98.1984
 30
0.000000
  70
    32
  0
VERTEX
  8
0
  5
105EE
 10
67.9688
 20
98.2380
 30
0.000000
  70
    32
  0
VERTEX
  8
0
  5
105EF
 10
67.9526
 20
98.2773
 30
0.000000
  70
    32
  0
VERTEX
  8
0
  5
105F0
 10
67.9361
 20
98.3164
 30
0.000000
  70
    32
  0
VERTEX
  8
0
  5
105F1
 10
67.9191
 20
98.3552
 30
0.000000
  70
    32
  0
VERTEX
  8
0
  5
105F2
 10
67.9018
 20
98.3937
 30
0.000000
  70
    32
  0
VERTEX
  8
0
  5
105F3
 10
67.8840
 20
98.4320
 30
0.000000
  70
    32
  0
VERTEX
  8
0
  5
105F4
 10
67.8659
 20
98.4699
 30
0.000000
  70
    32
  0
VERTEX
  8
0
  5
105F5
 10
67.8474
 20
98.5076
 30
0.000000
  70
    32
  0
VERTEX
  8
0
  5
105F6
 10
67.8285
 20
98.5450
 30
0.000000
  70
    32
  0
VERTEX
  8
0
  5
105F7
 10
67.8093
 20
98.5821
 30
0.000000
  70
    32
  0
VERTEX
  8
0
  5
105F8
 10
67.7897
 20
98.6189
 30
0.000000
  70
    32
  0
VERTEX
  8
0
  5
105F9
 10
67.7696
 20
98.6554
 30
0.000000
  70
    32
  0
VERTEX
  8
0
  5
105FA
 10
67.7493
 20
98.6915
 30
0.000000
  70
    32
  0
VERTEX
  8
0
  5
105FB
 10
67.7285
 20
98.7274
 30
0.000000
  70
    32
  0
VERTEX
  8
0
  5
105FC
 10
67.7074
 20
98.7629
 30
0.000000
  70
    32
  0
VERTEX
  8
0
  5
105FD
 10
67.6860
 20
98.7980
 30
0.000000
  70
    32
  0
VERTEX
  8
0
  5
105FE
 10
67.6642
 20
98.8329
 30
0.000000
  70
    32
  0
VERTEX
  8
0
  5
105FF
 10
67.6420
 20
98.8673
 30
0.000000
  70
    32
  0
VERTEX
  8
0
  5
10600
 10
67.6195
 20
98.9015
 30
0.000000
  70
    32
  0
VERTEX
  8
0
  5
10601
 10
67.5967
 20
98.9352
 30
0.000000
  70
    32
  0
VERTEX
  8
0
  5
10602
 10
67.5735
 20
98.9686
 30
0.000000
  70
    32
  0
VERTEX
  8
0
  5
10603
 10
67.5499
 20
99.0017
 30
0.000000
  70
    32
  0
VERTEX
  8
0
  5
10604
 10
67.5261
 20
99.0344
 30
0.000000
  70
    32
  0
VERTEX
  8
0
  5
10605
 10
67.5019
 20
99.0667
 30
0.000000
  70
    32
  0
VERTEX
  8
0
  5
10606
 10
67.4774
 20
99.0986
 30
0.000000
  70
    32
  0
VERTEX
  8
0
  5
10607
 10
67.4525
 20
99.1301
 30
0.000000
  70
    32
  0
VERTEX
  8
0
  5
10608
 10
67.4274
 20
99.1612
 30
0.000000
  70
    32
  0
VERTEX
  8
0
  5
10609
 10
67.4019
 20
99.1920
 30
0.000000
  70
    32
  0
SEQEND
  8
0
  5
1060A
  0
POLYLINE
  5
F985
  8
0
 10
59.353891105779148
 20
99.09466089619761
 30
0.0
 66
     1
 70
     8
  0
VERTEX
  8
0
  5
1060B
 10
59.3539
 20
99.0947
 30
0.000000
  70
    32
  0
VERTEX
  8
0
  5
1060C
 10
59.3287
 20
99.0643
 30
0.000000
  70
    32
  0
VERTEX
  8
0
  5
1060D
 10
59.3038
 20
99.0335
 30
0.000000
  70
    32
  0
VERTEX
  8
0
  5
1060E
 10
59.2793
 20
99.0025
 30
0.000000
  70
    32
  0
VERTEX
  8
0
  5
1060F
 10
59.2550
 20
98.9710
 30
0.000000
  70
    32
  0
VERTEX
  8
0
  5
10610
 10
59.2311
 20
98.9393
 30
0.000000
  70
    32
  0
VERTEX
  8
0
  5
10611
 10
59.2075
 20
98.9072
 30
0.000000
  70
    32
  0
VERTEX
  8
0
  5
10612
 10
59.1843
 20
98.8748
 30
0.000000
  70
    32
  0
VERTEX
  8
0
  5
10613
 10
59.1614
 20
98.8421
 30
0.000000
  70
    32
  0
VERTEX
  8
0
  5
10614
 10
59.1389
 20
98.8091
 30
0.000000
  70
    32
  0
VERTEX
  8
0
  5
10615
 10
59.1166
 20
98.7757
 30
0.000000
  70
    32
  0
VERTEX
  8
0
  5
10616
 10
59.0948
 20
98.7421
 30
0.000000
  70
    32
  0
VERTEX
  8
0
  5
10617
 10
59.0733
 20
98.7081
 30
0.000000
  70
    32
  0
VERTEX
  8
0
  5
10618
 10
59.0521
 20
98.6739
 30
0.000000
  70
    32
  0
VERTEX
  8
0
  5
10619
 10
59.0313
 20
98.6394
 30
0.000000
  70
    32
  0
VERTEX
  8
0
  5
1061A
 10
59.0109
 20
98.6045
 30
0.000000
  70
    32
  0
VERTEX
  8
0
  5
1061B
 10
58.9908
 20
98.5694
 30
0.000000
  70
    32
  0
VERTEX
  8
0
  5
1061C
 10
58.9711
 20
98.5341
 30
0.000000
  70
    32
  0
VERTEX
  8
0
  5
1061D
 10
58.9518
 20
98.4984
 30
0.000000
  70
    32
  0
VERTEX
  8
0
  5
1061E
 10
58.9329
 20
98.4625
 30
0.000000
  70
    32
  0
VERTEX
  8
0
  5
1061F
 10
58.9143
 20
98.4264
 30
0.000000
  70
    32
  0
VERTEX
  8
0
  5
10620
 10
58.8961
 20
98.3899
 30
0.000000
  70
    32
  0
VERTEX
  8
0
  5
10621
 10
58.8783
 20
98.3533
 30
0.000000
  70
    32
  0
VERTEX
  8
0
  5
10622
 10
58.8608
 20
98.3164
 30
0.000000
  70
    32
  0
VERTEX
  8
0
  5
10623
 10
58.8438
 20
98.2792
 30
0.000000
  70
    32
  0
VERTEX
  8
0
  5
10624
 10
58.8271
 20
98.2418
 30
0.000000
  70
    32
  0
VERTEX
  8
0
  5
10625
 10
58.8108
 20
98.2042
 30
0.000000
  70
    32
  0
VERTEX
  8
0
  5
10626
 10
58.7950
 20
98.1664
 30
0.000000
  70
    32
  0
VERTEX
  8
0
  5
10627
 10
58.7795
 20
98.1283
 30
0.000000
  70
    32
  0
VERTEX
  8
0
  5
10628
 10
58.7644
 20
98.0901
 30
0.000000
  70
    32
  0
VERTEX
  8
0
  5
10629
 10
58.7497
 20
98.0516
 30
0.000000
  70
    32
  0
VERTEX
  8
0
  5
1062A
 10
58.7354
 20
98.0129
 30
0.000000
  70
    32
  0
VERTEX
  8
0
  5
1062B
 10
58.7215
 20
97.9741
 30
0.000000
  70
    32
  0
VERTEX
  8
0
  5
1062C
 10
58.7081
 20
97.9350
 30
0.000000
  70
    32
  0
VERTEX
  8
0
  5
1062D
 10
58.6950
 20
97.8958
 30
0.000000
  70
    32
  0
VERTEX
  8
0
  5
1062E
 10
58.6824
 20
97.8563
 30
0.000000
  70
    32
  0
VERTEX
  8
0
  5
1062F
 10
58.6701
 20
97.8168
 30
0.000000
  70
    32
  0
VERTEX
  8
0
  5
10630
 10
58.6583
 20
97.7770
 30
0.000000
  70
    32
  0
VERTEX
  8
0
  5
10631
 10
58.6469
 20
97.7371
 30
0.000000
  70
    32
  0
VERTEX
  8
0
  5
10632
 10
58.6359
 20
97.6970
 30
0.000000
  70
    32
  0
VERTEX
  8
0
  5
10633
 10
58.6253
 20
97.6568
 30
0.000000
  70
    32
  0
VERTEX
  8
0
  5
10634
 10
58.6151
 20
97.6164
 30
0.000000
  70
    32
  0
VERTEX
  8
0
  5
10635
 10
58.6054
 20
97.5759
 30
0.000000
  70
    32
  0
VERTEX
  8
0
  5
10636
 10
58.5961
 20
97.5353
 30
0.000000
  70
    32
  0
VERTEX
  8
0
  5
10637
 10
58.5872
 20
97.4946
 30
0.000000
  70
    32
  0
VERTEX
  8
0
  5
10638
 10
58.5787
 20
97.4537
 30
0.000000
  70
    32
  0
VERTEX
  8
0
  5
10639
 10
58.5707
 20
97.4127
 30
0.000000
  70
    32
  0
VERTEX
  8
0
  5
1063A
 10
58.5631
 20
97.3716
 30
0.000000
  70
    32
  0
VERTEX
  8
0
  5
1063B
 10
58.5559
 20
97.3304
 30
0.000000
  70
    32
  0
VERTEX
  8
0
  5
1063C
 10
58.5491
 20
97.2891
 30
0.000000
  70
    32
  0
VERTEX
  8
0
  5
1063D
 10
58.5428
 20
97.2477
 30
0.000000
  70
    32
  0
VERTEX
  8
0
  5
1063E
 10
58.5369
 20
97.2062
 30
0.000000
  70
    32
  0
VERTEX
  8
0
  5
1063F
 10
58.5315
 20
97.1647
 30
0.000000
  70
    32
  0
VERTEX
  8
0
  5
10640
 10
58.5265
 20
97.1231
 30
0.000000
  70
    32
  0
VERTEX
  8
0
  5
10641
 10
58.5219
 20
97.0814
 30
0.000000
  70
    32
  0
VERTEX
  8
0
  5
10642
 10
58.5177
 20
97.0396
 30
0.000000
  70
    32
  0
VERTEX
  8
0
  5
10643
 10
58.5140
 20
96.9978
 30
0.000000
  70
    32
  0
VERTEX
  8
0
  5
10644
 10
58.5107
 20
96.9560
 30
0.000000
  70
    32
  0
VERTEX
  8
0
  5
10645
 10
58.5079
 20
96.9141
 30
0.000000
  70
    32
  0
VERTEX
  8
0
  5
10646
 10
58.5055
 20
96.8721
 30
0.000000
  70
    32
  0
VERTEX
  8
0
  5
10647
 10
58.5035
 20
96.8302
 30
0.000000
  70
    32
  0
VERTEX
  8
0
  5
10648
 10
58.5020
 20
96.7882
 30
0.000000
  70
    32
  0
VERTEX
  8
0
  5
10649
 10
58.5009
 20
96.7462
 30
0.000000
  70
    32
  0
VERTEX
  8
0
  5
1064A
 10
58.5002
 20
96.7042
 30
0.000000
  70
    32
  0
VERTEX
  8
0
  5
1064B
 10
58.5000
 20
96.6622
 30
0.000000
  70
    32
  0
VERTEX
  8
0
  5
1064C
 10
58.5002
 20
96.6201
 30
0.000000
  70
    32
  0
VERTEX
  8
0
  5
1064D
 10
58.5009
 20
96.5781
 30
0.000000
  70
    32
  0
VERTEX
  8
0
  5
1064E
 10
58.5020
 20
96.5361
 30
0.000000
  70
    32
  0
VERTEX
  8
0
  5
1064F
 10
58.5035
 20
96.4941
 30
0.000000
  70
    32
  0
VERTEX
  8
0
  5
10650
 10
58.5055
 20
96.4522
 30
0.000000
  70
    32
  0
VERTEX
  8
0
  5
10651
 10
58.5079
 20
96.4102
 30
0.000000
  70
    32
  0
VERTEX
  8
0
  5
10652
 10
58.5107
 20
96.3683
 30
0.000000
  70
    32
  0
VERTEX
  8
0
  5
10653
 10
58.5140
 20
96.3265
 30
0.000000
  70
    32
  0
VERTEX
  8
0
  5
10654
 10
58.5177
 20
96.2847
 30
0.000000
  70
    32
  0
VERTEX
  8
0
  5
10655
 10
58.5219
 20
96.2429
 30
0.000000
  70
    32
  0
VERTEX
  8
0
  5
10656
 10
58.5265
 20
96.2012
 30
0.000000
  70
    32
  0
VERTEX
  8
0
  5
10657
 10
58.5315
 20
96.1596
 30
0.000000
  70
    32
  0
VERTEX
  8
0
  5
10658
 10
58.5369
 20
96.1181
 30
0.000000
  70
    32
  0
VERTEX
  8
0
  5
10659
 10
58.5428
 20
96.0766
 30
0.000000
  70
    32
  0
VERTEX
  8
0
  5
1065A
 10
58.5491
 20
96.0352
 30
0.000000
  70
    32
  0
VERTEX
  8
0
  5
1065B
 10
58.5559
 20
95.9939
 30
0.000000
  70
    32
  0
VERTEX
  8
0
  5
1065C
 10
58.5631
 20
95.9527
 30
0.000000
  70
    32
  0
VERTEX
  8
0
  5
1065D
 10
58.5707
 20
95.9116
 30
0.000000
  70
    32
  0
VERTEX
  8
0
  5
1065E
 10
58.5787
 20
95.8706
 30
0.000000
  70
    32
  0
VERTEX
  8
0
  5
1065F
 10
58.5872
 20
95.8297
 30
0.000000
  70
    32
  0
VERTEX
  8
0
  5
10660
 10
58.5961
 20
95.7890
 30
0.000000
  70
    32
  0
VERTEX
  8
0
  5
10661
 10
58.6054
 20
95.7484
 30
0.000000
  70
    32
  0
VERTEX
  8
0
  5
10662
 10
58.6151
 20
95.7079
 30
0.000000
  70
    32
  0
VERTEX
  8
0
  5
10663
 10
58.6253
 20
95.6675
 30
0.000000
  70
    32
  0
VERTEX
  8
0
  5
10664
 10
58.6359
 20
95.6273
 30
0.000000
  70
    32
  0
VERTEX
  8
0
  5
10665
 10
58.6469
 20
95.5872
 30
0.000000
  70
    32
  0
VERTEX
  8
0
  5
10666
 10
58.6583
 20
95.5473
 30
0.000000
  70
    32
  0
VERTEX
  8
0
  5
10667
 10
58.6701
 20
95.5075
 30
0.000000
  70
    32
  0
VERTEX
  8
0
  5
10668
 10
58.6824
 20
95.4680
 30
0.000000
  70
    32
  0
VERTEX
  8
0
  5
10669
 10
58.6950
 20
95.4285
 30
0.000000
  70
    32
  0
VERTEX
  8
0
  5
1066A
 10
58.7081
 20
95.3893
 30
0.000000
  70
    32
  0
VERTEX
  8
0
  5
1066B
 10
58.7215
 20
95.3503
 30
0.000000
  70
    32
  0
VERTEX
  8
0
  5
1066C
 10
58.7354
 20
95.3114
 30
0.000000
  70
    32
  0
VERTEX
  8
0
  5
1066D
 10
58.7497
 20
95.2727
 30
0.000000
  70
    32
  0
VERTEX
  8
0
  5
1066E
 10
58.7644
 20
95.2343
 30
0.000000
  70
    32
  0
VERTEX
  8
0
  5
1066F
 10
58.7795
 20
95.1960
 30
0.000000
  70
    32
  0
VERTEX
  8
0
  5
10670
 10
58.7950
 20
95.1579
 30
0.000000
  70
    32
  0
VERTEX
  8
0
  5
10671
 10
58.8108
 20
95.1201
 30
0.000000
  70
    32
  0
VERTEX
  8
0
  5
10672
 10
58.8271
 20
95.0825
 30
0.000000
  70
    32
  0
VERTEX
  8
0
  5
10673
 10
58.8438
 20
95.0451
 30
0.000000
  70
    32
  0
VERTEX
  8
0
  5
10674
 10
58.8608
 20
95.0080
 30
0.000000
  70
    32
  0
VERTEX
  8
0
  5
10675
 10
58.8783
 20
94.9710
 30
0.000000
  70
    32
  0
VERTEX
  8
0
  5
10676
 10
58.8961
 20
94.9344
 30
0.000000
  70
    32
  0
VERTEX
  8
0
  5
10677
 10
58.9143
 20
94.8980
 30
0.000000
  70
    32
  0
VERTEX
  8
0
  5
10678
 10
58.9329
 20
94.8618
 30
0.000000
  70
    32
  0
VERTEX
  8
0
  5
10679
 10
58.9518
 20
94.8259
 30
0.000000
  70
    32
  0
VERTEX
  8
0
  5
1067A
 10
58.9711
 20
94.7902
 30
0.000000
  70
    32
  0
VERTEX
  8
0
  5
1067B
 10
58.9908
 20
94.7549
 30
0.000000
  70
    32
  0
VERTEX
  8
0
  5
1067C
 10
59.0109
 20
94.7198
 30
0.000000
  70
    32
  0
VERTEX
  8
0
  5
1067D
 10
59.0313
 20
94.6850
 30
0.000000
  70
    32
  0
VERTEX
  8
0
  5
1067E
 10
59.0521
 20
94.6504
 30
0.000000
  70
    32
  0
VERTEX
  8
0
  5
1067F
 10
59.0733
 20
94.6162
 30
0.000000
  70
    32
  0
VERTEX
  8
0
  5
10680
 10
59.0948
 20
94.5822
 30
0.000000
  70
    32
  0
VERTEX
  8
0
  5
10681
 10
59.1166
 20
94.5486
 30
0.000000
  70
    32
  0
VERTEX
  8
0
  5
10682
 10
59.1389
 20
94.5152
 30
0.000000
  70
    32
  0
VERTEX
  8
0
  5
10683
 10
59.1614
 20
94.4822
 30
0.000000
  70
    32
  0
VERTEX
  8
0
  5
10684
 10
59.1843
 20
94.4495
 30
0.000000
  70
    32
  0
VERTEX
  8
0
  5
10685
 10
59.2075
 20
94.4171
 30
0.000000
  70
    32
  0
VERTEX
  8
0
  5
10686
 10
59.2311
 20
94.3850
 30
0.000000
  70
    32
  0
VERTEX
  8
0
  5
10687
 10
59.2550
 20
94.3533
 30
0.000000
  70
    32
  0
VERTEX
  8
0
  5
10688
 10
59.2793
 20
94.3219
 30
0.000000
  70
    32
  0
VERTEX
  8
0
  5
10689
 10
59.3038
 20
94.2908
 30
0.000000
  70
    32
  0
VERTEX
  8
0
  5
1068A
 10
59.3287
 20
94.2600
 30
0.000000
  70
    32
  0
VERTEX
  8
0
  5
1068B
 10
59.3539
 20
94.2296
 30
0.000000
  70
    32
  0
SEQEND
  8
0
  5
1068C
  0
POLYLINE
  5
F986
  8
0
 10
38.598086961523421
 20
99.191952186233053
 30
0.0
 66
     1
 70
     8
  0
VERTEX
  8
0
  5
1068D
 10
38.5981
 20
99.1920
 30
0.000000
  70
    32
  0
VERTEX
  8
0
  5
1068E
 10
38.5726
 20
99.1612
 30
0.000000
  70
    32
  0
VERTEX
  8
0
  5
1068F
 10
38.5475
 20
99.1301
 30
0.000000
  70
    32
  0
VERTEX
  8
0
  5
10690
 10
38.5226
 20
99.0986
 30
0.000000
  70
    32
  0
VERTEX
  8
0
  5
10691
 10
38.4981
 20
99.0667
 30
0.000000
  70
    32
  0
VERTEX
  8
0
  5
10692
 10
38.4739
 20
99.0344
 30
0.000000
  70
    32
  0
VERTEX
  8
0
  5
10693
 10
38.4501
 20
99.0017
 30
0.000000
  70
    32
  0
VERTEX
  8
0
  5
10694
 10
38.4265
 20
98.9686
 30
0.000000
  70
    32
  0
VERTEX
  8
0
  5
10695
 10
38.4033
 20
98.9352
 30
0.000000
  70
    32
  0
VERTEX
  8
0
  5
10696
 10
38.3805
 20
98.9015
 30
0.000000
  70
    32
  0
VERTEX
  8
0
  5
10697
 10
38.3580
 20
98.8673
 30
0.000000
  70
    32
  0
VERTEX
  8
0
  5
10698
 10
38.3358
 20
98.8329
 30
0.000000
  70
    32
  0
VERTEX
  8
0
  5
10699
 10
38.3140
 20
98.7980
 30
0.000000
  70
    32
  0
VERTEX
  8
0
  5
1069A
 10
38.2926
 20
98.7629
 30
0.000000
  70
    32
  0
VERTEX
  8
0
  5
1069B
 10
38.2715
 20
98.7274
 30
0.000000
  70
    32
  0
VERTEX
  8
0
  5
1069C
 10
38.2507
 20
98.6915
 30
0.000000
  70
    32
  0
VERTEX
  8
0
  5
1069D
 10
38.2304
 20
98.6554
 30
0.000000
  70
    32
  0
VERTEX
  8
0
  5
1069E
 10
38.2103
 20
98.6189
 30
0.000000
  70
    32
  0
VERTEX
  8
0
  5
1069F
 10
38.1907
 20
98.5821
 30
0.000000
  70
    32
  0
VERTEX
  8
0
  5
106A0
 10
38.1715
 20
98.5450
 30
0.000000
  70
    32
  0
VERTEX
  8
0
  5
106A1
 10
38.1526
 20
98.5076
 30
0.000000
  70
    32
  0
VERTEX
  8
0
  5
106A2
 10
38.1341
 20
98.4699
 30
0.000000
  70
    32
  0
VERTEX
  8
0
  5
106A3
 10
38.1160
 20
98.4320
 30
0.000000
  70
    32
  0
VERTEX
  8
0
  5
106A4
 10
38.0982
 20
98.3937
 30
0.000000
  70
    32
  0
VERTEX
  8
0
  5
106A5
 10
38.0809
 20
98.3552
 30
0.000000
  70
    32
  0
VERTEX
  8
0
  5
106A6
 10
38.0639
 20
98.3164
 30
0.000000
  70
    32
  0
VERTEX
  8
0
  5
106A7
 10
38.0474
 20
98.2773
 30
0.000000
  70
    32
  0
VERTEX
  8
0
  5
106A8
 10
38.0312
 20
98.2380
 30
0.000000
  70
    32
  0
VERTEX
  8
0
  5
106A9
 10
38.0155
 20
98.1984
 30
0.000000
  70
    32
  0
VERTEX
  8
0
  5
106AA
 10
38.0001
 20
98.1586
 30
0.000000
  70
    32
  0
VERTEX
  8
0
  5
106AB
 10
37.9851
 20
98.1186
 30
0.000000
  70
    32
  0
VERTEX
  8
0
  5
106AC
 10
37.9706
 20
98.0783
 30
0.000000
  70
    32
  0
VERTEX
  8
0
  5
106AD
 10
37.9565
 20
98.0378
 30
0.000000
  70
    32
  0
VERTEX
  8
0
  5
106AE
 10
37.9427
 20
97.9970
 30
0.000000
  70
    32
  0
VERTEX
  8
0
  5
106AF
 10
37.9294
 20
97.9561
 30
0.000000
  70
    32
  0
VERTEX
  8
0
  5
106B0
 10
37.9165
 20
97.9149
 30
0.000000
  70
    32
  0
VERTEX
  8
0
  5
106B1
 10
37.9040
 20
97.8736
 30
0.000000
  70
    32
  0
VERTEX
  8
0
  5
106B2
 10
37.8920
 20
97.8320
 30
0.000000
  70
    32
  0
VERTEX
  8
0
  5
106B3
 10
37.8803
 20
97.7903
 30
0.000000
  70
    32
  0
VERTEX
  8
0
  5
106B4
 10
37.8691
 20
97.7484
 30
0.000000
  70
    32
  0
VERTEX
  8
0
  5
106B5
 10
37.8583
 20
97.7063
 30
0.000000
  70
    32
  0
VERTEX
  8
0
  5
106B6
 10
37.8480
 20
97.6641
 30
0.000000
  70
    32
  0
VERTEX
  8
0
  5
106B7
 10
37.8380
 20
97.6216
 30
0.000000
  70
    32
  0
VERTEX
  8
0
  5
106B8
 10
37.8285
 20
97.5791
 30
0.000000
  70
    32
  0
VERTEX
  8
0
  5
106B9
 10
37.8195
 20
97.5364
 30
0.000000
  70
    32
  0
VERTEX
  8
0
  5
106BA
 10
37.8108
 20
97.4935
 30
0.000000
  70
    32
  0
VERTEX
  8
0
  5
106BB
 10
37.8026
 20
97.4506
 30
0.000000
  70
    32
  0
VERTEX
  8
0
  5
106BC
 10
37.7949
 20
97.4074
 30
0.000000
  70
    32
  0
VERTEX
  8
0
  5
106BD
 10
37.7875
 20
97.3642
 30
0.000000
  70
    32
  0
VERTEX
  8
0
  5
106BE
 10
37.7806
 20
97.3209
 30
0.000000
  70
    32
  0
VERTEX
  8
0
  5
106BF
 10
37.7742
 20
97.2774
 30
0.000000
  70
    32
  0
VERTEX
  8
0
  5
106C0
 10
37.7682
 20
97.2339
 30
0.000000
  70
    32
  0
VERTEX
  8
0
  5
106C1
 10
37.7626
 20
97.1903
 30
0.000000
  70
    32
  0
VERTEX
  8
0
  5
106C2
 10
37.7575
 20
97.1466
 30
0.000000
  70
    32
  0
VERTEX
  8
0
  5
106C3
 10
37.7528
 20
97.1028
 30
0.000000
  70
    32
  0
VERTEX
  8
0
  5
106C4
 10
37.7486
 20
97.0589
 30
0.000000
  70
    32
  0
VERTEX
  8
0
  5
106C5
 10
37.7448
 20
97.0150
 30
0.000000
  70
    32
  0
VERTEX
  8
0
  5
106C6
 10
37.7414
 20
96.9710
 30
0.000000
  70
    32
  0
VERTEX
  8
0
  5
106C7
 10
37.7385
 20
96.9270
 30
0.000000
  70
    32
  0
VERTEX
  8
0
  5
106C8
 10
37.7360
 20
96.8829
 30
0.000000
  70
    32
  0
VERTEX
  8
0
  5
106C9
 10
37.7340
 20
96.8388
 30
0.000000
  70
    32
  0
VERTEX
  8
0
  5
106CA
 10
37.7325
 20
96.7947
 30
0.000000
  70
    32
  0
VERTEX
  8
0
  5
106CB
 10
37.7313
 20
96.7505
 30
0.000000
  70
    32
  0
VERTEX
  8
0
  5
106CC
 10
37.7307
 20
96.7063
 30
0.000000
  70
    32
  0
VERTEX
  8
0
  5
106CD
 10
37.7305
 20
96.6622
 30
0.000000
  70
    32
  0
VERTEX
  8
0
  5
106CE
 10
37.7307
 20
96.6180
 30
0.000000
  70
    32
  0
VERTEX
  8
0
  5
106CF
 10
37.7313
 20
96.5738
 30
0.000000
  70
    32
  0
VERTEX
  8
0
  5
106D0
 10
37.7325
 20
96.5297
 30
0.000000
  70
    32
  0
VERTEX
  8
0
  5
106D1
 10
37.7340
 20
96.4855
 30
0.000000
  70
    32
  0
VERTEX
  8
0
  5
106D2
 10
37.7360
 20
96.4414
 30
0.000000
  70
    32
  0
VERTEX
  8
0
  5
106D3
 10
37.7385
 20
96.3973
 30
0.000000
  70
    32
  0
VERTEX
  8
0
  5
106D4
 10
37.7414
 20
96.3533
 30
0.000000
  70
    32
  0
VERTEX
  8
0
  5
106D5
 10
37.7448
 20
96.3093
 30
0.000000
  70
    32
  0
VERTEX
  8
0
  5
106D6
 10
37.7486
 20
96.2654
 30
0.000000
  70
    32
  0
VERTEX
  8
0
  5
106D7
 10
37.7528
 20
96.2215
 30
0.000000
  70
    32
  0
VERTEX
  8
0
  5
106D8
 10
37.7575
 20
96.1777
 30
0.000000
  70
    32
  0
VERTEX
  8
0
  5
106D9
 10
37.7626
 20
96.1340
 30
0.000000
  70
    32
  0
VERTEX
  8
0
  5
106DA
 10
37.7682
 20
96.0904
 30
0.000000
  70
    32
  0
VERTEX
  8
0
  5
106DB
 10
37.7742
 20
96.0469
 30
0.000000
  70
    32
  0
VERTEX
  8
0
  5
106DC
 10
37.7806
 20
96.0034
 30
0.000000
  70
    32
  0
VERTEX
  8
0
  5
106DD
 10
37.7875
 20
95.9601
 30
0.000000
  70
    32
  0
VERTEX
  8
0
  5
106DE
 10
37.7949
 20
95.9169
 30
0.000000
  70
    32
  0
VERTEX
  8
0
  5
106DF
 10
37.8026
 20
95.8738
 30
0.000000
  70
    32
  0
VERTEX
  8
0
  5
106E0
 10
37.8108
 20
95.8308
 30
0.000000
  70
    32
  0
VERTEX
  8
0
  5
106E1
 10
37.8195
 20
95.7879
 30
0.000000
  70
    32
  0
VERTEX
  8
0
  5
106E2
 10
37.8285
 20
95.7452
 30
0.000000
  70
    32
  0
VERTEX
  8
0
  5
106E3
 10
37.8380
 20
95.7027
 30
0.000000
  70
    32
  0
VERTEX
  8
0
  5
106E4
 10
37.8480
 20
95.6603
 30
0.000000
  70
    32
  0
VERTEX
  8
0
  5
106E5
 10
37.8583
 20
95.6180
 30
0.000000
  70
    32
  0
VERTEX
  8
0
  5
106E6
 10
37.8691
 20
95.5759
 30
0.000000
  70
    32
  0
VERTEX
  8
0
  5
106E7
 10
37.8803
 20
95.5340
 30
0.000000
  70
    32
  0
VERTEX
  8
0
  5
106E8
 10
37.8920
 20
95.4923
 30
0.000000
  70
    32
  0
VERTEX
  8
0
  5
106E9
 10
37.9040
 20
95.4507
 30
0.000000
  70
    32
  0
VERTEX
  8
0
  5
106EA
 10
37.9165
 20
95.4094
 30
0.000000
  70
    32
  0
VERTEX
  8
0
  5
106EB
 10
37.9294
 20
95.3682
 30
0.000000
  70
    32
  0
VERTEX
  8
0
  5
106EC
 10
37.9427
 20
95.3273
 30
0.000000
  70
    32
  0
VERTEX
  8
0
  5
106ED
 10
37.9565
 20
95.2866
 30
0.000000
  70
    32
  0
VERTEX
  8
0
  5
106EE
 10
37.9706
 20
95.2460
 30
0.000000
  70
    32
  0
VERTEX
  8
0
  5
106EF
 10
37.9851
 20
95.2058
 30
0.000000
  70
    32
  0
VERTEX
  8
0
  5
106F0
 10
38.0001
 20
95.1657
 30
0.000000
  70
    32
  0
VERTEX
  8
0
  5
106F1
 10
38.0155
 20
95.1259
 30
0.000000
  70
    32
  0
VERTEX
  8
0
  5
106F2
 10
38.0312
 20
95.0863
 30
0.000000
  70
    32
  0
VERTEX
  8
0
  5
106F3
 10
38.0474
 20
95.0470
 30
0.000000
  70
    32
  0
VERTEX
  8
0
  5
106F4
 10
38.0639
 20
95.0079
 30
0.000000
  70
    32
  0
VERTEX
  8
0
  5
106F5
 10
38.0809
 20
94.9691
 30
0.000000
  70
    32
  0
VERTEX
  8
0
  5
106F6
 10
38.0982
 20
94.9306
 30
0.000000
  70
    32
  0
VERTEX
  8
0
  5
106F7
 10
38.1160
 20
94.8923
 30
0.000000
  70
    32
  0
VERTEX
  8
0
  5
106F8
 10
38.1341
 20
94.8544
 30
0.000000
  70
    32
  0
VERTEX
  8
0
  5
106F9
 10
38.1526
 20
94.8167
 30
0.000000
  70
    32
  0
VERTEX
  8
0
  5
106FA
 10
38.1715
 20
94.7793
 30
0.000000
  70
    32
  0
VERTEX
  8
0
  5
106FB
 10
38.1907
 20
94.7422
 30
0.000000
  70
    32
  0
VERTEX
  8
0
  5
106FC
 10
38.2103
 20
94.7054
 30
0.000000
  70
    32
  0
VERTEX
  8
0
  5
106FD
 10
38.2303
 20
94.6689
 30
0.000000
  70
    32
  0
VERTEX
  8
0
  5
106FE
 10
38.2507
 20
94.6328
 30
0.000000
  70
    32
  0
VERTEX
  8
0
  5
106FF
 10
38.2715
 20
94.5970
 30
0.000000
  70
    32
  0
VERTEX
  8
0
  5
10700
 10
38.2926
 20
94.5615
 30
0.000000
  70
    32
  0
VERTEX
  8
0
  5
10701
 10
38.3140
 20
94.5263
 30
0.000000
  70
    32
  0
VERTEX
  8
0
  5
10702
 10
38.3358
 20
94.4915
 30
0.000000
  70
    32
  0
VERTEX
  8
0
  5
10703
 10
38.3580
 20
94.4570
 30
0.000000
  70
    32
  0
VERTEX
  8
0
  5
10704
 10
38.3805
 20
94.4228
 30
0.000000
  70
    32
  0
VERTEX
  8
0
  5
10705
 10
38.4033
 20
94.3891
 30
0.000000
  70
    32
  0
VERTEX
  8
0
  5
10706
 10
38.4265
 20
94.3557
 30
0.000000
  70
    32
  0
VERTEX
  8
0
  5
10707
 10
38.4501
 20
94.3226
 30
0.000000
  70
    32
  0
VERTEX
  8
0
  5
10708
 10
38.4739
 20
94.2899
 30
0.000000
  70
    32
  0
VERTEX
  8
0
  5
10709
 10
38.4981
 20
94.2577
 30
0.000000
  70
    32
  0
VERTEX
  8
0
  5
1070A
 10
38.5226
 20
94.2257
 30
0.000000
  70
    32
  0
VERTEX
  8
0
  5
1070B
 10
38.5475
 20
94.1942
 30
0.000000
  70
    32
  0
VERTEX
  8
0
  5
1070C
 10
38.5726
 20
94.1631
 30
0.000000
  70
    32
  0
VERTEX
  8
0
  5
1070D
 10
38.5981
 20
94.1324
 30
0.000000
  70
    32
  0
SEQEND
  8
0
  5
1070E
  0
LINE
  5
F991
  8
0
 10
41.642886512470788
 20
102.6598240459152
 30
0.0
 11
41.642886512470788
 21
98.912154045915273
 31
0.0
  0
LINE
  5
F992
  8
0
 10
40.434302941503113
 20
109.1621490459153
 30
0.0
 11
40.434302941503113
 21
104.16214975327981
 31
0.0
  0
LINE
  5
F993
  8
0
 10
40.434302941503113
 20
89.162149774390159
 30
0.0
 11
40.434302941503113
 21
84.162149045915385
 31
0.0
  0
LINE
  5
F994
  8
0
 10
41.642886512470788
 20
94.412154045915258
 30
0.0
 11
41.642886512470788
 21
90.664484045915287
 31
0.0
  0
LINE
  5
F9CB
  8
0
 10
-57.0
 20
10.0
 30
0.0
 11
-42.851470104719731
 21
10.0
 31
0.0
  0
LINE
  5
F9CC
  8
0
 10
-57.0
 20
8.0
 30
0.0
 11
-42.851469999999608
 21
8.0
 31
0.0
  0
LINE
  5
F9CE
  8
0
 10
42.851490000000922
 20
6.0
 30
0.0
 11
60.0
 21
6.0
 31
0.0
  0
LINE
  5
F9CF
  8
0
 10
42.851490000000922
 20
8.0
 30
0.0
 11
60.0
 21
8.0
 31
0.0
  0
LINE
  5
F9D0
  8
0
 10
42.851490000000922
 20
10.0
 30
0.0
 11
60.0
 21
10.0
 31
0.0
  0
LINE
  5
F9D3
  8
0
 10
-45.0
 20
6.0
 30
0.0
 11
-42.851469999999608
 21
6.0
 31
0.0
  0
ARC
  5
F9D4
  8
0
 10
0.0
 20
0.0
 30
0.0
 40
38.5
 50
15.64421000000171
 51
164.3557800000047
  0
ARC
  5
F9D5
  8
0
 10
0.0
 20
0.0
 30
0.0
 40
40.499999999999993
 50
15.64421000000171
 51
164.35578357031881
  0
ARC
  5
F9D6
  8
0
 10
0.0
 20
0.0
 30
0.0
 40
42.5
 50
15.64849114482108
 51
164.3557838728907
  0
ARC
  5
F9D7
  8
0
 10
-42.851469999999608
 20
12.0
 30
0.0
 40
2.0
 50
269.99999699996317
 51
344.35578999999819
  0
ARC
  5
F9D8
  8
0
 10
-42.851469999999608
 20
12.0
 30
0.0
 40
4.0
 50
270.0
 51
344.35578999999819
  0
ARC
  5
F9D9
  8
0
 10
-42.851469999999608
 20
12.0
 30
0.0
 40
6.0
 50
269.99999699996317
 51
344.35578999999819
  0
ARC
  5
F9DA
  8
0
 10
42.851490000000922
 20
12.0
 30
0.0
 40
2.0
 50
195.64421999999519
 51
269.99999699996317
  0
ARC
  5
F9DB
  8
0
 10
42.851490000000922
 20
12.0
 30
0.0
 40
4.0
 50
195.64421999999519
 51
269.99999699996317
  0
ARC
  5
F9DC
  8
0
 10
42.851490000000922
 20
12.0
 30
0.0
 40
6.0
 50
195.64421999999519
 51
269.99999699996317
  0
LINE
  5
F9DD
  8
0
 10
60.0
 20
6.0
 30
0.0
 11
60.0
 21
10.0
 31
0.0
  0
LINE
  5
FA14
  8
0
 10
58.5
 20
16.0
 30
0.0
 11
47.5
 21
16.0
 31
0.0
  0
LINE
  5
FA15
  8
0
 10
58.500044000000351
 20
16.00001999999995
 30
0.0
 11
60.000045000000682
 21
10.000019999999941
 31
0.0
  0
LINE
  5
FA16
  8
0
 10
62.328972999999678
 20
24.52635000000009
 30
0.0
 11
67.765666999999667
 21
21.419669999999989
 31
0.0
  0
LINE
  5
FA17
  8
0
 10
57.0
 20
25.22545000000013
 30
0.0
 11
57.0
 21
16.0
 31
0.0
  0
LINE
  5
FA18
  8
0
 10
56.0
 20
26.22545000000013
 30
0.0
 11
50.0
 21
26.22545000000013
 31
0.0
  0
LINE
  5
FA19
  8
0
 10
56.000035999999447
 20
26.225490000000029
 30
0.0
 11
57.000036999999793
 21
25.225490000000029
 31
0.0
  0
ARC
  5
FA1A
  8
0
 10
61.832518999999593
 20
23.657570000000071
 30
0.0
 40
1.0
 50
60.255116000012798
 51
149.14714999999811
  0
ARC
  5
FA1B
  8
0
 10
67.269538999999895
 20
20.55146000000013
 30
0.0
 40
1.0
 50
338.72366000001159
 51
60.255116000012798
  0
POLYLINE
  8
0
  5
1070F
  66
     1
 10
0.000000
 20
0.000000
 30
0.000000
  70
     8
  0
VERTEX
  8
0
  5
10710
 10
58.5000
 20
16.0000
 30
0.000000
  70
    32
  0
VERTEX
  8
0
  5
10711
 10
58.5016
 20
16.0300
 30
0.000000
  70
    32
  0
VERTEX
  8
0
  5
10712
 10
58.5032
 20
16.0600
 30
0.000000
  70
    32
  0
VERTEX
  8
0
  5
10713
 10
58.5049
 20
16.0900
 30
0.000000
  70
    32
  0
VERTEX
  8
0
  5
10714
 10
58.5066
 20
16.1200
 30
0.000000
  70
    32
  0
VERTEX
  8
0
  5
10715
 10
58.5084
 20
16.1500
 30
0.000000
  70
    32
  0
VERTEX
  8
0
  5
10716
 10
58.5102
 20
16.1800
 30
0.000000
  70
    32
  0
VERTEX
  8
0
  5
10717
 10
58.5121
 20
16.2100
 30
0.000000
  70
    32
  0
VERTEX
  8
0
  5
10718
 10
58.5140
 20
16.2399
 30
0.000000
  70
    32
  0
VERTEX
  8
0
  5
10719
 10
58.5160
 20
16.2699
 30
0.000000
  70
    32
  0
VERTEX
  8
0
  5
1071A
 10
58.5180
 20
16.2999
 30
0.000000
  70
    32
  0
VERTEX
  8
0
  5
1071B
 10
58.5200
 20
16.3299
 30
0.000000
  70
    32
  0
VERTEX
  8
0
  5
1071C
 10
58.5221
 20
16.3598
 30
0.000000
  70
    32
  0
VERTEX
  8
0
  5
1071D
 10
58.5243
 20
16.3898
 30
0.000000
  70
    32
  0
VERTEX
  8
0
  5
1071E
 10
58.5265
 20
16.4198
 30
0.000000
  70
    32
  0
VERTEX
  8
0
  5
1071F
 10
58.5288
 20
16.4497
 30
0.000000
  70
    32
  0
VERTEX
  8
0
  5
10720
 10
58.5311
 20
16.4797
 30
0.000000
  70
    32
  0
VERTEX
  8
0
  5
10721
 10
58.5334
 20
16.5096
 30
0.000000
  70
    32
  0
VERTEX
  8
0
  5
10722
 10
58.5358
 20
16.5396
 30
0.000000
  70
    32
  0
VERTEX
  8
0
  5
10723
 10
58.5383
 20
16.5695
 30
0.000000
  70
    32
  0
VERTEX
  8
0
  5
10724
 10
58.5408
 20
16.5995
 30
0.000000
  70
    32
  0
VERTEX
  8
0
  5
10725
 10
58.5433
 20
16.6294
 30
0.000000
  70
    32
  0
VERTEX
  8
0
  5
10726
 10
58.5459
 20
16.6594
 30
0.000000
  70
    32
  0
VERTEX
  8
0
  5
10727
 10
58.5486
 20
16.6893
 30
0.000000
  70
    32
  0
VERTEX
  8
0
  5
10728
 10
58.5513
 20
16.7192
 30
0.000000
  70
    32
  0
VERTEX
  8
0
  5
10729
 10
58.5540
 20
16.7492
 30
0.000000
  70
    32
  0
VERTEX
  8
0
  5
1072A
 10
58.5568
 20
16.7791
 30
0.000000
  70
    32
  0
VERTEX
  8
0
  5
1072B
 10
58.5597
 20
16.8090
 30
0.000000
  70
    32
  0
VERTEX
  8
0
  5
1072C
 10
58.5625
 20
16.8389
 30
0.000000
  70
    32
  0
VERTEX
  8
0
  5
1072D
 10
58.5655
 20
16.8688
 30
0.000000
  70
    32
  0
VERTEX
  8
0
  5
1072E
 10
58.5685
 20
16.8987
 30
0.000000
  70
    32
  0
VERTEX
  8
0
  5
1072F
 10
58.5715
 20
16.9286
 30
0.000000
  70
    32
  0
VERTEX
  8
0
  5
10730
 10
58.5746
 20
16.9585
 30
0.000000
  70
    32
  0
VERTEX
  8
0
  5
10731
 10
58.5777
 20
16.9884
 30
0.000000
  70
    32
  0
VERTEX
  8
0
  5
10732
 10
58.5809
 20
17.0183
 30
0.000000
  70
    32
  0
VERTEX
  8
0
  5
10733
 10
58.5842
 20
17.0481
 30
0.000000
  70
    32
  0
VERTEX
  8
0
  5
10734
 10
58.5874
 20
17.0780
 30
0.000000
  70
    32
  0
VERTEX
  8
0
  5
10735
 10
58.5908
 20
17.1079
 30
0.000000
  70
    32
  0
VERTEX
  8
0
  5
10736
 10
58.5941
 20
17.1377
 30
0.000000
  70
    32
  0
VERTEX
  8
0
  5
10737
 10
58.5976
 20
17.1676
 30
0.000000
  70
    32
  0
VERTEX
  8
0
  5
10738
 10
58.6010
 20
17.1974
 30
0.000000
  70
    32
  0
VERTEX
  8
0
  5
10739
 10
58.6046
 20
17.2273
 30
0.000000
  70
    32
  0
VERTEX
  8
0
  5
1073A
 10
58.6081
 20
17.2571
 30
0.000000
  70
    32
  0
VERTEX
  8
0
  5
1073B
 10
58.6118
 20
17.2870
 30
0.000000
  70
    32
  0
VERTEX
  8
0
  5
1073C
 10
58.6154
 20
17.3168
 30
0.000000
  70
    32
  0
VERTEX
  8
0
  5
1073D
 10
58.6192
 20
17.3466
 30
0.000000
  70
    32
  0
VERTEX
  8
0
  5
1073E
 10
58.6229
 20
17.3764
 30
0.000000
  70
    32
  0
VERTEX
  8
0
  5
1073F
 10
58.6268
 20
17.4062
 30
0.000000
  70
    32
  0
VERTEX
  8
0
  5
10740
 10
58.6306
 20
17.4360
 30
0.000000
  70
    32
  0
VERTEX
  8
0
  5
10741
 10
58.6345
 20
17.4658
 30
0.000000
  70
    32
  0
VERTEX
  8
0
  5
10742
 10
58.6385
 20
17.4956
 30
0.000000
  70
    32
  0
VERTEX
  8
0
  5
10743
 10
58.6425
 20
17.5254
 30
0.000000
  70
    32
  0
VERTEX
  8
0
  5
10744
 10
58.6466
 20
17.5552
 30
0.000000
  70
    32
  0
VERTEX
  8
0
  5
10745
 10
58.6507
 20
17.5849
 30
0.000000
  70
    32
  0
VERTEX
  8
0
  5
10746
 10
58.6549
 20
17.6147
 30
0.000000
  70
    32
  0
VERTEX
  8
0
  5
10747
 10
58.6591
 20
17.6444
 30
0.000000
  70
    32
  0
VERTEX
  8
0
  5
10748
 10
58.6633
 20
17.6742
 30
0.000000
  70
    32
  0
VERTEX
  8
0
  5
10749
 10
58.6677
 20
17.7039
 30
0.000000
  70
    32
  0
VERTEX
  8
0
  5
1074A
 10
58.6720
 20
17.7337
 30
0.000000
  70
    32
  0
VERTEX
  8
0
  5
1074B
 10
58.6764
 20
17.7634
 30
0.000000
  70
    32
  0
VERTEX
  8
0
  5
1074C
 10
58.6809
 20
17.7931
 30
0.000000
  70
    32
  0
VERTEX
  8
0
  5
1074D
 10
58.6854
 20
17.8228
 30
0.000000
  70
    32
  0
VERTEX
  8
0
  5
1074E
 10
58.6900
 20
17.8525
 30
0.000000
  70
    32
  0
VERTEX
  8
0
  5
1074F
 10
58.6946
 20
17.8822
 30
0.000000
  70
    32
  0
VERTEX
  8
0
  5
10750
 10
58.6992
 20
17.9119
 30
0.000000
  70
    32
  0
VERTEX
  8
0
  5
10751
 10
58.7039
 20
17.9416
 30
0.000000
  70
    32
  0
VERTEX
  8
0
  5
10752
 10
58.7087
 20
17.9712
 30
0.000000
  70
    32
  0
VERTEX
  8
0
  5
10753
 10
58.7135
 20
18.0009
 30
0.000000
  70
    32
  0
VERTEX
  8
0
  5
10754
 10
58.7183
 20
18.0305
 30
0.000000
  70
    32
  0
VERTEX
  8
0
  5
10755
 10
58.7232
 20
18.0602
 30
0.000000
  70
    32
  0
VERTEX
  8
0
  5
10756
 10
58.7282
 20
18.0898
 30
0.000000
  70
    32
  0
VERTEX
  8
0
  5
10757
 10
58.7332
 20
18.1195
 30
0.000000
  70
    32
  0
VERTEX
  8
0
  5
10758
 10
58.7382
 20
18.1491
 30
0.000000
  70
    32
  0
VERTEX
  8
0
  5
10759
 10
58.7434
 20
18.1787
 30
0.000000
  70
    32
  0
VERTEX
  8
0
  5
1075A
 10
58.7485
 20
18.2083
 30
0.000000
  70
    32
  0
VERTEX
  8
0
  5
1075B
 10
58.7537
 20
18.2379
 30
0.000000
  70
    32
  0
VERTEX
  8
0
  5
1075C
 10
58.7590
 20
18.2675
 30
0.000000
  70
    32
  0
VERTEX
  8
0
  5
1075D
 10
58.7643
 20
18.2971
 30
0.000000
  70
    32
  0
VERTEX
  8
0
  5
1075E
 10
58.7696
 20
18.3266
 30
0.000000
  70
    32
  0
VERTEX
  8
0
  5
1075F
 10
58.7750
 20
18.3562
 30
0.000000
  70
    32
  0
VERTEX
  8
0
  5
10760
 10
58.7804
 20
18.3857
 30
0.000000
  70
    32
  0
VERTEX
  8
0
  5
10761
 10
58.7859
 20
18.4153
 30
0.000000
  70
    32
  0
VERTEX
  8
0
  5
10762
 10
58.7915
 20
18.4448
 30
0.000000
  70
    32
  0
VERTEX
  8
0
  5
10763
 10
58.7971
 20
18.4743
 30
0.000000
  70
    32
  0
VERTEX
  8
0
  5
10764
 10
58.8027
 20
18.5038
 30
0.000000
  70
    32
  0
VERTEX
  8
0
  5
10765
 10
58.8084
 20
18.5333
 30
0.000000
  70
    32
  0
VERTEX
  8
0
  5
10766
 10
58.8142
 20
18.5628
 30
0.000000
  70
    32
  0
VERTEX
  8
0
  5
10767
 10
58.8200
 20
18.5923
 30
0.000000
  70
    32
  0
VERTEX
  8
0
  5
10768
 10
58.8258
 20
18.6218
 30
0.000000
  70
    32
  0
VERTEX
  8
0
  5
10769
 10
58.8317
 20
18.6513
 30
0.000000
  70
    32
  0
VERTEX
  8
0
  5
1076A
 10
58.8377
 20
18.6807
 30
0.000000
  70
    32
  0
VERTEX
  8
0
  5
1076B
 10
58.8437
 20
18.7102
 30
0.000000
  70
    32
  0
VERTEX
  8
0
  5
1076C
 10
58.8497
 20
18.7396
 30
0.000000
  70
    32
  0
VERTEX
  8
0
  5
1076D
 10
58.8558
 20
18.7690
 30
0.000000
  70
    32
  0
VERTEX
  8
0
  5
1076E
 10
58.8619
 20
18.7984
 30
0.000000
  70
    32
  0
VERTEX
  8
0
  5
1076F
 10
58.8681
 20
18.8278
 30
0.000000
  70
    32
  0
VERTEX
  8
0
  5
10770
 10
58.8744
 20
18.8572
 30
0.000000
  70
    32
  0
VERTEX
  8
0
  5
10771
 10
58.8807
 20
18.8866
 30
0.000000
  70
    32
  0
VERTEX
  8
0
  5
10772
 10
58.8870
 20
18.9160
 30
0.000000
  70
    32
  0
VERTEX
  8
0
  5
10773
 10
58.8934
 20
18.9453
 30
0.000000
  70
    32
  0
VERTEX
  8
0
  5
10774
 10
58.8999
 20
18.9747
 30
0.000000
  70
    32
  0
VERTEX
  8
0
  5
10775
 10
58.9064
 20
19.0040
 30
0.000000
  70
    32
  0
VERTEX
  8
0
  5
10776
 10
58.9129
 20
19.0334
 30
0.000000
  70
    32
  0
VERTEX
  8
0
  5
10777
 10
58.9195
 20
19.0627
 30
0.000000
  70
    32
  0
VERTEX
  8
0
  5
10778
 10
58.9261
 20
19.0920
 30
0.000000
  70
    32
  0
VERTEX
  8
0
  5
10779
 10
58.9328
 20
19.1213
 30
0.000000
  70
    32
  0
VERTEX
  8
0
  5
1077A
 10
58.9396
 20
19.1506
 30
0.000000
  70
    32
  0
VERTEX
  8
0
  5
1077B
 10
58.9464
 20
19.1798
 30
0.000000
  70
    32
  0
VERTEX
  8
0
  5
1077C
 10
58.9532
 20
19.2091
 30
0.000000
  70
    32
  0
VERTEX
  8
0
  5
1077D
 10
58.9601
 20
19.2383
 30
0.000000
  70
    32
  0
VERTEX
  8
0
  5
1077E
 10
58.9671
 20
19.2676
 30
0.000000
  70
    32
  0
VERTEX
  8
0
  5
1077F
 10
58.9741
 20
19.2968
 30
0.000000
  70
    32
  0
VERTEX
  8
0
  5
10780
 10
58.9811
 20
19.3260
 30
0.000000
  70
    32
  0
VERTEX
  8
0
  5
10781
 10
58.9882
 20
19.3552
 30
0.000000
  70
    32
  0
VERTEX
  8
0
  5
10782
 10
58.9954
 20
19.3844
 30
0.000000
  70
    32
  0
VERTEX
  8
0
  5
10783
 10
59.0026
 20
19.4136
 30
0.000000
  70
    32
  0
VERTEX
  8
0
  5
10784
 10
59.0098
 20
19.4427
 30
0.000000
  70
    32
  0
VERTEX
  8
0
  5
10785
 10
59.0171
 20
19.4719
 30
0.000000
  70
    32
  0
VERTEX
  8
0
  5
10786
 10
59.0245
 20
19.5010
 30
0.000000
  70
    32
  0
VERTEX
  8
0
  5
10787
 10
59.0319
 20
19.5301
 30
0.000000
  70
    32
  0
VERTEX
  8
0
  5
10788
 10
59.0393
 20
19.5592
 30
0.000000
  70
    32
  0
VERTEX
  8
0
  5
10789
 10
59.0468
 20
19.5883
 30
0.000000
  70
    32
  0
VERTEX
  8
0
  5
1078A
 10
59.0544
 20
19.6174
 30
0.000000
  70
    32
  0
VERTEX
  8
0
  5
1078B
 10
59.0620
 20
19.6465
 30
0.000000
  70
    32
  0
VERTEX
  8
0
  5
1078C
 10
59.0696
 20
19.6756
 30
0.000000
  70
    32
  0
VERTEX
  8
0
  5
1078D
 10
59.0773
 20
19.7046
 30
0.000000
  70
    32
  0
VERTEX
  8
0
  5
1078E
 10
59.0851
 20
19.7336
 30
0.000000
  70
    32
  0
VERTEX
  8
0
  5
1078F
 10
59.0929
 20
19.7627
 30
0.000000
  70
    32
  0
VERTEX
  8
0
  5
10790
 10
59.1008
 20
19.7917
 30
0.000000
  70
    32
  0
VERTEX
  8
0
  5
10791
 10
59.1087
 20
19.8206
 30
0.000000
  70
    32
  0
VERTEX
  8
0
  5
10792
 10
59.1166
 20
19.8496
 30
0.000000
  70
    32
  0
VERTEX
  8
0
  5
10793
 10
59.1246
 20
19.8786
 30
0.000000
  70
    32
  0
VERTEX
  8
0
  5
10794
 10
59.1327
 20
19.9075
 30
0.000000
  70
    32
  0
VERTEX
  8
0
  5
10795
 10
59.1408
 20
19.9365
 30
0.000000
  70
    32
  0
VERTEX
  8
0
  5
10796
 10
59.1490
 20
19.9654
 30
0.000000
  70
    32
  0
VERTEX
  8
0
  5
10797
 10
59.1572
 20
19.9943
 30
0.000000
  70
    32
  0
VERTEX
  8
0
  5
10798
 10
59.1655
 20
20.0232
 30
0.000000
  70
    32
  0
VERTEX
  8
0
  5
10799
 10
59.1738
 20
20.0521
 30
0.000000
  70
    32
  0
VERTEX
  8
0
  5
1079A
 10
59.1822
 20
20.0809
 30
0.000000
  70
    32
  0
VERTEX
  8
0
  5
1079B
 10
59.1906
 20
20.1098
 30
0.000000
  70
    32
  0
VERTEX
  8
0
  5
1079C
 10
59.1990
 20
20.1386
 30
0.000000
  70
    32
  0
VERTEX
  8
0
  5
1079D
 10
59.2076
 20
20.1674
 30
0.000000
  70
    32
  0
VERTEX
  8
0
  5
1079E
 10
59.2161
 20
20.1962
 30
0.000000
  70
    32
  0
VERTEX
  8
0
  5
1079F
 10
59.2248
 20
20.2250
 30
0.000000
  70
    32
  0
VERTEX
  8
0
  5
107A0
 10
59.2334
 20
20.2538
 30
0.000000
  70
    32
  0
VERTEX
  8
0
  5
107A1
 10
59.2422
 20
20.2825
 30
0.000000
  70
    32
  0
VERTEX
  8
0
  5
107A2
 10
59.2510
 20
20.3112
 30
0.000000
  70
    32
  0
VERTEX
  8
0
  5
107A3
 10
59.2598
 20
20.3400
 30
0.000000
  70
    32
  0
VERTEX
  8
0
  5
107A4
 10
59.2687
 20
20.3687
 30
0.000000
  70
    32
  0
VERTEX
  8
0
  5
107A5
 10
59.2776
 20
20.3974
 30
0.000000
  70
    32
  0
VERTEX
  8
0
  5
107A6
 10
59.2866
 20
20.4260
 30
0.000000
  70
    32
  0
VERTEX
  8
0
  5
107A7
 10
59.2956
 20
20.4547
 30
0.000000
  70
    32
  0
VERTEX
  8
0
  5
107A8
 10
59.3047
 20
20.4833
 30
0.000000
  70
    32
  0
VERTEX
  8
0
  5
107A9
 10
59.3138
 20
20.5120
 30
0.000000
  70
    32
  0
VERTEX
  8
0
  5
107AA
 10
59.3230
 20
20.5406
 30
0.000000
  70
    32
  0
VERTEX
  8
0
  5
107AB
 10
59.3323
 20
20.5692
 30
0.000000
  70
    32
  0
VERTEX
  8
0
  5
107AC
 10
59.3416
 20
20.5978
 30
0.000000
  70
    32
  0
VERTEX
  8
0
  5
107AD
 10
59.3509
 20
20.6263
 30
0.000000
  70
    32
  0
VERTEX
  8
0
  5
107AE
 10
59.3603
 20
20.6549
 30
0.000000
  70
    32
  0
VERTEX
  8
0
  5
107AF
 10
59.3697
 20
20.6834
 30
0.000000
  70
    32
  0
VERTEX
  8
0
  5
107B0
 10
59.3792
 20
20.7119
 30
0.000000
  70
    32
  0
VERTEX
  8
0
  5
107B1
 10
59.3888
 20
20.7404
 30
0.000000
  70
    32
  0
VERTEX
  8
0
  5
107B2
 10
59.3984
 20
20.7689
 30
0.000000
  70
    32
  0
VERTEX
  8
0
  5
107B3
 10
59.4080
 20
20.7973
 30
0.000000
  70
    32
  0
VERTEX
  8
0
  5
107B4
 10
59.4177
 20
20.8258
 30
0.000000
  70
    32
  0
VERTEX
  8
0
  5
107B5
 10
59.4275
 20
20.8542
 30
0.000000
  70
    32
  0
VERTEX
  8
0
  5
107B6
 10
59.4373
 20
20.8826
 30
0.000000
  70
    32
  0
VERTEX
  8
0
  5
107B7
 10
59.4471
 20
20.9110
 30
0.000000
  70
    32
  0
VERTEX
  8
0
  5
107B8
 10
59.4570
 20
20.9394
 30
0.000000
  70
    32
  0
VERTEX
  8
0
  5
107B9
 10
59.4669
 20
20.9677
 30
0.000000
  70
    32
  0
VERTEX
  8
0
  5
107BA
 10
59.4769
 20
20.9961
 30
0.000000
  70
    32
  0
VERTEX
  8
0
  5
107BB
 10
59.4870
 20
21.0244
 30
0.000000
  70
    32
  0
VERTEX
  8
0
  5
107BC
 10
59.4971
 20
21.0527
 30
0.000000
  70
    32
  0
VERTEX
  8
0
  5
107BD
 10
59.5072
 20
21.0810
 30
0.000000
  70
    32
  0
VERTEX
  8
0
  5
107BE
 10
59.5174
 20
21.1092
 30
0.000000
  70
    32
  0
VERTEX
  8
0
  5
107BF
 10
59.5277
 20
21.1375
 30
0.000000
  70
    32
  0
VERTEX
  8
0
  5
107C0
 10
59.5380
 20
21.1657
 30
0.000000
  70
    32
  0
VERTEX
  8
0
  5
107C1
 10
59.5483
 20
21.1939
 30
0.000000
  70
    32
  0
VERTEX
  8
0
  5
107C2
 10
59.5587
 20
21.2221
 30
0.000000
  70
    32
  0
VERTEX
  8
0
  5
107C3
 10
59.5692
 20
21.2503
 30
0.000000
  70
    32
  0
VERTEX
  8
0
  5
107C4
 10
59.5796
 20
21.2785
 30
0.000000
  70
    32
  0
VERTEX
  8
0
  5
107C5
 10
59.5902
 20
21.3066
 30
0.000000
  70
    32
  0
VERTEX
  8
0
  5
107C6
 10
59.6008
 20
21.3347
 30
0.000000
  70
    32
  0
VERTEX
  8
0
  5
107C7
 10
59.6114
 20
21.3628
 30
0.000000
  70
    32
  0
VERTEX
  8
0
  5
107C8
 10
59.6221
 20
21.3909
 30
0.000000
  70
    32
  0
VERTEX
  8
0
  5
107C9
 10
59.6329
 20
21.4190
 30
0.000000
  70
    32
  0
VERTEX
  8
0
  5
107CA
 10
59.6437
 20
21.4470
 30
0.000000
  70
    32
  0
VERTEX
  8
0
  5
107CB
 10
59.6545
 20
21.4750
 30
0.000000
  70
    32
  0
VERTEX
  8
0
  5
107CC
 10
59.6654
 20
21.5030
 30
0.000000
  70
    32
  0
VERTEX
  8
0
  5
107CD
 10
59.6763
 20
21.5310
 30
0.000000
  70
    32
  0
VERTEX
  8
0
  5
107CE
 10
59.6873
 20
21.5590
 30
0.000000
  70
    32
  0
VERTEX
  8
0
  5
107CF
 10
59.6983
 20
21.5870
 30
0.000000
  70
    32
  0
VERTEX
  8
0
  5
107D0
 10
59.7094
 20
21.6149
 30
0.000000
  70
    32
  0
VERTEX
  8
0
  5
107D1
 10
59.7206
 20
21.6428
 30
0.000000
  70
    32
  0
VERTEX
  8
0
  5
107D2
 10
59.7317
 20
21.6707
 30
0.000000
  70
    32
  0
VERTEX
  8
0
  5
107D3
 10
59.7430
 20
21.6986
 30
0.000000
  70
    32
  0
VERTEX
  8
0
  5
107D4
 10
59.7543
 20
21.7264
 30
0.000000
  70
    32
  0
VERTEX
  8
0
  5
107D5
 10
59.7656
 20
21.7542
 30
0.000000
  70
    32
  0
VERTEX
  8
0
  5
107D6
 10
59.7770
 20
21.7820
 30
0.000000
  70
    32
  0
VERTEX
  8
0
  5
107D7
 10
59.7884
 20
21.8098
 30
0.000000
  70
    32
  0
VERTEX
  8
0
  5
107D8
 10
59.7999
 20
21.8376
 30
0.000000
  70
    32
  0
VERTEX
  8
0
  5
107D9
 10
59.8114
 20
21.8654
 30
0.000000
  70
    32
  0
VERTEX
  8
0
  5
107DA
 10
59.8229
 20
21.8931
 30
0.000000
  70
    32
  0
VERTEX
  8
0
  5
107DB
 10
59.8346
 20
21.9208
 30
0.000000
  70
    32
  0
VERTEX
  8
0
  5
107DC
 10
59.8462
 20
21.9485
 30
0.000000
  70
    32
  0
VERTEX
  8
0
  5
107DD
 10
59.8579
 20
21.9762
 30
0.000000
  70
    32
  0
VERTEX
  8
0
  5
107DE
 10
59.8697
 20
22.0038
 30
0.000000
  70
    32
  0
VERTEX
  8
0
  5
107DF
 10
59.8815
 20
22.0315
 30
0.000000
  70
    32
  0
VERTEX
  8
0
  5
107E0
 10
59.8934
 20
22.0591
 30
0.000000
  70
    32
  0
VERTEX
  8
0
  5
107E1
 10
59.9053
 20
22.0867
 30
0.000000
  70
    32
  0
VERTEX
  8
0
  5
107E2
 10
59.9172
 20
22.1142
 30
0.000000
  70
    32
  0
VERTEX
  8
0
  5
107E3
 10
59.9292
 20
22.1418
 30
0.000000
  70
    32
  0
VERTEX
  8
0
  5
107E4
 10
59.9413
 20
22.1693
 30
0.000000
  70
    32
  0
VERTEX
  8
0
  5
107E5
 10
59.9534
 20
22.1968
 30
0.000000
  70
    32
  0
VERTEX
  8
0
  5
107E6
 10
59.9655
 20
22.2243
 30
0.000000
  70
    32
  0
VERTEX
  8
0
  5
107E7
 10
59.9777
 20
22.2518
 30
0.000000
  70
    32
  0
VERTEX
  8
0
  5
107E8
 10
59.9899
 20
22.2792
 30
0.000000
  70
    32
  0
VERTEX
  8
0
  5
107E9
 10
60.0022
 20
22.3066
 30
0.000000
  70
    32
  0
VERTEX
  8
0
  5
107EA
 10
60.0145
 20
22.3340
 30
0.000000
  70
    32
  0
VERTEX
  8
0
  5
107EB
 10
60.0269
 20
22.3614
 30
0.000000
  70
    32
  0
VERTEX
  8
0
  5
107EC
 10
60.0393
 20
22.3888
 30
0.000000
  70
    32
  0
VERTEX
  8
0
  5
107ED
 10
60.0518
 20
22.4161
 30
0.000000
  70
    32
  0
VERTEX
  8
0
  5
107EE
 10
60.0643
 20
22.4434
 30
0.000000
  70
    32
  0
VERTEX
  8
0
  5
107EF
 10
60.0769
 20
22.4707
 30
0.000000
  70
    32
  0
VERTEX
  8
0
  5
107F0
 10
60.0895
 20
22.4980
 30
0.000000
  70
    32
  0
VERTEX
  8
0
  5
107F1
 10
60.1022
 20
22.5253
 30
0.000000
  70
    32
  0
VERTEX
  8
0
  5
107F2
 10
60.1149
 20
22.5525
 30
0.000000
  70
    32
  0
VERTEX
  8
0
  5
107F3
 10
60.1276
 20
22.5797
 30
0.000000
  70
    32
  0
VERTEX
  8
0
  5
107F4
 10
60.1404
 20
22.6069
 30
0.000000
  70
    32
  0
VERTEX
  8
0
  5
107F5
 10
60.1532
 20
22.6341
 30
0.000000
  70
    32
  0
VERTEX
  8
0
  5
107F6
 10
60.1661
 20
22.6612
 30
0.000000
  70
    32
  0
VERTEX
  8
0
  5
107F7
 10
60.1791
 20
22.6883
 30
0.000000
  70
    32
  0
VERTEX
  8
0
  5
107F8
 10
60.1920
 20
22.7154
 30
0.000000
  70
    32
  0
VERTEX
  8
0
  5
107F9
 10
60.2051
 20
22.7425
 30
0.000000
  70
    32
  0
VERTEX
  8
0
  5
107FA
 10
60.2181
 20
22.7696
 30
0.000000
  70
    32
  0
VERTEX
  8
0
  5
107FB
 10
60.2312
 20
22.7966
 30
0.000000
  70
    32
  0
VERTEX
  8
0
  5
107FC
 10
60.2444
 20
22.8236
 30
0.000000
  70
    32
  0
VERTEX
  8
0
  5
107FD
 10
60.2576
 20
22.8506
 30
0.000000
  70
    32
  0
VERTEX
  8
0
  5
107FE
 10
60.2709
 20
22.8776
 30
0.000000
  70
    32
  0
VERTEX
  8
0
  5
107FF
 10
60.2842
 20
22.9045
 30
0.000000
  70
    32
  0
VERTEX
  8
0
  5
10800
 10
60.2975
 20
22.9315
 30
0.000000
  70
    32
  0
VERTEX
  8
0
  5
10801
 10
60.3109
 20
22.9584
 30
0.000000
  70
    32
  0
VERTEX
  8
0
  5
10802
 10
60.3243
 20
22.9853
 30
0.000000
  70
    32
  0
VERTEX
  8
0
  5
10803
 10
60.3378
 20
23.0121
 30
0.000000
  70
    32
  0
VERTEX
  8
0
  5
10804
 10
60.3513
 20
23.0390
 30
0.000000
  70
    32
  0
VERTEX
  8
0
  5
10805
 10
60.3649
 20
23.0658
 30
0.000000
  70
    32
  0
VERTEX
  8
0
  5
10806
 10
60.3785
 20
23.0926
 30
0.000000
  70
    32
  0
VERTEX
  8
0
  5
10807
 10
60.3921
 20
23.1193
 30
0.000000
  70
    32
  0
VERTEX
  8
0
  5
10808
 10
60.4058
 20
23.1461
 30
0.000000
  70
    32
  0
VERTEX
  8
0
  5
10809
 10
60.4196
 20
23.1728
 30
0.000000
  70
    32
  0
VERTEX
  8
0
  5
1080A
 10
60.4334
 20
23.1995
 30
0.000000
  70
    32
  0
VERTEX
  8
0
  5
1080B
 10
60.4472
 20
23.2262
 30
0.000000
  70
    32
  0
VERTEX
  8
0
  5
1080C
 10
60.4611
 20
23.2528
 30
0.000000
  70
    32
  0
VERTEX
  8
0
  5
1080D
 10
60.4750
 20
23.2795
 30
0.000000
  70
    32
  0
VERTEX
  8
0
  5
1080E
 10
60.4890
 20
23.3061
 30
0.000000
  70
    32
  0
VERTEX
  8
0
  5
1080F
 10
60.5030
 20
23.3327
 30
0.000000
  70
    32
  0
VERTEX
  8
0
  5
10810
 10
60.5170
 20
23.3592
 30
0.000000
  70
    32
  0
VERTEX
  8
0
  5
10811
 10
60.5311
 20
23.3858
 30
0.000000
  70
    32
  0
VERTEX
  8
0
  5
10812
 10
60.5453
 20
23.4123
 30
0.000000
  70
    32
  0
VERTEX
  8
0
  5
10813
 10
60.5595
 20
23.4388
 30
0.000000
  70
    32
  0
VERTEX
  8
0
  5
10814
 10
60.5737
 20
23.4652
 30
0.000000
  70
    32
  0
VERTEX
  8
0
  5
10815
 10
60.5880
 20
23.4917
 30
0.000000
  70
    32
  0
VERTEX
  8
0
  5
10816
 10
60.6023
 20
23.5181
 30
0.000000
  70
    32
  0
VERTEX
  8
0
  5
10817
 10
60.6167
 20
23.5445
 30
0.000000
  70
    32
  0
VERTEX
  8
0
  5
10818
 10
60.6311
 20
23.5709
 30
0.000000
  70
    32
  0
VERTEX
  8
0
  5
10819
 10
60.6455
 20
23.5972
 30
0.000000
  70
    32
  0
VERTEX
  8
0
  5
1081A
 10
60.6600
 20
23.6235
 30
0.000000
  70
    32
  0
VERTEX
  8
0
  5
1081B
 10
60.6745
 20
23.6498
 30
0.000000
  70
    32
  0
VERTEX
  8
0
  5
1081C
 10
60.6891
 20
23.6761
 30
0.000000
  70
    32
  0
VERTEX
  8
0
  5
1081D
 10
60.7037
 20
23.7024
 30
0.000000
  70
    32
  0
VERTEX
  8
0
  5
1081E
 10
60.7184
 20
23.7286
 30
0.000000
  70
    32
  0
VERTEX
  8
0
  5
1081F
 10
60.7331
 20
23.7548
 30
0.000000
  70
    32
  0
VERTEX
  8
0
  5
10820
 10
60.7478
 20
23.7810
 30
0.000000
  70
    32
  0
VERTEX
  8
0
  5
10821
 10
60.7626
 20
23.8071
 30
0.000000
  70
    32
  0
VERTEX
  8
0
  5
10822
 10
60.7775
 20
23.8333
 30
0.000000
  70
    32
  0
VERTEX
  8
0
  5
10823
 10
60.7924
 20
23.8594
 30
0.000000
  70
    32
  0
VERTEX
  8
0
  5
10824
 10
60.8073
 20
23.8855
 30
0.000000
  70
    32
  0
VERTEX
  8
0
  5
10825
 10
60.8222
 20
23.9115
 30
0.000000
  70
    32
  0
VERTEX
  8
0
  5
10826
 10
60.8372
 20
23.9375
 30
0.000000
  70
    32
  0
VERTEX
  8
0
  5
10827
 10
60.8523
 20
23.9635
 30
0.000000
  70
    32
  0
VERTEX
  8
0
  5
10828
 10
60.8674
 20
23.9895
 30
0.000000
  70
    32
  0
VERTEX
  8
0
  5
10829
 10
60.8825
 20
24.0155
 30
0.000000
  70
    32
  0
VERTEX
  8
0
  5
1082A
 10
60.8977
 20
24.0414
 30
0.000000
  70
    32
  0
VERTEX
  8
0
  5
1082B
 10
60.9129
 20
24.0673
 30
0.000000
  70
    32
  0
VERTEX
  8
0
  5
1082C
 10
60.9282
 20
24.0932
 30
0.000000
  70
    32
  0
VERTEX
  8
0
  5
1082D
 10
60.9435
 20
24.1190
 30
0.000000
  70
    32
  0
VERTEX
  8
0
  5
1082E
 10
60.9588
 20
24.1449
 30
0.000000
  70
    32
  0
VERTEX
  8
0
  5
1082F
 10
60.9742
 20
24.1707
 30
0.000000
  70
    32
  0
SEQEND
  8
0
  5
10830
  0
POLYLINE
  8
0
  5
10831
  66
     1
 10
0.000000
 20
0.000000
 30
0.000000
  70
     8
  0
VERTEX
  8
0
  5
10832
 10
60.0000
 20
10.0000
 30
0.000000
  70
    32
  0
VERTEX
  8
0
  5
10833
 10
60.0387
 20
10.0255
 30
0.000000
  70
    32
  0
VERTEX
  8
0
  5
10834
 10
60.0773
 20
10.0510
 30
0.000000
  70
    32
  0
VERTEX
  8
0
  5
10835
 10
60.1159
 20
10.0766
 30
0.000000
  70
    32
  0
VERTEX
  8
0
  5
10836
 10
60.1544
 20
10.1023
 30
0.000000
  70
    32
  0
VERTEX
  8
0
  5
10837
 10
60.1929
 20
10.1281
 30
0.000000
  70
    32
  0
VERTEX
  8
0
  5
10838
 10
60.2313
 20
10.1539
 30
0.000000
  70
    32
  0
VERTEX
  8
0
  5
10839
 10
60.2697
 20
10.1799
 30
0.000000
  70
    32
  0
VERTEX
  8
0
  5
1083A
 10
60.3080
 20
10.2059
 30
0.000000
  70
    32
  0
VERTEX
  8
0
  5
1083B
 10
60.3463
 20
10.2320
 30
0.000000
  70
    32
  0
VERTEX
  8
0
  5
1083C
 10
60.3845
 20
10.2581
 30
0.000000
  70
    32
  0
VERTEX
  8
0
  5
1083D
 10
60.4227
 20
10.2844
 30
0.000000
  70
    32
  0
VERTEX
  8
0
  5
1083E
 10
60.4608
 20
10.3107
 30
0.000000
  70
    32
  0
VERTEX
  8
0
  5
1083F
 10
60.4989
 20
10.3371
 30
0.000000
  70
    32
  0
VERTEX
  8
0
  5
10840
 10
60.5369
 20
10.3636
 30
0.000000
  70
    32
  0
VERTEX
  8
0
  5
10841
 10
60.5749
 20
10.3901
 30
0.000000
  70
    32
  0
VERTEX
  8
0
  5
10842
 10
60.6128
 20
10.4168
 30
0.000000
  70
    32
  0
VERTEX
  8
0
  5
10843
 10
60.6506
 20
10.4435
 30
0.000000
  70
    32
  0
VERTEX
  8
0
  5
10844
 10
60.6884
 20
10.4703
 30
0.000000
  70
    32
  0
VERTEX
  8
0
  5
10845
 10
60.7261
 20
10.4971
 30
0.000000
  70
    32
  0
VERTEX
  8
0
  5
10846
 10
60.7638
 20
10.5241
 30
0.000000
  70
    32
  0
VERTEX
  8
0
  5
10847
 10
60.8015
 20
10.5511
 30
0.000000
  70
    32
  0
VERTEX
  8
0
  5
10848
 10
60.8390
 20
10.5782
 30
0.000000
  70
    32
  0
VERTEX
  8
0
  5
10849
 10
60.8766
 20
10.6054
 30
0.000000
  70
    32
  0
VERTEX
  8
0
  5
1084A
 10
60.9140
 20
10.6326
 30
0.000000
  70
    32
  0
VERTEX
  8
0
  5
1084B
 10
60.9514
 20
10.6600
 30
0.000000
  70
    32
  0
VERTEX
  8
0
  5
1084C
 10
60.9888
 20
10.6874
 30
0.000000
  70
    32
  0
VERTEX
  8
0
  5
1084D
 10
61.0261
 20
10.7149
 30
0.000000
  70
    32
  0
VERTEX
  8
0
  5
1084E
 10
61.0633
 20
10.7424
 30
0.000000
  70
    32
  0
VERTEX
  8
0
  5
1084F
 10
61.1005
 20
10.7701
 30
0.000000
  70
    32
  0
VERTEX
  8
0
  5
10850
 10
61.1376
 20
10.7978
 30
0.000000
  70
    32
  0
VERTEX
  8
0
  5
10851
 10
61.1747
 20
10.8256
 30
0.000000
  70
    32
  0
VERTEX
  8
0
  5
10852
 10
61.2117
 20
10.8535
 30
0.000000
  70
    32
  0
VERTEX
  8
0
  5
10853
 10
61.2487
 20
10.8814
 30
0.000000
  70
    32
  0
VERTEX
  8
0
  5
10854
 10
61.2856
 20
10.9094
 30
0.000000
  70
    32
  0
VERTEX
  8
0
  5
10855
 10
61.3224
 20
10.9375
 30
0.000000
  70
    32
  0
VERTEX
  8
0
  5
10856
 10
61.3592
 20
10.9657
 30
0.000000
  70
    32
  0
VERTEX
  8
0
  5
10857
 10
61.3959
 20
10.9940
 30
0.000000
  70
    32
  0
VERTEX
  8
0
  5
10858
 10
61.4326
 20
11.0223
 30
0.000000
  70
    32
  0
VERTEX
  8
0
  5
10859
 10
61.4692
 20
11.0507
 30
0.000000
  70
    32
  0
VERTEX
  8
0
  5
1085A
 10
61.5057
 20
11.0792
 30
0.000000
  70
    32
  0
VERTEX
  8
0
  5
1085B
 10
61.5422
 20
11.1078
 30
0.000000
  70
    32
  0
VERTEX
  8
0
  5
1085C
 10
61.5786
 20
11.1364
 30
0.000000
  70
    32
  0
VERTEX
  8
0
  5
1085D
 10
61.6150
 20
11.1652
 30
0.000000
  70
    32
  0
VERTEX
  8
0
  5
1085E
 10
61.6513
 20
11.1939
 30
0.000000
  70
    32
  0
VERTEX
  8
0
  5
1085F
 10
61.6875
 20
11.2228
 30
0.000000
  70
    32
  0
VERTEX
  8
0
  5
10860
 10
61.7237
 20
11.2518
 30
0.000000
  70
    32
  0
VERTEX
  8
0
  5
10861
 10
61.7598
 20
11.2808
 30
0.000000
  70
    32
  0
VERTEX
  8
0
  5
10862
 10
61.7959
 20
11.3099
 30
0.000000
  70
    32
  0
VERTEX
  8
0
  5
10863
 10
61.8318
 20
11.3391
 30
0.000000
  70
    32
  0
VERTEX
  8
0
  5
10864
 10
61.8678
 20
11.3683
 30
0.000000
  70
    32
  0
VERTEX
  8
0
  5
10865
 10
61.9036
 20
11.3977
 30
0.000000
  70
    32
  0
VERTEX
  8
0
  5
10866
 10
61.9395
 20
11.4271
 30
0.000000
  70
    32
  0
VERTEX
  8
0
  5
10867
 10
61.9752
 20
11.4566
 30
0.000000
  70
    32
  0
VERTEX
  8
0
  5
10868
 10
62.0109
 20
11.4861
 30
0.000000
  70
    32
  0
VERTEX
  8
0
  5
10869
 10
62.0465
 20
11.5158
 30
0.000000
  70
    32
  0
VERTEX
  8
0
  5
1086A
 10
62.0820
 20
11.5455
 30
0.000000
  70
    32
  0
VERTEX
  8
0
  5
1086B
 10
62.1175
 20
11.5753
 30
0.000000
  70
    32
  0
VERTEX
  8
0
  5
1086C
 10
62.1529
 20
11.6051
 30
0.000000
  70
    32
  0
VERTEX
  8
0
  5
1086D
 10
62.1883
 20
11.6351
 30
0.000000
  70
    32
  0
VERTEX
  8
0
  5
1086E
 10
62.2236
 20
11.6651
 30
0.000000
  70
    32
  0
VERTEX
  8
0
  5
1086F
 10
62.2588
 20
11.6952
 30
0.000000
  70
    32
  0
VERTEX
  8
0
  5
10870
 10
62.2940
 20
11.7254
 30
0.000000
  70
    32
  0
VERTEX
  8
0
  5
10871
 10
62.3291
 20
11.7556
 30
0.000000
  70
    32
  0
VERTEX
  8
0
  5
10872
 10
62.3641
 20
11.7859
 30
0.000000
  70
    32
  0
VERTEX
  8
0
  5
10873
 10
62.3991
 20
11.8163
 30
0.000000
  70
    32
  0
VERTEX
  8
0
  5
10874
 10
62.4340
 20
11.8468
 30
0.000000
  70
    32
  0
VERTEX
  8
0
  5
10875
 10
62.4688
 20
11.8774
 30
0.000000
  70
    32
  0
VERTEX
  8
0
  5
10876
 10
62.5036
 20
11.9080
 30
0.000000
  70
    32
  0
VERTEX
  8
0
  5
10877
 10
62.5382
 20
11.9387
 30
0.000000
  70
    32
  0
VERTEX
  8
0
  5
10878
 10
62.5729
 20
11.9695
 30
0.000000
  70
    32
  0
VERTEX
  8
0
  5
10879
 10
62.6074
 20
12.0004
 30
0.000000
  70
    32
  0
VERTEX
  8
0
  5
1087A
 10
62.6419
 20
12.0313
 30
0.000000
  70
    32
  0
VERTEX
  8
0
  5
1087B
 10
62.6763
 20
12.0623
 30
0.000000
  70
    32
  0
VERTEX
  8
0
  5
1087C
 10
62.7107
 20
12.0934
 30
0.000000
  70
    32
  0
VERTEX
  8
0
  5
1087D
 10
62.7450
 20
12.1246
 30
0.000000
  70
    32
  0
VERTEX
  8
0
  5
1087E
 10
62.7792
 20
12.1558
 30
0.000000
  70
    32
  0
VERTEX
  8
0
  5
1087F
 10
62.8133
 20
12.1871
 30
0.000000
  70
    32
  0
VERTEX
  8
0
  5
10880
 10
62.8474
 20
12.2185
 30
0.000000
  70
    32
  0
VERTEX
  8
0
  5
10881
 10
62.8814
 20
12.2500
 30
0.000000
  70
    32
  0
VERTEX
  8
0
  5
10882
 10
62.9153
 20
12.2815
 30
0.000000
  70
    32
  0
VERTEX
  8
0
  5
10883
 10
62.9492
 20
12.3132
 30
0.000000
  70
    32
  0
VERTEX
  8
0
  5
10884
 10
62.9830
 20
12.3449
 30
0.000000
  70
    32
  0
VERTEX
  8
0
  5
10885
 10
63.0167
 20
12.3766
 30
0.000000
  70
    32
  0
VERTEX
  8
0
  5
10886
 10
63.0503
 20
12.4085
 30
0.000000
  70
    32
  0
VERTEX
  8
0
  5
10887
 10
63.0839
 20
12.4404
 30
0.000000
  70
    32
  0
VERTEX
  8
0
  5
10888
 10
63.1174
 20
12.4724
 30
0.000000
  70
    32
  0
VERTEX
  8
0
  5
10889
 10
63.1508
 20
12.5045
 30
0.000000
  70
    32
  0
VERTEX
  8
0
  5
1088A
 10
63.1842
 20
12.5367
 30
0.000000
  70
    32
  0
VERTEX
  8
0
  5
1088B
 10
63.2174
 20
12.5689
 30
0.000000
  70
    32
  0
VERTEX
  8
0
  5
1088C
 10
63.2506
 20
12.6012
 30
0.000000
  70
    32
  0
VERTEX
  8
0
  5
1088D
 10
63.2838
 20
12.6336
 30
0.000000
  70
    32
  0
VERTEX
  8
0
  5
1088E
 10
63.3168
 20
12.6660
 30
0.000000
  70
    32
  0
VERTEX
  8
0
  5
1088F
 10
63.3498
 20
12.6986
 30
0.000000
  70
    32
  0
VERTEX
  8
0
  5
10890
 10
63.3827
 20
12.7312
 30
0.000000
  70
    32
  0
VERTEX
  8
0
  5
10891
 10
63.4155
 20
12.7639
 30
0.000000
  70
    32
  0
VERTEX
  8
0
  5
10892
 10
63.4483
 20
12.7966
 30
0.000000
  70
    32
  0
VERTEX
  8
0
  5
10893
 10
63.4810
 20
12.8295
 30
0.000000
  70
    32
  0
VERTEX
  8
0
  5
10894
 10
63.5136
 20
12.8624
 30
0.000000
  70
    32
  0
VERTEX
  8
0
  5
10895
 10
63.5461
 20
12.8954
 30
0.000000
  70
    32
  0
VERTEX
  8
0
  5
10896
 10
63.5785
 20
12.9285
 30
0.000000
  70
    32
  0
VERTEX
  8
0
  5
10897
 10
63.6109
 20
12.9616
 30
0.000000
  70
    32
  0
VERTEX
  8
0
  5
10898
 10
63.6432
 20
12.9948
 30
0.000000
  70
    32
  0
VERTEX
  8
0
  5
10899
 10
63.6754
 20
13.0281
 30
0.000000
  70
    32
  0
VERTEX
  8
0
  5
1089A
 10
63.7076
 20
13.0615
 30
0.000000
  70
    32
  0
VERTEX
  8
0
  5
1089B
 10
63.7396
 20
13.0949
 30
0.000000
  70
    32
  0
VERTEX
  8
0
  5
1089C
 10
63.7716
 20
13.1284
 30
0.000000
  70
    32
  0
VERTEX
  8
0
  5
1089D
 10
63.8035
 20
13.1620
 30
0.000000
  70
    32
  0
VERTEX
  8
0
  5
1089E
 10
63.8354
 20
13.1957
 30
0.000000
  70
    32
  0
VERTEX
  8
0
  5
1089F
 10
63.8671
 20
13.2294
 30
0.000000
  70
    32
  0
VERTEX
  8
0
  5
108A0
 10
63.8988
 20
13.2632
 30
0.000000
  70
    32
  0
VERTEX
  8
0
  5
108A1
 10
63.9304
 20
13.2971
 30
0.000000
  70
    32
  0
VERTEX
  8
0
  5
108A2
 10
63.9619
 20
13.3311
 30
0.000000
  70
    32
  0
VERTEX
  8
0
  5
108A3
 10
63.9934
 20
13.3651
 30
0.000000
  70
    32
  0
VERTEX
  8
0
  5
108A4
 10
64.0247
 20
13.3992
 30
0.000000
  70
    32
  0
VERTEX
  8
0
  5
108A5
 10
64.0560
 20
13.4334
 30
0.000000
  70
    32
  0
VERTEX
  8
0
  5
108A6
 10
64.0872
 20
13.4676
 30
0.000000
  70
    32
  0
VERTEX
  8
0
  5
108A7
 10
64.1184
 20
13.5020
 30
0.000000
  70
    32
  0
VERTEX
  8
0
  5
108A8
 10
64.1494
 20
13.5364
 30
0.000000
  70
    32
  0
VERTEX
  8
0
  5
108A9
 10
64.1804
 20
13.5708
 30
0.000000
  70
    32
  0
VERTEX
  8
0
  5
108AA
 10
64.2113
 20
13.6054
 30
0.000000
  70
    32
  0
VERTEX
  8
0
  5
108AB
 10
64.2421
 20
13.6400
 30
0.000000
  70
    32
  0
VERTEX
  8
0
  5
108AC
 10
64.2728
 20
13.6746
 30
0.000000
  70
    32
  0
VERTEX
  8
0
  5
108AD
 10
64.3034
 20
13.7094
 30
0.000000
  70
    32
  0
VERTEX
  8
0
  5
108AE
 10
64.3340
 20
13.7442
 30
0.000000
  70
    32
  0
VERTEX
  8
0
  5
108AF
 10
64.3645
 20
13.7791
 30
0.000000
  70
    32
  0
VERTEX
  8
0
  5
108B0
 10
64.3949
 20
13.8141
 30
0.000000
  70
    32
  0
VERTEX
  8
0
  5
108B1
 10
64.4252
 20
13.8491
 30
0.000000
  70
    32
  0
VERTEX
  8
0
  5
108B2
 10
64.4555
 20
13.8842
 30
0.000000
  70
    32
  0
VERTEX
  8
0
  5
108B3
 10
64.4856
 20
13.9194
 30
0.000000
  70
    32
  0
VERTEX
  8
0
  5
108B4
 10
64.5157
 20
13.9546
 30
0.000000
  70
    32
  0
VERTEX
  8
0
  5
108B5
 10
64.5457
 20
13.9899
 30
0.000000
  70
    32
  0
VERTEX
  8
0
  5
108B6
 10
64.5756
 20
14.0253
 30
0.000000
  70
    32
  0
VERTEX
  8
0
  5
108B7
 10
64.6055
 20
14.0607
 30
0.000000
  70
    32
  0
VERTEX
  8
0
  5
108B8
 10
64.6352
 20
14.0962
 30
0.000000
  70
    32
  0
VERTEX
  8
0
  5
108B9
 10
64.6649
 20
14.1318
 30
0.000000
  70
    32
  0
VERTEX
  8
0
  5
108BA
 10
64.6945
 20
14.1675
 30
0.000000
  70
    32
  0
VERTEX
  8
0
  5
108BB
 10
64.7240
 20
14.2032
 30
0.000000
  70
    32
  0
VERTEX
  8
0
  5
108BC
 10
64.7534
 20
14.2390
 30
0.000000
  70
    32
  0
VERTEX
  8
0
  5
108BD
 10
64.7828
 20
14.2748
 30
0.000000
  70
    32
  0
VERTEX
  8
0
  5
108BE
 10
64.8120
 20
14.3108
 30
0.000000
  70
    32
  0
VERTEX
  8
0
  5
108BF
 10
64.8412
 20
14.3468
 30
0.000000
  70
    32
  0
VERTEX
  8
0
  5
108C0
 10
64.8703
 20
14.3828
 30
0.000000
  70
    32
  0
VERTEX
  8
0
  5
108C1
 10
64.8993
 20
14.4189
 30
0.000000
  70
    32
  0
VERTEX
  8
0
  5
108C2
 10
64.9283
 20
14.4551
 30
0.000000
  70
    32
  0
VERTEX
  8
0
  5
108C3
 10
64.9571
 20
14.4914
 30
0.000000
  70
    32
  0
VERTEX
  8
0
  5
108C4
 10
64.9859
 20
14.5277
 30
0.000000
  70
    32
  0
VERTEX
  8
0
  5
108C5
 10
65.0145
 20
14.5641
 30
0.000000
  70
    32
  0
VERTEX
  8
0
  5
108C6
 10
65.0431
 20
14.6006
 30
0.000000
  70
    32
  0
VERTEX
  8
0
  5
108C7
 10
65.0716
 20
14.6371
 30
0.000000
  70
    32
  0
VERTEX
  8
0
  5
108C8
 10
65.1001
 20
14.6737
 30
0.000000
  70
    32
  0
VERTEX
  8
0
  5
108C9
 10
65.1284
 20
14.7103
 30
0.000000
  70
    32
  0
VERTEX
  8
0
  5
108CA
 10
65.1567
 20
14.7470
 30
0.000000
  70
    32
  0
VERTEX
  8
0
  5
108CB
 10
65.1848
 20
14.7838
 30
0.000000
  70
    32
  0
VERTEX
  8
0
  5
108CC
 10
65.2129
 20
14.8207
 30
0.000000
  70
    32
  0
VERTEX
  8
0
  5
108CD
 10
65.2409
 20
14.8576
 30
0.000000
  70
    32
  0
VERTEX
  8
0
  5
108CE
 10
65.2689
 20
14.8945
 30
0.000000
  70
    32
  0
VERTEX
  8
0
  5
108CF
 10
65.2967
 20
14.9316
 30
0.000000
  70
    32
  0
VERTEX
  8
0
  5
108D0
 10
65.3244
 20
14.9687
 30
0.000000
  70
    32
  0
VERTEX
  8
0
  5
108D1
 10
65.3521
 20
15.0058
 30
0.000000
  70
    32
  0
VERTEX
  8
0
  5
108D2
 10
65.3797
 20
15.0431
 30
0.000000
  70
    32
  0
VERTEX
  8
0
  5
108D3
 10
65.4072
 20
15.0803
 30
0.000000
  70
    32
  0
VERTEX
  8
0
  5
108D4
 10
65.4346
 20
15.1177
 30
0.000000
  70
    32
  0
VERTEX
  8
0
  5
108D5
 10
65.4620
 20
15.1551
 30
0.000000
  70
    32
  0
VERTEX
  8
0
  5
108D6
 10
65.4892
 20
15.1926
 30
0.000000
  70
    32
  0
VERTEX
  8
0
  5
108D7
 10
65.5164
 20
15.2301
 30
0.000000
  70
    32
  0
VERTEX
  8
0
  5
108D8
 10
65.5435
 20
15.2677
 30
0.000000
  70
    32
  0
VERTEX
  8
0
  5
108D9
 10
65.5705
 20
15.3053
 30
0.000000
  70
    32
  0
VERTEX
  8
0
  5
108DA
 10
65.5974
 20
15.3430
 30
0.000000
  70
    32
  0
VERTEX
  8
0
  5
108DB
 10
65.6242
 20
15.3808
 30
0.000000
  70
    32
  0
VERTEX
  8
0
  5
108DC
 10
65.6510
 20
15.4186
 30
0.000000
  70
    32
  0
VERTEX
  8
0
  5
108DD
 10
65.6776
 20
15.4565
 30
0.000000
  70
    32
  0
VERTEX
  8
0
  5
108DE
 10
65.7042
 20
15.4945
 30
0.000000
  70
    32
  0
VERTEX
  8
0
  5
108DF
 10
65.7307
 20
15.5325
 30
0.000000
  70
    32
  0
VERTEX
  8
0
  5
108E0
 10
65.7572
 20
15.5705
 30
0.000000
  70
    32
  0
VERTEX
  8
0
  5
108E1
 10
65.7835
 20
15.6086
 30
0.000000
  70
    32
  0
VERTEX
  8
0
  5
108E2
 10
65.8097
 20
15.6468
 30
0.000000
  70
    32
  0
VERTEX
  8
0
  5
108E3
 10
65.8359
 20
15.6851
 30
0.000000
  70
    32
  0
VERTEX
  8
0
  5
108E4
 10
65.8620
 20
15.7233
 30
0.000000
  70
    32
  0
VERTEX
  8
0
  5
108E5
 10
65.8880
 20
15.7617
 30
0.000000
  70
    32
  0
VERTEX
  8
0
  5
108E6
 10
65.9139
 20
15.8001
 30
0.000000
  70
    32
  0
VERTEX
  8
0
  5
108E7
 10
65.9397
 20
15.8386
 30
0.000000
  70
    32
  0
VERTEX
  8
0
  5
108E8
 10
65.9655
 20
15.8771
 30
0.000000
  70
    32
  0
VERTEX
  8
0
  5
108E9
 10
65.9911
 20
15.9157
 30
0.000000
  70
    32
  0
VERTEX
  8
0
  5
108EA
 10
66.0167
 20
15.9543
 30
0.000000
  70
    32
  0
VERTEX
  8
0
  5
108EB
 10
66.0422
 20
15.9930
 30
0.000000
  70
    32
  0
VERTEX
  8
0
  5
108EC
 10
66.0676
 20
16.0317
 30
0.000000
  70
    32
  0
VERTEX
  8
0
  5
108ED
 10
66.0930
 20
16.0705
 30
0.000000
  70
    32
  0
VERTEX
  8
0
  5
108EE
 10
66.1182
 20
16.1093
 30
0.000000
  70
    32
  0
VERTEX
  8
0
  5
108EF
 10
66.1434
 20
16.1482
 30
0.000000
  70
    32
  0
VERTEX
  8
0
  5
108F0
 10
66.1685
 20
16.1872
 30
0.000000
  70
    32
  0
VERTEX
  8
0
  5
108F1
 10
66.1935
 20
16.2262
 30
0.000000
  70
    32
  0
VERTEX
  8
0
  5
108F2
 10
66.2184
 20
16.2653
 30
0.000000
  70
    32
  0
VERTEX
  8
0
  5
108F3
 10
66.2432
 20
16.3044
 30
0.000000
  70
    32
  0
VERTEX
  8
0
  5
108F4
 10
66.2680
 20
16.3435
 30
0.000000
  70
    32
  0
VERTEX
  8
0
  5
108F5
 10
66.2926
 20
16.3828
 30
0.000000
  70
    32
  0
VERTEX
  8
0
  5
108F6
 10
66.3172
 20
16.4220
 30
0.000000
  70
    32
  0
VERTEX
  8
0
  5
108F7
 10
66.3417
 20
16.4613
 30
0.000000
  70
    32
  0
VERTEX
  8
0
  5
108F8
 10
66.3661
 20
16.5007
 30
0.000000
  70
    32
  0
VERTEX
  8
0
  5
108F9
 10
66.3904
 20
16.5401
 30
0.000000
  70
    32
  0
VERTEX
  8
0
  5
108FA
 10
66.4147
 20
16.5796
 30
0.000000
  70
    32
  0
VERTEX
  8
0
  5
108FB
 10
66.4388
 20
16.6191
 30
0.000000
  70
    32
  0
VERTEX
  8
0
  5
108FC
 10
66.4629
 20
16.6587
 30
0.000000
  70
    32
  0
VERTEX
  8
0
  5
108FD
 10
66.4869
 20
16.6984
 30
0.000000
  70
    32
  0
VERTEX
  8
0
  5
108FE
 10
66.5108
 20
16.7380
 30
0.000000
  70
    32
  0
VERTEX
  8
0
  5
108FF
 10
66.5346
 20
16.7778
 30
0.000000
  70
    32
  0
VERTEX
  8
0
  5
10900
 10
66.5584
 20
16.8175
 30
0.000000
  70
    32
  0
VERTEX
  8
0
  5
10901
 10
66.5820
 20
16.8574
 30
0.000000
  70
    32
  0
VERTEX
  8
0
  5
10902
 10
66.6056
 20
16.8973
 30
0.000000
  70
    32
  0
VERTEX
  8
0
  5
10903
 10
66.6291
 20
16.9372
 30
0.000000
  70
    32
  0
VERTEX
  8
0
  5
10904
 10
66.6525
 20
16.9772
 30
0.000000
  70
    32
  0
VERTEX
  8
0
  5
10905
 10
66.6758
 20
17.0172
 30
0.000000
  70
    32
  0
VERTEX
  8
0
  5
10906
 10
66.6991
 20
17.0573
 30
0.000000
  70
    32
  0
VERTEX
  8
0
  5
10907
 10
66.7222
 20
17.0974
 30
0.000000
  70
    32
  0
VERTEX
  8
0
  5
10908
 10
66.7453
 20
17.1376
 30
0.000000
  70
    32
  0
VERTEX
  8
0
  5
10909
 10
66.7683
 20
17.1778
 30
0.000000
  70
    32
  0
VERTEX
  8
0
  5
1090A
 10
66.7912
 20
17.2181
 30
0.000000
  70
    32
  0
VERTEX
  8
0
  5
1090B
 10
66.8140
 20
17.2584
 30
0.000000
  70
    32
  0
VERTEX
  8
0
  5
1090C
 10
66.8368
 20
17.2987
 30
0.000000
  70
    32
  0
VERTEX
  8
0
  5
1090D
 10
66.8594
 20
17.3391
 30
0.000000
  70
    32
  0
VERTEX
  8
0
  5
1090E
 10
66.8820
 20
17.3796
 30
0.000000
  70
    32
  0
VERTEX
  8
0
  5
1090F
 10
66.9045
 20
17.4201
 30
0.000000
  70
    32
  0
VERTEX
  8
0
  5
10910
 10
66.9269
 20
17.4607
 30
0.000000
  70
    32
  0
VERTEX
  8
0
  5
10911
 10
66.9492
 20
17.5013
 30
0.000000
  70
    32
  0
VERTEX
  8
0
  5
10912
 10
66.9714
 20
17.5419
 30
0.000000
  70
    32
  0
VERTEX
  8
0
  5
10913
 10
66.9935
 20
17.5826
 30
0.000000
  70
    32
  0
VERTEX
  8
0
  5
10914
 10
67.0156
 20
17.6233
 30
0.000000
  70
    32
  0
VERTEX
  8
0
  5
10915
 10
67.0376
 20
17.6641
 30
0.000000
  70
    32
  0
VERTEX
  8
0
  5
10916
 10
67.0595
 20
17.7050
 30
0.000000
  70
    32
  0
VERTEX
  8
0
  5
10917
 10
67.0813
 20
17.7458
 30
0.000000
  70
    32
  0
VERTEX
  8
0
  5
10918
 10
67.1030
 20
17.7868
 30
0.000000
  70
    32
  0
VERTEX
  8
0
  5
10919
 10
67.1247
 20
17.8277
 30
0.000000
  70
    32
  0
VERTEX
  8
0
  5
1091A
 10
67.1462
 20
17.8687
 30
0.000000
  70
    32
  0
VERTEX
  8
0
  5
1091B
 10
67.1677
 20
17.9098
 30
0.000000
  70
    32
  0
VERTEX
  8
0
  5
1091C
 10
67.1891
 20
17.9509
 30
0.000000
  70
    32
  0
VERTEX
  8
0
  5
1091D
 10
67.2104
 20
17.9920
 30
0.000000
  70
    32
  0
VERTEX
  8
0
  5
1091E
 10
67.2316
 20
18.0332
 30
0.000000
  70
    32
  0
VERTEX
  8
0
  5
1091F
 10
67.2527
 20
18.0744
 30
0.000000
  70
    32
  0
VERTEX
  8
0
  5
10920
 10
67.2738
 20
18.1157
 30
0.000000
  70
    32
  0
VERTEX
  8
0
  5
10921
 10
67.2947
 20
18.1570
 30
0.000000
  70
    32
  0
VERTEX
  8
0
  5
10922
 10
67.3156
 20
18.1984
 30
0.000000
  70
    32
  0
VERTEX
  8
0
  5
10923
 10
67.3364
 20
18.2398
 30
0.000000
  70
    32
  0
VERTEX
  8
0
  5
10924
 10
67.3571
 20
18.2812
 30
0.000000
  70
    32
  0
VERTEX
  8
0
  5
10925
 10
67.3778
 20
18.3227
 30
0.000000
  70
    32
  0
VERTEX
  8
0
  5
10926
 10
67.3983
 20
18.3643
 30
0.000000
  70
    32
  0
VERTEX
  8
0
  5
10927
 10
67.4188
 20
18.4058
 30
0.000000
  70
    32
  0
VERTEX
  8
0
  5
10928
 10
67.4391
 20
18.4474
 30
0.000000
  70
    32
  0
VERTEX
  8
0
  5
10929
 10
67.4594
 20
18.4891
 30
0.000000
  70
    32
  0
VERTEX
  8
0
  5
1092A
 10
67.4796
 20
18.5308
 30
0.000000
  70
    32
  0
VERTEX
  8
0
  5
1092B
 10
67.4997
 20
18.5725
 30
0.000000
  70
    32
  0
VERTEX
  8
0
  5
1092C
 10
67.5198
 20
18.6143
 30
0.000000
  70
    32
  0
VERTEX
  8
0
  5
1092D
 10
67.5397
 20
18.6561
 30
0.000000
  70
    32
  0
VERTEX
  8
0
  5
1092E
 10
67.5596
 20
18.6980
 30
0.000000
  70
    32
  0
VERTEX
  8
0
  5
1092F
 10
67.5793
 20
18.7399
 30
0.000000
  70
    32
  0
VERTEX
  8
0
  5
10930
 10
67.5990
 20
18.7818
 30
0.000000
  70
    32
  0
VERTEX
  8
0
  5
10931
 10
67.6186
 20
18.8238
 30
0.000000
  70
    32
  0
VERTEX
  8
0
  5
10932
 10
67.6382
 20
18.8658
 30
0.000000
  70
    32
  0
VERTEX
  8
0
  5
10933
 10
67.6576
 20
18.9079
 30
0.000000
  70
    32
  0
VERTEX
  8
0
  5
10934
 10
67.6769
 20
18.9500
 30
0.000000
  70
    32
  0
VERTEX
  8
0
  5
10935
 10
67.6962
 20
18.9921
 30
0.000000
  70
    32
  0
VERTEX
  8
0
  5
10936
 10
67.7154
 20
19.0343
 30
0.000000
  70
    32
  0
VERTEX
  8
0
  5
10937
 10
67.7345
 20
19.0765
 30
0.000000
  70
    32
  0
VERTEX
  8
0
  5
10938
 10
67.7535
 20
19.1188
 30
0.000000
  70
    32
  0
VERTEX
  8
0
  5
10939
 10
67.7724
 20
19.1611
 30
0.000000
  70
    32
  0
VERTEX
  8
0
  5
1093A
 10
67.7913
 20
19.2034
 30
0.000000
  70
    32
  0
VERTEX
  8
0
  5
1093B
 10
67.8100
 20
19.2458
 30
0.000000
  70
    32
  0
VERTEX
  8
0
  5
1093C
 10
67.8287
 20
19.2882
 30
0.000000
  70
    32
  0
VERTEX
  8
0
  5
1093D
 10
67.8472
 20
19.3306
 30
0.000000
  70
    32
  0
VERTEX
  8
0
  5
1093E
 10
67.8657
 20
19.3731
 30
0.000000
  70
    32
  0
VERTEX
  8
0
  5
1093F
 10
67.8841
 20
19.4156
 30
0.000000
  70
    32
  0
VERTEX
  8
0
  5
10940
 10
67.9025
 20
19.4581
 30
0.000000
  70
    32
  0
VERTEX
  8
0
  5
10941
 10
67.9207
 20
19.5007
 30
0.000000
  70
    32
  0
VERTEX
  8
0
  5
10942
 10
67.9388
 20
19.5434
 30
0.000000
  70
    32
  0
VERTEX
  8
0
  5
10943
 10
67.9569
 20
19.5860
 30
0.000000
  70
    32
  0
VERTEX
  8
0
  5
10944
 10
67.9749
 20
19.6287
 30
0.000000
  70
    32
  0
VERTEX
  8
0
  5
10945
 10
67.9928
 20
19.6714
 30
0.000000
  70
    32
  0
VERTEX
  8
0
  5
10946
 10
68.0106
 20
19.7142
 30
0.000000
  70
    32
  0
VERTEX
  8
0
  5
10947
 10
68.0283
 20
19.7570
 30
0.000000
  70
    32
  0
VERTEX
  8
0
  5
10948
 10
68.0459
 20
19.7998
 30
0.000000
  70
    32
  0
VERTEX
  8
0
  5
10949
 10
68.0635
 20
19.8427
 30
0.000000
  70
    32
  0
VERTEX
  8
0
  5
1094A
 10
68.0809
 20
19.8856
 30
0.000000
  70
    32
  0
VERTEX
  8
0
  5
1094B
 10
68.0983
 20
19.9285
 30
0.000000
  70
    32
  0
VERTEX
  8
0
  5
1094C
 10
68.1156
 20
19.9715
 30
0.000000
  70
    32
  0
VERTEX
  8
0
  5
1094D
 10
68.1328
 20
20.0145
 30
0.000000
  70
    32
  0
VERTEX
  8
0
  5
1094E
 10
68.1499
 20
20.0575
 30
0.000000
  70
    32
  0
VERTEX
  8
0
  5
1094F
 10
68.1669
 20
20.1006
 30
0.000000
  70
    32
  0
VERTEX
  8
0
  5
10950
 10
68.1839
 20
20.1437
 30
0.000000
  70
    32
  0
VERTEX
  8
0
  5
10951
 10
68.2007
 20
20.1868
 30
0.000000
  70
    32
  0
SEQEND
  8
0
  5
10952
  0
LINE
  5
FA1E
  8
0
 10
47.499955999999649
 20
16.00001999999995
 30
0.0
 11
45.999954999999311
 21
10.000019999999941
 31
0.0
  0
LINE
  5
FA1F
  8
0
 10
43.671027000000322
 20
24.52635000000009
 30
0.0
 11
38.234333000000333
 21
21.419669999999989
 31
0.0
  0
LINE
  5
FA20
  8
0
 10
49.0
 20
25.22545000000013
 30
0.0
 11
49.0
 21
16.0
 31
0.0
  0
LINE
  5
FA21
  8
0
 10
49.999964000000539
 20
26.225490000000029
 30
0.0
 11
48.999963000000207
 21
25.225490000000029
 31
0.0
  0
ARC
  5
FA22
  8
0
 10
44.167481000000407
 20
23.657570000000071
 30
0.0
 40
1.0
 50
30.852850000001808
 51
119.7448839999871
  0
ARC
  5
FA23
  8
0
 10
38.730461000000098
 20
20.55146000000013
 30
0.0
 40
1.0
 50
119.7448839999871
 51
201.27633999997619
  0
POLYLINE
  8
0
  5
10953
  66
     1
 10
0.000000
 20
0.000000
 30
0.000000
  70
     8
  0
VERTEX
  8
0
  5
10954
 10
47.5000
 20
16.0000
 30
0.000000
  70
    32
  0
VERTEX
  8
0
  5
10955
 10
47.4984
 20
16.0300
 30
0.000000
  70
    32
  0
VERTEX
  8
0
  5
10956
 10
47.4968
 20
16.0600
 30
0.000000
  70
    32
  0
VERTEX
  8
0
  5
10957
 10
47.4951
 20
16.0900
 30
0.000000
  70
    32
  0
VERTEX
  8
0
  5
10958
 10
47.4934
 20
16.1200
 30
0.000000
  70
    32
  0
VERTEX
  8
0
  5
10959
 10
47.4916
 20
16.1500
 30
0.000000
  70
    32
  0
VERTEX
  8
0
  5
1095A
 10
47.4898
 20
16.1800
 30
0.000000
  70
    32
  0
VERTEX
  8
0
  5
1095B
 10
47.4879
 20
16.2100
 30
0.000000
  70
    32
  0
VERTEX
  8
0
  5
1095C
 10
47.4860
 20
16.2399
 30
0.000000
  70
    32
  0
VERTEX
  8
0
  5
1095D
 10
47.4840
 20
16.2699
 30
0.000000
  70
    32
  0
VERTEX
  8
0
  5
1095E
 10
47.4820
 20
16.2999
 30
0.000000
  70
    32
  0
VERTEX
  8
0
  5
1095F
 10
47.4800
 20
16.3299
 30
0.000000
  70
    32
  0
VERTEX
  8
0
  5
10960
 10
47.4779
 20
16.3598
 30
0.000000
  70
    32
  0
VERTEX
  8
0
  5
10961
 10
47.4757
 20
16.3898
 30
0.000000
  70
    32
  0
VERTEX
  8
0
  5
10962
 10
47.4735
 20
16.4198
 30
0.000000
  70
    32
  0
VERTEX
  8
0
  5
10963
 10
47.4712
 20
16.4497
 30
0.000000
  70
    32
  0
VERTEX
  8
0
  5
10964
 10
47.4689
 20
16.4797
 30
0.000000
  70
    32
  0
VERTEX
  8
0
  5
10965
 10
47.4666
 20
16.5096
 30
0.000000
  70
    32
  0
VERTEX
  8
0
  5
10966
 10
47.4642
 20
16.5396
 30
0.000000
  70
    32
  0
VERTEX
  8
0
  5
10967
 10
47.4617
 20
16.5695
 30
0.000000
  70
    32
  0
VERTEX
  8
0
  5
10968
 10
47.4592
 20
16.5995
 30
0.000000
  70
    32
  0
VERTEX
  8
0
  5
10969
 10
47.4567
 20
16.6294
 30
0.000000
  70
    32
  0
VERTEX
  8
0
  5
1096A
 10
47.4541
 20
16.6594
 30
0.000000
  70
    32
  0
VERTEX
  8
0
  5
1096B
 10
47.4514
 20
16.6893
 30
0.000000
  70
    32
  0
VERTEX
  8
0
  5
1096C
 10
47.4487
 20
16.7192
 30
0.000000
  70
    32
  0
VERTEX
  8
0
  5
1096D
 10
47.4460
 20
16.7492
 30
0.000000
  70
    32
  0
VERTEX
  8
0
  5
1096E
 10
47.4432
 20
16.7791
 30
0.000000
  70
    32
  0
VERTEX
  8
0
  5
1096F
 10
47.4403
 20
16.8090
 30
0.000000
  70
    32
  0
VERTEX
  8
0
  5
10970
 10
47.4375
 20
16.8389
 30
0.000000
  70
    32
  0
VERTEX
  8
0
  5
10971
 10
47.4345
 20
16.8688
 30
0.000000
  70
    32
  0
VERTEX
  8
0
  5
10972
 10
47.4315
 20
16.8987
 30
0.000000
  70
    32
  0
VERTEX
  8
0
  5
10973
 10
47.4285
 20
16.9286
 30
0.000000
  70
    32
  0
VERTEX
  8
0
  5
10974
 10
47.4254
 20
16.9585
 30
0.000000
  70
    32
  0
VERTEX
  8
0
  5
10975
 10
47.4223
 20
16.9884
 30
0.000000
  70
    32
  0
VERTEX
  8
0
  5
10976
 10
47.4191
 20
17.0183
 30
0.000000
  70
    32
  0
VERTEX
  8
0
  5
10977
 10
47.4158
 20
17.0481
 30
0.000000
  70
    32
  0
VERTEX
  8
0
  5
10978
 10
47.4126
 20
17.0780
 30
0.000000
  70
    32
  0
VERTEX
  8
0
  5
10979
 10
47.4092
 20
17.1079
 30
0.000000
  70
    32
  0
VERTEX
  8
0
  5
1097A
 10
47.4059
 20
17.1377
 30
0.000000
  70
    32
  0
VERTEX
  8
0
  5
1097B
 10
47.4024
 20
17.1676
 30
0.000000
  70
    32
  0
VERTEX
  8
0
  5
1097C
 10
47.3990
 20
17.1974
 30
0.000000
  70
    32
  0
VERTEX
  8
0
  5
1097D
 10
47.3954
 20
17.2273
 30
0.000000
  70
    32
  0
VERTEX
  8
0
  5
1097E
 10
47.3919
 20
17.2571
 30
0.000000
  70
    32
  0
VERTEX
  8
0
  5
1097F
 10
47.3882
 20
17.2870
 30
0.000000
  70
    32
  0
VERTEX
  8
0
  5
10980
 10
47.3846
 20
17.3168
 30
0.000000
  70
    32
  0
VERTEX
  8
0
  5
10981
 10
47.3808
 20
17.3466
 30
0.000000
  70
    32
  0
VERTEX
  8
0
  5
10982
 10
47.3771
 20
17.3764
 30
0.000000
  70
    32
  0
VERTEX
  8
0
  5
10983
 10
47.3732
 20
17.4062
 30
0.000000
  70
    32
  0
VERTEX
  8
0
  5
10984
 10
47.3694
 20
17.4360
 30
0.000000
  70
    32
  0
VERTEX
  8
0
  5
10985
 10
47.3655
 20
17.4658
 30
0.000000
  70
    32
  0
VERTEX
  8
0
  5
10986
 10
47.3615
 20
17.4956
 30
0.000000
  70
    32
  0
VERTEX
  8
0
  5
10987
 10
47.3575
 20
17.5254
 30
0.000000
  70
    32
  0
VERTEX
  8
0
  5
10988
 10
47.3534
 20
17.5552
 30
0.000000
  70
    32
  0
VERTEX
  8
0
  5
10989
 10
47.3493
 20
17.5849
 30
0.000000
  70
    32
  0
VERTEX
  8
0
  5
1098A
 10
47.3451
 20
17.6147
 30
0.000000
  70
    32
  0
VERTEX
  8
0
  5
1098B
 10
47.3409
 20
17.6444
 30
0.000000
  70
    32
  0
VERTEX
  8
0
  5
1098C
 10
47.3367
 20
17.6742
 30
0.000000
  70
    32
  0
VERTEX
  8
0
  5
1098D
 10
47.3323
 20
17.7039
 30
0.000000
  70
    32
  0
VERTEX
  8
0
  5
1098E
 10
47.3280
 20
17.7337
 30
0.000000
  70
    32
  0
VERTEX
  8
0
  5
1098F
 10
47.3236
 20
17.7634
 30
0.000000
  70
    32
  0
VERTEX
  8
0
  5
10990
 10
47.3191
 20
17.7931
 30
0.000000
  70
    32
  0
VERTEX
  8
0
  5
10991
 10
47.3146
 20
17.8228
 30
0.000000
  70
    32
  0
VERTEX
  8
0
  5
10992
 10
47.3100
 20
17.8525
 30
0.000000
  70
    32
  0
VERTEX
  8
0
  5
10993
 10
47.3054
 20
17.8822
 30
0.000000
  70
    32
  0
VERTEX
  8
0
  5
10994
 10
47.3008
 20
17.9119
 30
0.000000
  70
    32
  0
VERTEX
  8
0
  5
10995
 10
47.2961
 20
17.9416
 30
0.000000
  70
    32
  0
VERTEX
  8
0
  5
10996
 10
47.2913
 20
17.9712
 30
0.000000
  70
    32
  0
VERTEX
  8
0
  5
10997
 10
47.2865
 20
18.0009
 30
0.000000
  70
    32
  0
VERTEX
  8
0
  5
10998
 10
47.2817
 20
18.0305
 30
0.000000
  70
    32
  0
VERTEX
  8
0
  5
10999
 10
47.2768
 20
18.0602
 30
0.000000
  70
    32
  0
VERTEX
  8
0
  5
1099A
 10
47.2718
 20
18.0898
 30
0.000000
  70
    32
  0
VERTEX
  8
0
  5
1099B
 10
47.2668
 20
18.1195
 30
0.000000
  70
    32
  0
VERTEX
  8
0
  5
1099C
 10
47.2618
 20
18.1491
 30
0.000000
  70
    32
  0
VERTEX
  8
0
  5
1099D
 10
47.2566
 20
18.1787
 30
0.000000
  70
    32
  0
VERTEX
  8
0
  5
1099E
 10
47.2515
 20
18.2083
 30
0.000000
  70
    32
  0
VERTEX
  8
0
  5
1099F
 10
47.2463
 20
18.2379
 30
0.000000
  70
    32
  0
VERTEX
  8
0
  5
109A0
 10
47.2410
 20
18.2675
 30
0.000000
  70
    32
  0
VERTEX
  8
0
  5
109A1
 10
47.2357
 20
18.2971
 30
0.000000
  70
    32
  0
VERTEX
  8
0
  5
109A2
 10
47.2304
 20
18.3266
 30
0.000000
  70
    32
  0
VERTEX
  8
0
  5
109A3
 10
47.2250
 20
18.3562
 30
0.000000
  70
    32
  0
VERTEX
  8
0
  5
109A4
 10
47.2196
 20
18.3857
 30
0.000000
  70
    32
  0
VERTEX
  8
0
  5
109A5
 10
47.2141
 20
18.4153
 30
0.000000
  70
    32
  0
VERTEX
  8
0
  5
109A6
 10
47.2085
 20
18.4448
 30
0.000000
  70
    32
  0
VERTEX
  8
0
  5
109A7
 10
47.2029
 20
18.4743
 30
0.000000
  70
    32
  0
VERTEX
  8
0
  5
109A8
 10
47.1973
 20
18.5038
 30
0.000000
  70
    32
  0
VERTEX
  8
0
  5
109A9
 10
47.1916
 20
18.5333
 30
0.000000
  70
    32
  0
VERTEX
  8
0
  5
109AA
 10
47.1858
 20
18.5628
 30
0.000000
  70
    32
  0
VERTEX
  8
0
  5
109AB
 10
47.1800
 20
18.5923
 30
0.000000
  70
    32
  0
VERTEX
  8
0
  5
109AC
 10
47.1742
 20
18.6218
 30
0.000000
  70
    32
  0
VERTEX
  8
0
  5
109AD
 10
47.1683
 20
18.6513
 30
0.000000
  70
    32
  0
VERTEX
  8
0
  5
109AE
 10
47.1623
 20
18.6807
 30
0.000000
  70
    32
  0
VERTEX
  8
0
  5
109AF
 10
47.1563
 20
18.7102
 30
0.000000
  70
    32
  0
VERTEX
  8
0
  5
109B0
 10
47.1503
 20
18.7396
 30
0.000000
  70
    32
  0
VERTEX
  8
0
  5
109B1
 10
47.1442
 20
18.7690
 30
0.000000
  70
    32
  0
VERTEX
  8
0
  5
109B2
 10
47.1381
 20
18.7984
 30
0.000000
  70
    32
  0
VERTEX
  8
0
  5
109B3
 10
47.1319
 20
18.8278
 30
0.000000
  70
    32
  0
VERTEX
  8
0
  5
109B4
 10
47.1256
 20
18.8572
 30
0.000000
  70
    32
  0
VERTEX
  8
0
  5
109B5
 10
47.1193
 20
18.8866
 30
0.000000
  70
    32
  0
VERTEX
  8
0
  5
109B6
 10
47.1130
 20
18.9160
 30
0.000000
  70
    32
  0
VERTEX
  8
0
  5
109B7
 10
47.1066
 20
18.9453
 30
0.000000
  70
    32
  0
VERTEX
  8
0
  5
109B8
 10
47.1001
 20
18.9747
 30
0.000000
  70
    32
  0
VERTEX
  8
0
  5
109B9
 10
47.0936
 20
19.0040
 30
0.000000
  70
    32
  0
VERTEX
  8
0
  5
109BA
 10
47.0871
 20
19.0334
 30
0.000000
  70
    32
  0
VERTEX
  8
0
  5
109BB
 10
47.0805
 20
19.0627
 30
0.000000
  70
    32
  0
VERTEX
  8
0
  5
109BC
 10
47.0739
 20
19.0920
 30
0.000000
  70
    32
  0
VERTEX
  8
0
  5
109BD
 10
47.0672
 20
19.1213
 30
0.000000
  70
    32
  0
VERTEX
  8
0
  5
109BE
 10
47.0604
 20
19.1506
 30
0.000000
  70
    32
  0
VERTEX
  8
0
  5
109BF
 10
47.0536
 20
19.1798
 30
0.000000
  70
    32
  0
VERTEX
  8
0
  5
109C0
 10
47.0468
 20
19.2091
 30
0.000000
  70
    32
  0
VERTEX
  8
0
  5
109C1
 10
47.0399
 20
19.2383
 30
0.000000
  70
    32
  0
VERTEX
  8
0
  5
109C2
 10
47.0329
 20
19.2676
 30
0.000000
  70
    32
  0
VERTEX
  8
0
  5
109C3
 10
47.0259
 20
19.2968
 30
0.000000
  70
    32
  0
VERTEX
  8
0
  5
109C4
 10
47.0189
 20
19.3260
 30
0.000000
  70
    32
  0
VERTEX
  8
0
  5
109C5
 10
47.0118
 20
19.3552
 30
0.000000
  70
    32
  0
VERTEX
  8
0
  5
109C6
 10
47.0046
 20
19.3844
 30
0.000000
  70
    32
  0
VERTEX
  8
0
  5
109C7
 10
46.9974
 20
19.4136
 30
0.000000
  70
    32
  0
VERTEX
  8
0
  5
109C8
 10
46.9902
 20
19.4427
 30
0.000000
  70
    32
  0
VERTEX
  8
0
  5
109C9
 10
46.9829
 20
19.4719
 30
0.000000
  70
    32
  0
VERTEX
  8
0
  5
109CA
 10
46.9755
 20
19.5010
 30
0.000000
  70
    32
  0
VERTEX
  8
0
  5
109CB
 10
46.9681
 20
19.5301
 30
0.000000
  70
    32
  0
VERTEX
  8
0
  5
109CC
 10
46.9607
 20
19.5592
 30
0.000000
  70
    32
  0
VERTEX
  8
0
  5
109CD
 10
46.9532
 20
19.5883
 30
0.000000
  70
    32
  0
VERTEX
  8
0
  5
109CE
 10
46.9456
 20
19.6174
 30
0.000000
  70
    32
  0
VERTEX
  8
0
  5
109CF
 10
46.9380
 20
19.6465
 30
0.000000
  70
    32
  0
VERTEX
  8
0
  5
109D0
 10
46.9304
 20
19.6756
 30
0.000000
  70
    32
  0
VERTEX
  8
0
  5
109D1
 10
46.9227
 20
19.7046
 30
0.000000
  70
    32
  0
VERTEX
  8
0
  5
109D2
 10
46.9149
 20
19.7336
 30
0.000000
  70
    32
  0
VERTEX
  8
0
  5
109D3
 10
46.9071
 20
19.7627
 30
0.000000
  70
    32
  0
VERTEX
  8
0
  5
109D4
 10
46.8992
 20
19.7917
 30
0.000000
  70
    32
  0
VERTEX
  8
0
  5
109D5
 10
46.8913
 20
19.8206
 30
0.000000
  70
    32
  0
VERTEX
  8
0
  5
109D6
 10
46.8834
 20
19.8496
 30
0.000000
  70
    32
  0
VERTEX
  8
0
  5
109D7
 10
46.8754
 20
19.8786
 30
0.000000
  70
    32
  0
VERTEX
  8
0
  5
109D8
 10
46.8673
 20
19.9075
 30
0.000000
  70
    32
  0
VERTEX
  8
0
  5
109D9
 10
46.8592
 20
19.9365
 30
0.000000
  70
    32
  0
VERTEX
  8
0
  5
109DA
 10
46.8510
 20
19.9654
 30
0.000000
  70
    32
  0
VERTEX
  8
0
  5
109DB
 10
46.8428
 20
19.9943
 30
0.000000
  70
    32
  0
VERTEX
  8
0
  5
109DC
 10
46.8345
 20
20.0232
 30
0.000000
  70
    32
  0
VERTEX
  8
0
  5
109DD
 10
46.8262
 20
20.0521
 30
0.000000
  70
    32
  0
VERTEX
  8
0
  5
109DE
 10
46.8178
 20
20.0809
 30
0.000000
  70
    32
  0
VERTEX
  8
0
  5
109DF
 10
46.8094
 20
20.1098
 30
0.000000
  70
    32
  0
VERTEX
  8
0
  5
109E0
 10
46.8010
 20
20.1386
 30
0.000000
  70
    32
  0
VERTEX
  8
0
  5
109E1
 10
46.7924
 20
20.1674
 30
0.000000
  70
    32
  0
VERTEX
  8
0
  5
109E2
 10
46.7839
 20
20.1962
 30
0.000000
  70
    32
  0
VERTEX
  8
0
  5
109E3
 10
46.7752
 20
20.2250
 30
0.000000
  70
    32
  0
VERTEX
  8
0
  5
109E4
 10
46.7666
 20
20.2538
 30
0.000000
  70
    32
  0
VERTEX
  8
0
  5
109E5
 10
46.7578
 20
20.2825
 30
0.000000
  70
    32
  0
VERTEX
  8
0
  5
109E6
 10
46.7490
 20
20.3112
 30
0.000000
  70
    32
  0
VERTEX
  8
0
  5
109E7
 10
46.7402
 20
20.3400
 30
0.000000
  70
    32
  0
VERTEX
  8
0
  5
109E8
 10
46.7313
 20
20.3687
 30
0.000000
  70
    32
  0
VERTEX
  8
0
  5
109E9
 10
46.7224
 20
20.3974
 30
0.000000
  70
    32
  0
VERTEX
  8
0
  5
109EA
 10
46.7134
 20
20.4260
 30
0.000000
  70
    32
  0
VERTEX
  8
0
  5
109EB
 10
46.7044
 20
20.4547
 30
0.000000
  70
    32
  0
VERTEX
  8
0
  5
109EC
 10
46.6953
 20
20.4833
 30
0.000000
  70
    32
  0
VERTEX
  8
0
  5
109ED
 10
46.6862
 20
20.5120
 30
0.000000
  70
    32
  0
VERTEX
  8
0
  5
109EE
 10
46.6770
 20
20.5406
 30
0.000000
  70
    32
  0
VERTEX
  8
0
  5
109EF
 10
46.6677
 20
20.5692
 30
0.000000
  70
    32
  0
VERTEX
  8
0
  5
109F0
 10
46.6584
 20
20.5978
 30
0.000000
  70
    32
  0
VERTEX
  8
0
  5
109F1
 10
46.6491
 20
20.6263
 30
0.000000
  70
    32
  0
VERTEX
  8
0
  5
109F2
 10
46.6397
 20
20.6549
 30
0.000000
  70
    32
  0
VERTEX
  8
0
  5
109F3
 10
46.6303
 20
20.6834
 30
0.000000
  70
    32
  0
VERTEX
  8
0
  5
109F4
 10
46.6208
 20
20.7119
 30
0.000000
  70
    32
  0
VERTEX
  8
0
  5
109F5
 10
46.6112
 20
20.7404
 30
0.000000
  70
    32
  0
VERTEX
  8
0
  5
109F6
 10
46.6016
 20
20.7689
 30
0.000000
  70
    32
  0
VERTEX
  8
0
  5
109F7
 10
46.5920
 20
20.7973
 30
0.000000
  70
    32
  0
VERTEX
  8
0
  5
109F8
 10
46.5823
 20
20.8258
 30
0.000000
  70
    32
  0
VERTEX
  8
0
  5
109F9
 10
46.5725
 20
20.8542
 30
0.000000
  70
    32
  0
VERTEX
  8
0
  5
109FA
 10
46.5627
 20
20.8826
 30
0.000000
  70
    32
  0
VERTEX
  8
0
  5
109FB
 10
46.5529
 20
20.9110
 30
0.000000
  70
    32
  0
VERTEX
  8
0
  5
109FC
 10
46.5430
 20
20.9394
 30
0.000000
  70
    32
  0
VERTEX
  8
0
  5
109FD
 10
46.5331
 20
20.9677
 30
0.000000
  70
    32
  0
VERTEX
  8
0
  5
109FE
 10
46.5231
 20
20.9961
 30
0.000000
  70
    32
  0
VERTEX
  8
0
  5
109FF
 10
46.5130
 20
21.0244
 30
0.000000
  70
    32
  0
VERTEX
  8
0
  5
10A00
 10
46.5029
 20
21.0527
 30
0.000000
  70
    32
  0
VERTEX
  8
0
  5
10A01
 10
46.4928
 20
21.0810
 30
0.000000
  70
    32
  0
VERTEX
  8
0
  5
10A02
 10
46.4826
 20
21.1092
 30
0.000000
  70
    32
  0
VERTEX
  8
0
  5
10A03
 10
46.4723
 20
21.1375
 30
0.000000
  70
    32
  0
VERTEX
  8
0
  5
10A04
 10
46.4620
 20
21.1657
 30
0.000000
  70
    32
  0
VERTEX
  8
0
  5
10A05
 10
46.4517
 20
21.1939
 30
0.000000
  70
    32
  0
VERTEX
  8
0
  5
10A06
 10
46.4413
 20
21.2221
 30
0.000000
  70
    32
  0
VERTEX
  8
0
  5
10A07
 10
46.4308
 20
21.2503
 30
0.000000
  70
    32
  0
VERTEX
  8
0
  5
10A08
 10
46.4204
 20
21.2785
 30
0.000000
  70
    32
  0
VERTEX
  8
0
  5
10A09
 10
46.4098
 20
21.3066
 30
0.000000
  70
    32
  0
VERTEX
  8
0
  5
10A0A
 10
46.3992
 20
21.3347
 30
0.000000
  70
    32
  0
VERTEX
  8
0
  5
10A0B
 10
46.3886
 20
21.3628
 30
0.000000
  70
    32
  0
VERTEX
  8
0
  5
10A0C
 10
46.3779
 20
21.3909
 30
0.000000
  70
    32
  0
VERTEX
  8
0
  5
10A0D
 10
46.3671
 20
21.4190
 30
0.000000
  70
    32
  0
VERTEX
  8
0
  5
10A0E
 10
46.3563
 20
21.4470
 30
0.000000
  70
    32
  0
VERTEX
  8
0
  5
10A0F
 10
46.3455
 20
21.4750
 30
0.000000
  70
    32
  0
VERTEX
  8
0
  5
10A10
 10
46.3346
 20
21.5030
 30
0.000000
  70
    32
  0
VERTEX
  8
0
  5
10A11
 10
46.3237
 20
21.5310
 30
0.000000
  70
    32
  0
VERTEX
  8
0
  5
10A12
 10
46.3127
 20
21.5590
 30
0.000000
  70
    32
  0
VERTEX
  8
0
  5
10A13
 10
46.3017
 20
21.5870
 30
0.000000
  70
    32
  0
VERTEX
  8
0
  5
10A14
 10
46.2906
 20
21.6149
 30
0.000000
  70
    32
  0
VERTEX
  8
0
  5
10A15
 10
46.2794
 20
21.6428
 30
0.000000
  70
    32
  0
VERTEX
  8
0
  5
10A16
 10
46.2683
 20
21.6707
 30
0.000000
  70
    32
  0
VERTEX
  8
0
  5
10A17
 10
46.2570
 20
21.6986
 30
0.000000
  70
    32
  0
VERTEX
  8
0
  5
10A18
 10
46.2457
 20
21.7264
 30
0.000000
  70
    32
  0
VERTEX
  8
0
  5
10A19
 10
46.2344
 20
21.7542
 30
0.000000
  70
    32
  0
VERTEX
  8
0
  5
10A1A
 10
46.2230
 20
21.7820
 30
0.000000
  70
    32
  0
VERTEX
  8
0
  5
10A1B
 10
46.2116
 20
21.8098
 30
0.000000
  70
    32
  0
VERTEX
  8
0
  5
10A1C
 10
46.2001
 20
21.8376
 30
0.000000
  70
    32
  0
VERTEX
  8
0
  5
10A1D
 10
46.1886
 20
21.8654
 30
0.000000
  70
    32
  0
VERTEX
  8
0
  5
10A1E
 10
46.1771
 20
21.8931
 30
0.000000
  70
    32
  0
VERTEX
  8
0
  5
10A1F
 10
46.1654
 20
21.9208
 30
0.000000
  70
    32
  0
VERTEX
  8
0
  5
10A20
 10
46.1538
 20
21.9485
 30
0.000000
  70
    32
  0
VERTEX
  8
0
  5
10A21
 10
46.1421
 20
21.9762
 30
0.000000
  70
    32
  0
VERTEX
  8
0
  5
10A22
 10
46.1303
 20
22.0038
 30
0.000000
  70
    32
  0
VERTEX
  8
0
  5
10A23
 10
46.1185
 20
22.0315
 30
0.000000
  70
    32
  0
VERTEX
  8
0
  5
10A24
 10
46.1066
 20
22.0591
 30
0.000000
  70
    32
  0
VERTEX
  8
0
  5
10A25
 10
46.0947
 20
22.0867
 30
0.000000
  70
    32
  0
VERTEX
  8
0
  5
10A26
 10
46.0828
 20
22.1142
 30
0.000000
  70
    32
  0
VERTEX
  8
0
  5
10A27
 10
46.0708
 20
22.1418
 30
0.000000
  70
    32
  0
VERTEX
  8
0
  5
10A28
 10
46.0587
 20
22.1693
 30
0.000000
  70
    32
  0
VERTEX
  8
0
  5
10A29
 10
46.0466
 20
22.1968
 30
0.000000
  70
    32
  0
VERTEX
  8
0
  5
10A2A
 10
46.0345
 20
22.2243
 30
0.000000
  70
    32
  0
VERTEX
  8
0
  5
10A2B
 10
46.0223
 20
22.2518
 30
0.000000
  70
    32
  0
VERTEX
  8
0
  5
10A2C
 10
46.0101
 20
22.2792
 30
0.000000
  70
    32
  0
VERTEX
  8
0
  5
10A2D
 10
45.9978
 20
22.3066
 30
0.000000
  70
    32
  0
VERTEX
  8
0
  5
10A2E
 10
45.9855
 20
22.3340
 30
0.000000
  70
    32
  0
VERTEX
  8
0
  5
10A2F
 10
45.9731
 20
22.3614
 30
0.000000
  70
    32
  0
VERTEX
  8
0
  5
10A30
 10
45.9607
 20
22.3888
 30
0.000000
  70
    32
  0
VERTEX
  8
0
  5
10A31
 10
45.9482
 20
22.4161
 30
0.000000
  70
    32
  0
VERTEX
  8
0
  5
10A32
 10
45.9357
 20
22.4434
 30
0.000000
  70
    32
  0
VERTEX
  8
0
  5
10A33
 10
45.9231
 20
22.4707
 30
0.000000
  70
    32
  0
VERTEX
  8
0
  5
10A34
 10
45.9105
 20
22.4980
 30
0.000000
  70
    32
  0
VERTEX
  8
0
  5
10A35
 10
45.8978
 20
22.5253
 30
0.000000
  70
    32
  0
VERTEX
  8
0
  5
10A36
 10
45.8851
 20
22.5525
 30
0.000000
  70
    32
  0
VERTEX
  8
0
  5
10A37
 10
45.8724
 20
22.5797
 30
0.000000
  70
    32
  0
VERTEX
  8
0
  5
10A38
 10
45.8596
 20
22.6069
 30
0.000000
  70
    32
  0
VERTEX
  8
0
  5
10A39
 10
45.8468
 20
22.6341
 30
0.000000
  70
    32
  0
VERTEX
  8
0
  5
10A3A
 10
45.8339
 20
22.6612
 30
0.000000
  70
    32
  0
VERTEX
  8
0
  5
10A3B
 10
45.8209
 20
22.6883
 30
0.000000
  70
    32
  0
VERTEX
  8
0
  5
10A3C
 10
45.8080
 20
22.7154
 30
0.000000
  70
    32
  0
VERTEX
  8
0
  5
10A3D
 10
45.7949
 20
22.7425
 30
0.000000
  70
    32
  0
VERTEX
  8
0
  5
10A3E
 10
45.7819
 20
22.7696
 30
0.000000
  70
    32
  0
VERTEX
  8
0
  5
10A3F
 10
45.7688
 20
22.7966
 30
0.000000
  70
    32
  0
VERTEX
  8
0
  5
10A40
 10
45.7556
 20
22.8236
 30
0.000000
  70
    32
  0
VERTEX
  8
0
  5
10A41
 10
45.7424
 20
22.8506
 30
0.000000
  70
    32
  0
VERTEX
  8
0
  5
10A42
 10
45.7291
 20
22.8776
 30
0.000000
  70
    32
  0
VERTEX
  8
0
  5
10A43
 10
45.7158
 20
22.9045
 30
0.000000
  70
    32
  0
VERTEX
  8
0
  5
10A44
 10
45.7025
 20
22.9315
 30
0.000000
  70
    32
  0
VERTEX
  8
0
  5
10A45
 10
45.6891
 20
22.9584
 30
0.000000
  70
    32
  0
VERTEX
  8
0
  5
10A46
 10
45.6757
 20
22.9853
 30
0.000000
  70
    32
  0
VERTEX
  8
0
  5
10A47
 10
45.6622
 20
23.0121
 30
0.000000
  70
    32
  0
VERTEX
  8
0
  5
10A48
 10
45.6487
 20
23.0390
 30
0.000000
  70
    32
  0
VERTEX
  8
0
  5
10A49
 10
45.6351
 20
23.0658
 30
0.000000
  70
    32
  0
VERTEX
  8
0
  5
10A4A
 10
45.6215
 20
23.0926
 30
0.000000
  70
    32
  0
VERTEX
  8
0
  5
10A4B
 10
45.6079
 20
23.1193
 30
0.000000
  70
    32
  0
VERTEX
  8
0
  5
10A4C
 10
45.5942
 20
23.1461
 30
0.000000
  70
    32
  0
VERTEX
  8
0
  5
10A4D
 10
45.5804
 20
23.1728
 30
0.000000
  70
    32
  0
VERTEX
  8
0
  5
10A4E
 10
45.5666
 20
23.1995
 30
0.000000
  70
    32
  0
VERTEX
  8
0
  5
10A4F
 10
45.5528
 20
23.2262
 30
0.000000
  70
    32
  0
VERTEX
  8
0
  5
10A50
 10
45.5389
 20
23.2528
 30
0.000000
  70
    32
  0
VERTEX
  8
0
  5
10A51
 10
45.5250
 20
23.2795
 30
0.000000
  70
    32
  0
VERTEX
  8
0
  5
10A52
 10
45.5110
 20
23.3061
 30
0.000000
  70
    32
  0
VERTEX
  8
0
  5
10A53
 10
45.4970
 20
23.3327
 30
0.000000
  70
    32
  0
VERTEX
  8
0
  5
10A54
 10
45.4830
 20
23.3592
 30
0.000000
  70
    32
  0
VERTEX
  8
0
  5
10A55
 10
45.4689
 20
23.3858
 30
0.000000
  70
    32
  0
VERTEX
  8
0
  5
10A56
 10
45.4547
 20
23.4123
 30
0.000000
  70
    32
  0
VERTEX
  8
0
  5
10A57
 10
45.4405
 20
23.4388
 30
0.000000
  70
    32
  0
VERTEX
  8
0
  5
10A58
 10
45.4263
 20
23.4652
 30
0.000000
  70
    32
  0
VERTEX
  8
0
  5
10A59
 10
45.4120
 20
23.4917
 30
0.000000
  70
    32
  0
VERTEX
  8
0
  5
10A5A
 10
45.3977
 20
23.5181
 30
0.000000
  70
    32
  0
VERTEX
  8
0
  5
10A5B
 10
45.3833
 20
23.5445
 30
0.000000
  70
    32
  0
VERTEX
  8
0
  5
10A5C
 10
45.3689
 20
23.5709
 30
0.000000
  70
    32
  0
VERTEX
  8
0
  5
10A5D
 10
45.3545
 20
23.5972
 30
0.000000
  70
    32
  0
VERTEX
  8
0
  5
10A5E
 10
45.3400
 20
23.6235
 30
0.000000
  70
    32
  0
VERTEX
  8
0
  5
10A5F
 10
45.3255
 20
23.6498
 30
0.000000
  70
    32
  0
VERTEX
  8
0
  5
10A60
 10
45.3109
 20
23.6761
 30
0.000000
  70
    32
  0
VERTEX
  8
0
  5
10A61
 10
45.2963
 20
23.7024
 30
0.000000
  70
    32
  0
VERTEX
  8
0
  5
10A62
 10
45.2816
 20
23.7286
 30
0.000000
  70
    32
  0
VERTEX
  8
0
  5
10A63
 10
45.2669
 20
23.7548
 30
0.000000
  70
    32
  0
VERTEX
  8
0
  5
10A64
 10
45.2522
 20
23.7810
 30
0.000000
  70
    32
  0
VERTEX
  8
0
  5
10A65
 10
45.2374
 20
23.8071
 30
0.000000
  70
    32
  0
VERTEX
  8
0
  5
10A66
 10
45.2225
 20
23.8333
 30
0.000000
  70
    32
  0
VERTEX
  8
0
  5
10A67
 10
45.2076
 20
23.8594
 30
0.000000
  70
    32
  0
VERTEX
  8
0
  5
10A68
 10
45.1927
 20
23.8855
 30
0.000000
  70
    32
  0
VERTEX
  8
0
  5
10A69
 10
45.1778
 20
23.9115
 30
0.000000
  70
    32
  0
VERTEX
  8
0
  5
10A6A
 10
45.1628
 20
23.9375
 30
0.000000
  70
    32
  0
VERTEX
  8
0
  5
10A6B
 10
45.1477
 20
23.9635
 30
0.000000
  70
    32
  0
VERTEX
  8
0
  5
10A6C
 10
45.1326
 20
23.9895
 30
0.000000
  70
    32
  0
VERTEX
  8
0
  5
10A6D
 10
45.1175
 20
24.0155
 30
0.000000
  70
    32
  0
VERTEX
  8
0
  5
10A6E
 10
45.1023
 20
24.0414
 30
0.000000
  70
    32
  0
VERTEX
  8
0
  5
10A6F
 10
45.0871
 20
24.0673
 30
0.000000
  70
    32
  0
VERTEX
  8
0
  5
10A70
 10
45.0718
 20
24.0932
 30
0.000000
  70
    32
  0
VERTEX
  8
0
  5
10A71
 10
45.0565
 20
24.1190
 30
0.000000
  70
    32
  0
VERTEX
  8
0
  5
10A72
 10
45.0412
 20
24.1449
 30
0.000000
  70
    32
  0
VERTEX
  8
0
  5
10A73
 10
45.0258
 20
24.1707
 30
0.000000
  70
    32
  0
SEQEND
  8
0
  5
10A74
  0
POLYLINE
  8
0
  5
10A75
  66
     1
 10
0.000000
 20
0.000000
 30
0.000000
  70
     8
  0
VERTEX
  8
0
  5
10A76
 10
46.0000
 20
10.0000
 30
0.000000
  70
    32
  0
VERTEX
  8
0
  5
10A77
 10
45.9613
 20
10.0255
 30
0.000000
  70
    32
  0
VERTEX
  8
0
  5
10A78
 10
45.9227
 20
10.0510
 30
0.000000
  70
    32
  0
VERTEX
  8
0
  5
10A79
 10
45.8841
 20
10.0766
 30
0.000000
  70
    32
  0
VERTEX
  8
0
  5
10A7A
 10
45.8456
 20
10.1023
 30
0.000000
  70
    32
  0
VERTEX
  8
0
  5
10A7B
 10
45.8071
 20
10.1281
 30
0.000000
  70
    32
  0
VERTEX
  8
0
  5
10A7C
 10
45.7687
 20
10.1539
 30
0.000000
  70
    32
  0
VERTEX
  8
0
  5
10A7D
 10
45.7303
 20
10.1799
 30
0.000000
  70
    32
  0
VERTEX
  8
0
  5
10A7E
 10
45.6920
 20
10.2059
 30
0.000000
  70
    32
  0
VERTEX
  8
0
  5
10A7F
 10
45.6537
 20
10.2320
 30
0.000000
  70
    32
  0
VERTEX
  8
0
  5
10A80
 10
45.6155
 20
10.2581
 30
0.000000
  70
    32
  0
VERTEX
  8
0
  5
10A81
 10
45.5773
 20
10.2844
 30
0.000000
  70
    32
  0
VERTEX
  8
0
  5
10A82
 10
45.5392
 20
10.3107
 30
0.000000
  70
    32
  0
VERTEX
  8
0
  5
10A83
 10
45.5011
 20
10.3371
 30
0.000000
  70
    32
  0
VERTEX
  8
0
  5
10A84
 10
45.4631
 20
10.3636
 30
0.000000
  70
    32
  0
VERTEX
  8
0
  5
10A85
 10
45.4251
 20
10.3901
 30
0.000000
  70
    32
  0
VERTEX
  8
0
  5
10A86
 10
45.3872
 20
10.4168
 30
0.000000
  70
    32
  0
VERTEX
  8
0
  5
10A87
 10
45.3494
 20
10.4435
 30
0.000000
  70
    32
  0
VERTEX
  8
0
  5
10A88
 10
45.3116
 20
10.4703
 30
0.000000
  70
    32
  0
VERTEX
  8
0
  5
10A89
 10
45.2739
 20
10.4971
 30
0.000000
  70
    32
  0
VERTEX
  8
0
  5
10A8A
 10
45.2362
 20
10.5241
 30
0.000000
  70
    32
  0
VERTEX
  8
0
  5
10A8B
 10
45.1985
 20
10.5511
 30
0.000000
  70
    32
  0
VERTEX
  8
0
  5
10A8C
 10
45.1610
 20
10.5782
 30
0.000000
  70
    32
  0
VERTEX
  8
0
  5
10A8D
 10
45.1234
 20
10.6054
 30
0.000000
  70
    32
  0
VERTEX
  8
0
  5
10A8E
 10
45.0860
 20
10.6326
 30
0.000000
  70
    32
  0
VERTEX
  8
0
  5
10A8F
 10
45.0486
 20
10.6600
 30
0.000000
  70
    32
  0
VERTEX
  8
0
  5
10A90
 10
45.0112
 20
10.6874
 30
0.000000
  70
    32
  0
VERTEX
  8
0
  5
10A91
 10
44.9739
 20
10.7149
 30
0.000000
  70
    32
  0
VERTEX
  8
0
  5
10A92
 10
44.9367
 20
10.7424
 30
0.000000
  70
    32
  0
VERTEX
  8
0
  5
10A93
 10
44.8995
 20
10.7701
 30
0.000000
  70
    32
  0
VERTEX
  8
0
  5
10A94
 10
44.8624
 20
10.7978
 30
0.000000
  70
    32
  0
VERTEX
  8
0
  5
10A95
 10
44.8253
 20
10.8256
 30
0.000000
  70
    32
  0
VERTEX
  8
0
  5
10A96
 10
44.7883
 20
10.8535
 30
0.000000
  70
    32
  0
VERTEX
  8
0
  5
10A97
 10
44.7513
 20
10.8814
 30
0.000000
  70
    32
  0
VERTEX
  8
0
  5
10A98
 10
44.7144
 20
10.9094
 30
0.000000
  70
    32
  0
VERTEX
  8
0
  5
10A99
 10
44.6776
 20
10.9375
 30
0.000000
  70
    32
  0
VERTEX
  8
0
  5
10A9A
 10
44.6408
 20
10.9657
 30
0.000000
  70
    32
  0
VERTEX
  8
0
  5
10A9B
 10
44.6041
 20
10.9940
 30
0.000000
  70
    32
  0
VERTEX
  8
0
  5
10A9C
 10
44.5674
 20
11.0223
 30
0.000000
  70
    32
  0
VERTEX
  8
0
  5
10A9D
 10
44.5308
 20
11.0507
 30
0.000000
  70
    32
  0
VERTEX
  8
0
  5
10A9E
 10
44.4943
 20
11.0792
 30
0.000000
  70
    32
  0
VERTEX
  8
0
  5
10A9F
 10
44.4578
 20
11.1078
 30
0.000000
  70
    32
  0
VERTEX
  8
0
  5
10AA0
 10
44.4214
 20
11.1364
 30
0.000000
  70
    32
  0
VERTEX
  8
0
  5
10AA1
 10
44.3850
 20
11.1652
 30
0.000000
  70
    32
  0
VERTEX
  8
0
  5
10AA2
 10
44.3487
 20
11.1939
 30
0.000000
  70
    32
  0
VERTEX
  8
0
  5
10AA3
 10
44.3125
 20
11.2228
 30
0.000000
  70
    32
  0
VERTEX
  8
0
  5
10AA4
 10
44.2763
 20
11.2518
 30
0.000000
  70
    32
  0
VERTEX
  8
0
  5
10AA5
 10
44.2402
 20
11.2808
 30
0.000000
  70
    32
  0
VERTEX
  8
0
  5
10AA6
 10
44.2041
 20
11.3099
 30
0.000000
  70
    32
  0
VERTEX
  8
0
  5
10AA7
 10
44.1682
 20
11.3391
 30
0.000000
  70
    32
  0
VERTEX
  8
0
  5
10AA8
 10
44.1322
 20
11.3683
 30
0.000000
  70
    32
  0
VERTEX
  8
0
  5
10AA9
 10
44.0964
 20
11.3977
 30
0.000000
  70
    32
  0
VERTEX
  8
0
  5
10AAA
 10
44.0605
 20
11.4271
 30
0.000000
  70
    32
  0
VERTEX
  8
0
  5
10AAB
 10
44.0248
 20
11.4566
 30
0.000000
  70
    32
  0
VERTEX
  8
0
  5
10AAC
 10
43.9891
 20
11.4861
 30
0.000000
  70
    32
  0
VERTEX
  8
0
  5
10AAD
 10
43.9535
 20
11.5158
 30
0.000000
  70
    32
  0
VERTEX
  8
0
  5
10AAE
 10
43.9180
 20
11.5455
 30
0.000000
  70
    32
  0
VERTEX
  8
0
  5
10AAF
 10
43.8825
 20
11.5753
 30
0.000000
  70
    32
  0
VERTEX
  8
0
  5
10AB0
 10
43.8471
 20
11.6051
 30
0.000000
  70
    32
  0
VERTEX
  8
0
  5
10AB1
 10
43.8117
 20
11.6351
 30
0.000000
  70
    32
  0
VERTEX
  8
0
  5
10AB2
 10
43.7764
 20
11.6651
 30
0.000000
  70
    32
  0
VERTEX
  8
0
  5
10AB3
 10
43.7412
 20
11.6952
 30
0.000000
  70
    32
  0
VERTEX
  8
0
  5
10AB4
 10
43.7060
 20
11.7254
 30
0.000000
  70
    32
  0
VERTEX
  8
0
  5
10AB5
 10
43.6709
 20
11.7556
 30
0.000000
  70
    32
  0
VERTEX
  8
0
  5
10AB6
 10
43.6359
 20
11.7859
 30
0.000000
  70
    32
  0
VERTEX
  8
0
  5
10AB7
 10
43.6009
 20
11.8163
 30
0.000000
  70
    32
  0
VERTEX
  8
0
  5
10AB8
 10
43.5660
 20
11.8468
 30
0.000000
  70
    32
  0
VERTEX
  8
0
  5
10AB9
 10
43.5312
 20
11.8774
 30
0.000000
  70
    32
  0
VERTEX
  8
0
  5
10ABA
 10
43.4964
 20
11.9080
 30
0.000000
  70
    32
  0
VERTEX
  8
0
  5
10ABB
 10
43.4618
 20
11.9387
 30
0.000000
  70
    32
  0
VERTEX
  8
0
  5
10ABC
 10
43.4271
 20
11.9695
 30
0.000000
  70
    32
  0
VERTEX
  8
0
  5
10ABD
 10
43.3926
 20
12.0004
 30
0.000000
  70
    32
  0
VERTEX
  8
0
  5
10ABE
 10
43.3581
 20
12.0313
 30
0.000000
  70
    32
  0
VERTEX
  8
0
  5
10ABF
 10
43.3237
 20
12.0623
 30
0.000000
  70
    32
  0
VERTEX
  8
0
  5
10AC0
 10
43.2893
 20
12.0934
 30
0.000000
  70
    32
  0
VERTEX
  8
0
  5
10AC1
 10
43.2550
 20
12.1246
 30
0.000000
  70
    32
  0
VERTEX
  8
0
  5
10AC2
 10
43.2208
 20
12.1558
 30
0.000000
  70
    32
  0
VERTEX
  8
0
  5
10AC3
 10
43.1867
 20
12.1871
 30
0.000000
  70
    32
  0
VERTEX
  8
0
  5
10AC4
 10
43.1526
 20
12.2185
 30
0.000000
  70
    32
  0
VERTEX
  8
0
  5
10AC5
 10
43.1186
 20
12.2500
 30
0.000000
  70
    32
  0
VERTEX
  8
0
  5
10AC6
 10
43.0847
 20
12.2815
 30
0.000000
  70
    32
  0
VERTEX
  8
0
  5
10AC7
 10
43.0508
 20
12.3132
 30
0.000000
  70
    32
  0
VERTEX
  8
0
  5
10AC8
 10
43.0170
 20
12.3449
 30
0.000000
  70
    32
  0
VERTEX
  8
0
  5
10AC9
 10
42.9833
 20
12.3766
 30
0.000000
  70
    32
  0
VERTEX
  8
0
  5
10ACA
 10
42.9497
 20
12.4085
 30
0.000000
  70
    32
  0
VERTEX
  8
0
  5
10ACB
 10
42.9161
 20
12.4404
 30
0.000000
  70
    32
  0
VERTEX
  8
0
  5
10ACC
 10
42.8826
 20
12.4724
 30
0.000000
  70
    32
  0
VERTEX
  8
0
  5
10ACD
 10
42.8492
 20
12.5045
 30
0.000000
  70
    32
  0
VERTEX
  8
0
  5
10ACE
 10
42.8158
 20
12.5367
 30
0.000000
  70
    32
  0
VERTEX
  8
0
  5
10ACF
 10
42.7826
 20
12.5689
 30
0.000000
  70
    32
  0
VERTEX
  8
0
  5
10AD0
 10
42.7494
 20
12.6012
 30
0.000000
  70
    32
  0
VERTEX
  8
0
  5
10AD1
 10
42.7162
 20
12.6336
 30
0.000000
  70
    32
  0
VERTEX
  8
0
  5
10AD2
 10
42.6832
 20
12.6660
 30
0.000000
  70
    32
  0
VERTEX
  8
0
  5
10AD3
 10
42.6502
 20
12.6986
 30
0.000000
  70
    32
  0
VERTEX
  8
0
  5
10AD4
 10
42.6173
 20
12.7312
 30
0.000000
  70
    32
  0
VERTEX
  8
0
  5
10AD5
 10
42.5845
 20
12.7639
 30
0.000000
  70
    32
  0
VERTEX
  8
0
  5
10AD6
 10
42.5517
 20
12.7966
 30
0.000000
  70
    32
  0
VERTEX
  8
0
  5
10AD7
 10
42.5190
 20
12.8295
 30
0.000000
  70
    32
  0
VERTEX
  8
0
  5
10AD8
 10
42.4864
 20
12.8624
 30
0.000000
  70
    32
  0
VERTEX
  8
0
  5
10AD9
 10
42.4539
 20
12.8954
 30
0.000000
  70
    32
  0
VERTEX
  8
0
  5
10ADA
 10
42.4215
 20
12.9285
 30
0.000000
  70
    32
  0
VERTEX
  8
0
  5
10ADB
 10
42.3891
 20
12.9616
 30
0.000000
  70
    32
  0
VERTEX
  8
0
  5
10ADC
 10
42.3568
 20
12.9948
 30
0.000000
  70
    32
  0
VERTEX
  8
0
  5
10ADD
 10
42.3246
 20
13.0281
 30
0.000000
  70
    32
  0
VERTEX
  8
0
  5
10ADE
 10
42.2924
 20
13.0615
 30
0.000000
  70
    32
  0
VERTEX
  8
0
  5
10ADF
 10
42.2604
 20
13.0949
 30
0.000000
  70
    32
  0
VERTEX
  8
0
  5
10AE0
 10
42.2284
 20
13.1284
 30
0.000000
  70
    32
  0
VERTEX
  8
0
  5
10AE1
 10
42.1965
 20
13.1620
 30
0.000000
  70
    32
  0
VERTEX
  8
0
  5
10AE2
 10
42.1646
 20
13.1957
 30
0.000000
  70
    32
  0
VERTEX
  8
0
  5
10AE3
 10
42.1329
 20
13.2294
 30
0.000000
  70
    32
  0
VERTEX
  8
0
  5
10AE4
 10
42.1012
 20
13.2632
 30
0.000000
  70
    32
  0
VERTEX
  8
0
  5
10AE5
 10
42.0696
 20
13.2971
 30
0.000000
  70
    32
  0
VERTEX
  8
0
  5
10AE6
 10
42.0381
 20
13.3311
 30
0.000000
  70
    32
  0
VERTEX
  8
0
  5
10AE7
 10
42.0066
 20
13.3651
 30
0.000000
  70
    32
  0
VERTEX
  8
0
  5
10AE8
 10
41.9753
 20
13.3992
 30
0.000000
  70
    32
  0
VERTEX
  8
0
  5
10AE9
 10
41.9440
 20
13.4334
 30
0.000000
  70
    32
  0
VERTEX
  8
0
  5
10AEA
 10
41.9128
 20
13.4676
 30
0.000000
  70
    32
  0
VERTEX
  8
0
  5
10AEB
 10
41.8816
 20
13.5020
 30
0.000000
  70
    32
  0
VERTEX
  8
0
  5
10AEC
 10
41.8506
 20
13.5364
 30
0.000000
  70
    32
  0
VERTEX
  8
0
  5
10AED
 10
41.8196
 20
13.5708
 30
0.000000
  70
    32
  0
VERTEX
  8
0
  5
10AEE
 10
41.7887
 20
13.6054
 30
0.000000
  70
    32
  0
VERTEX
  8
0
  5
10AEF
 10
41.7579
 20
13.6400
 30
0.000000
  70
    32
  0
VERTEX
  8
0
  5
10AF0
 10
41.7272
 20
13.6746
 30
0.000000
  70
    32
  0
VERTEX
  8
0
  5
10AF1
 10
41.6966
 20
13.7094
 30
0.000000
  70
    32
  0
VERTEX
  8
0
  5
10AF2
 10
41.6660
 20
13.7442
 30
0.000000
  70
    32
  0
VERTEX
  8
0
  5
10AF3
 10
41.6355
 20
13.7791
 30
0.000000
  70
    32
  0
VERTEX
  8
0
  5
10AF4
 10
41.6051
 20
13.8141
 30
0.000000
  70
    32
  0
VERTEX
  8
0
  5
10AF5
 10
41.5748
 20
13.8491
 30
0.000000
  70
    32
  0
VERTEX
  8
0
  5
10AF6
 10
41.5445
 20
13.8842
 30
0.000000
  70
    32
  0
VERTEX
  8
0
  5
10AF7
 10
41.5144
 20
13.9194
 30
0.000000
  70
    32
  0
VERTEX
  8
0
  5
10AF8
 10
41.4843
 20
13.9546
 30
0.000000
  70
    32
  0
VERTEX
  8
0
  5
10AF9
 10
41.4543
 20
13.9899
 30
0.000000
  70
    32
  0
VERTEX
  8
0
  5
10AFA
 10
41.4244
 20
14.0253
 30
0.000000
  70
    32
  0
VERTEX
  8
0
  5
10AFB
 10
41.3945
 20
14.0607
 30
0.000000
  70
    32
  0
VERTEX
  8
0
  5
10AFC
 10
41.3648
 20
14.0962
 30
0.000000
  70
    32
  0
VERTEX
  8
0
  5
10AFD
 10
41.3351
 20
14.1318
 30
0.000000
  70
    32
  0
VERTEX
  8
0
  5
10AFE
 10
41.3055
 20
14.1675
 30
0.000000
  70
    32
  0
VERTEX
  8
0
  5
10AFF
 10
41.2760
 20
14.2032
 30
0.000000
  70
    32
  0
VERTEX
  8
0
  5
10B00
 10
41.2466
 20
14.2390
 30
0.000000
  70
    32
  0
VERTEX
  8
0
  5
10B01
 10
41.2172
 20
14.2748
 30
0.000000
  70
    32
  0
VERTEX
  8
0
  5
10B02
 10
41.1880
 20
14.3108
 30
0.000000
  70
    32
  0
VERTEX
  8
0
  5
10B03
 10
41.1588
 20
14.3468
 30
0.000000
  70
    32
  0
VERTEX
  8
0
  5
10B04
 10
41.1297
 20
14.3828
 30
0.000000
  70
    32
  0
VERTEX
  8
0
  5
10B05
 10
41.1007
 20
14.4189
 30
0.000000
  70
    32
  0
VERTEX
  8
0
  5
10B06
 10
41.0717
 20
14.4551
 30
0.000000
  70
    32
  0
VERTEX
  8
0
  5
10B07
 10
41.0429
 20
14.4914
 30
0.000000
  70
    32
  0
VERTEX
  8
0
  5
10B08
 10
41.0141
 20
14.5277
 30
0.000000
  70
    32
  0
VERTEX
  8
0
  5
10B09
 10
40.9855
 20
14.5641
 30
0.000000
  70
    32
  0
VERTEX
  8
0
  5
10B0A
 10
40.9569
 20
14.6006
 30
0.000000
  70
    32
  0
VERTEX
  8
0
  5
10B0B
 10
40.9284
 20
14.6371
 30
0.000000
  70
    32
  0
VERTEX
  8
0
  5
10B0C
 10
40.8999
 20
14.6737
 30
0.000000
  70
    32
  0
VERTEX
  8
0
  5
10B0D
 10
40.8716
 20
14.7103
 30
0.000000
  70
    32
  0
VERTEX
  8
0
  5
10B0E
 10
40.8433
 20
14.7470
 30
0.000000
  70
    32
  0
VERTEX
  8
0
  5
10B0F
 10
40.8152
 20
14.7838
 30
0.000000
  70
    32
  0
VERTEX
  8
0
  5
10B10
 10
40.7871
 20
14.8207
 30
0.000000
  70
    32
  0
VERTEX
  8
0
  5
10B11
 10
40.7591
 20
14.8576
 30
0.000000
  70
    32
  0
VERTEX
  8
0
  5
10B12
 10
40.7311
 20
14.8945
 30
0.000000
  70
    32
  0
VERTEX
  8
0
  5
10B13
 10
40.7033
 20
14.9316
 30
0.000000
  70
    32
  0
VERTEX
  8
0
  5
10B14
 10
40.6756
 20
14.9687
 30
0.000000
  70
    32
  0
VERTEX
  8
0
  5
10B15
 10
40.6479
 20
15.0058
 30
0.000000
  70
    32
  0
VERTEX
  8
0
  5
10B16
 10
40.6203
 20
15.0431
 30
0.000000
  70
    32
  0
VERTEX
  8
0
  5
10B17
 10
40.5928
 20
15.0803
 30
0.000000
  70
    32
  0
VERTEX
  8
0
  5
10B18
 10
40.5654
 20
15.1177
 30
0.000000
  70
    32
  0
VERTEX
  8
0
  5
10B19
 10
40.5380
 20
15.1551
 30
0.000000
  70
    32
  0
VERTEX
  8
0
  5
10B1A
 10
40.5108
 20
15.1926
 30
0.000000
  70
    32
  0
VERTEX
  8
0
  5
10B1B
 10
40.4836
 20
15.2301
 30
0.000000
  70
    32
  0
VERTEX
  8
0
  5
10B1C
 10
40.4565
 20
15.2677
 30
0.000000
  70
    32
  0
VERTEX
  8
0
  5
10B1D
 10
40.4295
 20
15.3053
 30
0.000000
  70
    32
  0
VERTEX
  8
0
  5
10B1E
 10
40.4026
 20
15.3430
 30
0.000000
  70
    32
  0
VERTEX
  8
0
  5
10B1F
 10
40.3758
 20
15.3808
 30
0.000000
  70
    32
  0
VERTEX
  8
0
  5
10B20
 10
40.3490
 20
15.4186
 30
0.000000
  70
    32
  0
VERTEX
  8
0
  5
10B21
 10
40.3224
 20
15.4565
 30
0.000000
  70
    32
  0
VERTEX
  8
0
  5
10B22
 10
40.2958
 20
15.4945
 30
0.000000
  70
    32
  0
VERTEX
  8
0
  5
10B23
 10
40.2693
 20
15.5325
 30
0.000000
  70
    32
  0
VERTEX
  8
0
  5
10B24
 10
40.2428
 20
15.5705
 30
0.000000
  70
    32
  0
VERTEX
  8
0
  5
10B25
 10
40.2165
 20
15.6086
 30
0.000000
  70
    32
  0
VERTEX
  8
0
  5
10B26
 10
40.1903
 20
15.6468
 30
0.000000
  70
    32
  0
VERTEX
  8
0
  5
10B27
 10
40.1641
 20
15.6851
 30
0.000000
  70
    32
  0
VERTEX
  8
0
  5
10B28
 10
40.1380
 20
15.7233
 30
0.000000
  70
    32
  0
VERTEX
  8
0
  5
10B29
 10
40.1120
 20
15.7617
 30
0.000000
  70
    32
  0
VERTEX
  8
0
  5
10B2A
 10
40.0861
 20
15.8001
 30
0.000000
  70
    32
  0
VERTEX
  8
0
  5
10B2B
 10
40.0603
 20
15.8386
 30
0.000000
  70
    32
  0
VERTEX
  8
0
  5
10B2C
 10
40.0345
 20
15.8771
 30
0.000000
  70
    32
  0
VERTEX
  8
0
  5
10B2D
 10
40.0089
 20
15.9157
 30
0.000000
  70
    32
  0
VERTEX
  8
0
  5
10B2E
 10
39.9833
 20
15.9543
 30
0.000000
  70
    32
  0
VERTEX
  8
0
  5
10B2F
 10
39.9578
 20
15.9930
 30
0.000000
  70
    32
  0
VERTEX
  8
0
  5
10B30
 10
39.9324
 20
16.0317
 30
0.000000
  70
    32
  0
VERTEX
  8
0
  5
10B31
 10
39.9070
 20
16.0705
 30
0.000000
  70
    32
  0
VERTEX
  8
0
  5
10B32
 10
39.8818
 20
16.1093
 30
0.000000
  70
    32
  0
VERTEX
  8
0
  5
10B33
 10
39.8566
 20
16.1482
 30
0.000000
  70
    32
  0
VERTEX
  8
0
  5
10B34
 10
39.8315
 20
16.1872
 30
0.000000
  70
    32
  0
VERTEX
  8
0
  5
10B35
 10
39.8065
 20
16.2262
 30
0.000000
  70
    32
  0
VERTEX
  8
0
  5
10B36
 10
39.7816
 20
16.2653
 30
0.000000
  70
    32
  0
VERTEX
  8
0
  5
10B37
 10
39.7568
 20
16.3044
 30
0.000000
  70
    32
  0
VERTEX
  8
0
  5
10B38
 10
39.7320
 20
16.3435
 30
0.000000
  70
    32
  0
VERTEX
  8
0
  5
10B39
 10
39.7074
 20
16.3828
 30
0.000000
  70
    32
  0
VERTEX
  8
0
  5
10B3A
 10
39.6828
 20
16.4220
 30
0.000000
  70
    32
  0
VERTEX
  8
0
  5
10B3B
 10
39.6583
 20
16.4613
 30
0.000000
  70
    32
  0
VERTEX
  8
0
  5
10B3C
 10
39.6339
 20
16.5007
 30
0.000000
  70
    32
  0
VERTEX
  8
0
  5
10B3D
 10
39.6096
 20
16.5401
 30
0.000000
  70
    32
  0
VERTEX
  8
0
  5
10B3E
 10
39.5853
 20
16.5796
 30
0.000000
  70
    32
  0
VERTEX
  8
0
  5
10B3F
 10
39.5612
 20
16.6191
 30
0.000000
  70
    32
  0
VERTEX
  8
0
  5
10B40
 10
39.5371
 20
16.6587
 30
0.000000
  70
    32
  0
VERTEX
  8
0
  5
10B41
 10
39.5131
 20
16.6984
 30
0.000000
  70
    32
  0
VERTEX
  8
0
  5
10B42
 10
39.4892
 20
16.7380
 30
0.000000
  70
    32
  0
VERTEX
  8
0
  5
10B43
 10
39.4654
 20
16.7778
 30
0.000000
  70
    32
  0
VERTEX
  8
0
  5
10B44
 10
39.4416
 20
16.8175
 30
0.000000
  70
    32
  0
VERTEX
  8
0
  5
10B45
 10
39.4180
 20
16.8574
 30
0.000000
  70
    32
  0
VERTEX
  8
0
  5
10B46
 10
39.3944
 20
16.8973
 30
0.000000
  70
    32
  0
VERTEX
  8
0
  5
10B47
 10
39.3709
 20
16.9372
 30
0.000000
  70
    32
  0
VERTEX
  8
0
  5
10B48
 10
39.3475
 20
16.9772
 30
0.000000
  70
    32
  0
VERTEX
  8
0
  5
10B49
 10
39.3242
 20
17.0172
 30
0.000000
  70
    32
  0
VERTEX
  8
0
  5
10B4A
 10
39.3009
 20
17.0573
 30
0.000000
  70
    32
  0
VERTEX
  8
0
  5
10B4B
 10
39.2778
 20
17.0974
 30
0.000000
  70
    32
  0
VERTEX
  8
0
  5
10B4C
 10
39.2547
 20
17.1376
 30
0.000000
  70
    32
  0
VERTEX
  8
0
  5
10B4D
 10
39.2317
 20
17.1778
 30
0.000000
  70
    32
  0
VERTEX
  8
0
  5
10B4E
 10
39.2088
 20
17.2181
 30
0.000000
  70
    32
  0
VERTEX
  8
0
  5
10B4F
 10
39.1860
 20
17.2584
 30
0.000000
  70
    32
  0
VERTEX
  8
0
  5
10B50
 10
39.1632
 20
17.2987
 30
0.000000
  70
    32
  0
VERTEX
  8
0
  5
10B51
 10
39.1406
 20
17.3391
 30
0.000000
  70
    32
  0
VERTEX
  8
0
  5
10B52
 10
39.1180
 20
17.3796
 30
0.000000
  70
    32
  0
VERTEX
  8
0
  5
10B53
 10
39.0955
 20
17.4201
 30
0.000000
  70
    32
  0
VERTEX
  8
0
  5
10B54
 10
39.0731
 20
17.4607
 30
0.000000
  70
    32
  0
VERTEX
  8
0
  5
10B55
 10
39.0508
 20
17.5013
 30
0.000000
  70
    32
  0
VERTEX
  8
0
  5
10B56
 10
39.0286
 20
17.5419
 30
0.000000
  70
    32
  0
VERTEX
  8
0
  5
10B57
 10
39.0065
 20
17.5826
 30
0.000000
  70
    32
  0
VERTEX
  8
0
  5
10B58
 10
38.9844
 20
17.6233
 30
0.000000
  70
    32
  0
VERTEX
  8
0
  5
10B59
 10
38.9624
 20
17.6641
 30
0.000000
  70
    32
  0
VERTEX
  8
0
  5
10B5A
 10
38.9405
 20
17.7050
 30
0.000000
  70
    32
  0
VERTEX
  8
0
  5
10B5B
 10
38.9187
 20
17.7458
 30
0.000000
  70
    32
  0
VERTEX
  8
0
  5
10B5C
 10
38.8970
 20
17.7868
 30
0.000000
  70
    32
  0
VERTEX
  8
0
  5
10B5D
 10
38.8753
 20
17.8277
 30
0.000000
  70
    32
  0
VERTEX
  8
0
  5
10B5E
 10
38.8538
 20
17.8687
 30
0.000000
  70
    32
  0
VERTEX
  8
0
  5
10B5F
 10
38.8323
 20
17.9098
 30
0.000000
  70
    32
  0
VERTEX
  8
0
  5
10B60
 10
38.8109
 20
17.9509
 30
0.000000
  70
    32
  0
VERTEX
  8
0
  5
10B61
 10
38.7896
 20
17.9920
 30
0.000000
  70
    32
  0
VERTEX
  8
0
  5
10B62
 10
38.7684
 20
18.0332
 30
0.000000
  70
    32
  0
VERTEX
  8
0
  5
10B63
 10
38.7473
 20
18.0744
 30
0.000000
  70
    32
  0
VERTEX
  8
0
  5
10B64
 10
38.7262
 20
18.1157
 30
0.000000
  70
    32
  0
VERTEX
  8
0
  5
10B65
 10
38.7053
 20
18.1570
 30
0.000000
  70
    32
  0
VERTEX
  8
0
  5
10B66
 10
38.6844
 20
18.1984
 30
0.000000
  70
    32
  0
VERTEX
  8
0
  5
10B67
 10
38.6636
 20
18.2398
 30
0.000000
  70
    32
  0
VERTEX
  8
0
  5
10B68
 10
38.6429
 20
18.2812
 30
0.000000
  70
    32
  0
VERTEX
  8
0
  5
10B69
 10
38.6222
 20
18.3227
 30
0.000000
  70
    32
  0
VERTEX
  8
0
  5
10B6A
 10
38.6017
 20
18.3643
 30
0.000000
  70
    32
  0
VERTEX
  8
0
  5
10B6B
 10
38.5812
 20
18.4058
 30
0.000000
  70
    32
  0
VERTEX
  8
0
  5
10B6C
 10
38.5609
 20
18.4474
 30
0.000000
  70
    32
  0
VERTEX
  8
0
  5
10B6D
 10
38.5406
 20
18.4891
 30
0.000000
  70
    32
  0
VERTEX
  8
0
  5
10B6E
 10
38.5204
 20
18.5308
 30
0.000000
  70
    32
  0
VERTEX
  8
0
  5
10B6F
 10
38.5003
 20
18.5725
 30
0.000000
  70
    32
  0
VERTEX
  8
0
  5
10B70
 10
38.4802
 20
18.6143
 30
0.000000
  70
    32
  0
VERTEX
  8
0
  5
10B71
 10
38.4603
 20
18.6561
 30
0.000000
  70
    32
  0
VERTEX
  8
0
  5
10B72
 10
38.4404
 20
18.6980
 30
0.000000
  70
    32
  0
VERTEX
  8
0
  5
10B73
 10
38.4207
 20
18.7399
 30
0.000000
  70
    32
  0
VERTEX
  8
0
  5
10B74
 10
38.4010
 20
18.7818
 30
0.000000
  70
    32
  0
VERTEX
  8
0
  5
10B75
 10
38.3814
 20
18.8238
 30
0.000000
  70
    32
  0
VERTEX
  8
0
  5
10B76
 10
38.3618
 20
18.8658
 30
0.000000
  70
    32
  0
VERTEX
  8
0
  5
10B77
 10
38.3424
 20
18.9079
 30
0.000000
  70
    32
  0
VERTEX
  8
0
  5
10B78
 10
38.3231
 20
18.9500
 30
0.000000
  70
    32
  0
VERTEX
  8
0
  5
10B79
 10
38.3038
 20
18.9921
 30
0.000000
  70
    32
  0
VERTEX
  8
0
  5
10B7A
 10
38.2846
 20
19.0343
 30
0.000000
  70
    32
  0
VERTEX
  8
0
  5
10B7B
 10
38.2655
 20
19.0765
 30
0.000000
  70
    32
  0
VERTEX
  8
0
  5
10B7C
 10
38.2465
 20
19.1188
 30
0.000000
  70
    32
  0
VERTEX
  8
0
  5
10B7D
 10
38.2276
 20
19.1611
 30
0.000000
  70
    32
  0
VERTEX
  8
0
  5
10B7E
 10
38.2087
 20
19.2034
 30
0.000000
  70
    32
  0
VERTEX
  8
0
  5
10B7F
 10
38.1900
 20
19.2458
 30
0.000000
  70
    32
  0
VERTEX
  8
0
  5
10B80
 10
38.1713
 20
19.2882
 30
0.000000
  70
    32
  0
VERTEX
  8
0
  5
10B81
 10
38.1528
 20
19.3306
 30
0.000000
  70
    32
  0
VERTEX
  8
0
  5
10B82
 10
38.1343
 20
19.3731
 30
0.000000
  70
    32
  0
VERTEX
  8
0
  5
10B83
 10
38.1159
 20
19.4156
 30
0.000000
  70
    32
  0
VERTEX
  8
0
  5
10B84
 10
38.0975
 20
19.4581
 30
0.000000
  70
    32
  0
VERTEX
  8
0
  5
10B85
 10
38.0793
 20
19.5007
 30
0.000000
  70
    32
  0
VERTEX
  8
0
  5
10B86
 10
38.0612
 20
19.5434
 30
0.000000
  70
    32
  0
VERTEX
  8
0
  5
10B87
 10
38.0431
 20
19.5860
 30
0.000000
  70
    32
  0
VERTEX
  8
0
  5
10B88
 10
38.0251
 20
19.6287
 30
0.000000
  70
    32
  0
VERTEX
  8
0
  5
10B89
 10
38.0072
 20
19.6714
 30
0.000000
  70
    32
  0
VERTEX
  8
0
  5
10B8A
 10
37.9894
 20
19.7142
 30
0.000000
  70
    32
  0
VERTEX
  8
0
  5
10B8B
 10
37.9717
 20
19.7570
 30
0.000000
  70
    32
  0
VERTEX
  8
0
  5
10B8C
 10
37.9541
 20
19.7998
 30
0.000000
  70
    32
  0
VERTEX
  8
0
  5
10B8D
 10
37.9365
 20
19.8427
 30
0.000000
  70
    32
  0
VERTEX
  8
0
  5
10B8E
 10
37.9191
 20
19.8856
 30
0.000000
  70
    32
  0
VERTEX
  8
0
  5
10B8F
 10
37.9017
 20
19.9285
 30
0.000000
  70
    32
  0
VERTEX
  8
0
  5
10B90
 10
37.8844
 20
19.9715
 30
0.000000
  70
    32
  0
VERTEX
  8
0
  5
10B91
 10
37.8672
 20
20.0145
 30
0.000000
  70
    32
  0
VERTEX
  8
0
  5
10B92
 10
37.8501
 20
20.0575
 30
0.000000
  70
    32
  0
VERTEX
  8
0
  5
10B93
 10
37.8331
 20
20.1006
 30
0.000000
  70
    32
  0
VERTEX
  8
0
  5
10B94
 10
37.8161
 20
20.1437
 30
0.000000
  70
    32
  0
VERTEX
  8
0
  5
10B95
 10
37.7993
 20
20.1868
 30
0.000000
  70
    32
  0
SEQEND
  8
0
  5
10B96
  0
LINE
  5
FCD1
  8
0
 10
136.34139601252261
 20
16.00001999999995
 30
0.0
 11
139.59139601252261
 21
16.00001999999995
 31
0.0
  0
LINE
  5
FCD2
  8
0
 10
145.84139601252261
 20
25.225467999999861
 30
0.0
 11
145.84139601252261
 21
16.00001999999995
 31
0.0
  0
LINE
  5
FCD3
  8
0
 10
138.84139601252261
 20
26.225467999999861
 30
0.0
 11
144.84139601252261
 21
26.225467999999861
 31
0.0
  0
LINE
  5
FCD9
  8
0
 10
140.59139601252261
 20
24.657574000000061
 30
0.0
 11
143.09139601252261
 21
24.657574000000061
 31
0.0
  0
LINE
  5
FCDA
  8
0
 10
140.59139601252261
 20
21.00001999999995
 30
0.0
 11
143.09139601252261
 21
21.00001999999995
 31
0.0
  0
LINE
  5
FCDB
  8
0
 10
137.84139601252261
 20
10.000019999999941
 30
0.0
 11
137.84139601252261
 21
-4.1241161249206471
 31
0.0
  0
LINE
  5
FCDD
  8
0
 10
136.3413931125223
 20
16.000023999999929
 30
0.0
 11
134.84139221252281
 21
10.000019999999941
 31
0.0
  0
LINE
  5
FCE2
  8
0
 10
144.84139651252281
 20
26.225467999999861
 30
0.0
 11
145.8413974125223
 21
25.225467999999861
 31
0.0
  0
LINE
  5
FCE3
  8
0
 10
145.84139601252261
 20
10.000019999999941
 30
0.0
 11
145.84139601252261
 21
-4.1241161249213292
 31
0.0
  0
LINE
  5
FCE4
  8
0
 10
144.09139601252261
 20
23.657574000000061
 30
0.0
 11
144.09139601252261
 21
10.000019999999941
 31
0.0
  0
LINE
  5
FCE7
  8
0
 10
139.59139601252261
 20
23.657574000000061
 30
0.0
 11
139.59139601252261
 21
10.000019999999941
 31
0.0
  0
LINE
  5
FCE8
  8
0
 10
147.34139891252281
 20
16.000023999999929
 30
0.0
 11
148.84139981252241
 21
10.000019999999941
 31
0.0
  0
LINE
  5
FCE9
  8
0
 10
126.8413960125208
 20
6.0000000000009086
 30
0.0
 11
136.34139601252079
 21
5.999999999999317
 31
0.0
  0
LINE
  5
FCEA
  8
0
 10
144.09139601252261
 20
16.00001999999995
 30
0.0
 11
147.34139601252261
 21
16.00001999999995
 31
0.0
  0
LINE
  5
FCEB
  8
0
 10
131.8413960125217
 20
2.5
 30
0.0
 11
137.84139601252261
 21
2.5
 31
0.0
  0
LINE
  5
FCED
  8
0
 10
131.8413960125217
 20
-2.5
 30
0.0
 11
137.84139601252261
 21
-2.5
 31
0.0
  0
LINE
  5
FCEF
  8
0
 10
131.8413960125217
 20
-6.0
 30
0.0
 11
136.3413960125217
 21
-6.0
 31
0.0
  0
LINE
  5
FCF1
  8
0
 10
138.84139551252241
 20
26.225467999999861
 30
0.0
 11
137.84139461252281
 21
25.225467999999861
 31
0.0
  0
LINE
  5
FCF2
  8
0
 10
137.84139601252261
 20
25.225467999999861
 30
0.0
 11
137.84139601252261
 21
16.00001999999995
 31
0.0
  0
ARC
  5
FCF3
  8
0
 10
143.09139601252261
 20
22.00001999999995
 30
0.0
 40
1.0
 50
270.0
 51
0.0
  0
ARC
  5
FCF4
  8
0
 10
140.59139601252261
 20
23.657574000000061
 30
0.0
 40
1.0
 50
90.0
 51
180.0
  0
ARC
  5
FCF5
  8
0
 10
140.59139601252261
 20
22.00001999999995
 30
0.0
 40
1.0
 50
180.0
 51
270.0
  0
ARC
  5
FCF6
  8
0
 10
143.09139601252261
 20
23.657574000000061
 30
0.0
 40
1.0
 50
0.0
 51
90.0
  0
POLYLINE
  5
FCF7
  8
0
 10
129.8413960125217
 20
2.9999999000000002
 30
0.0
 66
     1
 70
     8
  0
VERTEX
  8
0
  5
10B97
 10
129.841
 20
3.00000
 30
0.000000
  70
    32
  0
VERTEX
  8
0
  5
10B98
 10
129.805
 20
2.99910
 30
0.000000
  70
    32
  0
VERTEX
  8
0
  5
10B99
 10
129.768
 20
2.99639
 30
0.000000
  70
    32
  0
VERTEX
  8
0
  5
10B9A
 10
129.731
 20
2.99187
 30
0.000000
  70
    32
  0
VERTEX
  8
0
  5
10B9B
 10
129.694
 20
2.98555
 30
0.000000
  70
    32
  0
VERTEX
  8
0
  5
10B9C
 10
129.658
 20
2.97744
 30
0.000000
  70
    32
  0
VERTEX
  8
0
  5
10B9D
 10
129.621
 20
2.96753
 30
0.000000
  70
    32
  0
VERTEX
  8
0
  5
10B9E
 10
129.585
 20
2.95583
 30
0.000000
  70
    32
  0
VERTEX
  8
0
  5
10B9F
 10
129.549
 20
2.94236
 30
0.000000
  70
    32
  0
VERTEX
  8
0
  5
10BA0
 10
129.513
 20
2.92711
 30
0.000000
  70
    32
  0
VERTEX
  8
0
  5
10BA1
 10
129.477
 20
2.91009
 30
0.000000
  70
    32
  0
VERTEX
  8
0
  5
10BA2
 10
129.441
 20
2.89133
 30
0.000000
  70
    32
  0
VERTEX
  8
0
  5
10BA3
 10
129.406
 20
2.87082
 30
0.000000
  70
    32
  0
VERTEX
  8
0
  5
10BA4
 10
129.371
 20
2.84858
 30
0.000000
  70
    32
  0
VERTEX
  8
0
  5
10BA5
 10
129.336
 20
2.82463
 30
0.000000
  70
    32
  0
VERTEX
  8
0
  5
10BA6
 10
129.302
 20
2.79898
 30
0.000000
  70
    32
  0
VERTEX
  8
0
  5
10BA7
 10
129.267
 20
2.77164
 30
0.000000
  70
    32
  0
VERTEX
  8
0
  5
10BA8
 10
129.234
 20
2.74263
 30
0.000000
  70
    32
  0
VERTEX
  8
0
  5
10BA9
 10
129.200
 20
2.71197
 30
0.000000
  70
    32
  0
VERTEX
  8
0
  5
10BAA
 10
129.167
 20
2.67967
 30
0.000000
  70
    32
  0
VERTEX
  8
0
  5
10BAB
 10
129.134
 20
2.64576
 30
0.000000
  70
    32
  0
VERTEX
  8
0
  5
10BAC
 10
129.102
 20
2.61026
 30
0.000000
  70
    32
  0
VERTEX
  8
0
  5
10BAD
 10
129.070
 20
2.57319
 30
0.000000
  70
    32
  0
VERTEX
  8
0
  5
10BAE
 10
129.039
 20
2.53456
 30
0.000000
  70
    32
  0
VERTEX
  8
0
  5
10BAF
 10
129.008
 20
2.49441
 30
0.000000
  70
    32
  0
VERTEX
  8
0
  5
10BB0
 10
128.978
 20
2.45275
 30
0.000000
  70
    32
  0
VERTEX
  8
0
  5
10BB1
 10
128.948
 20
2.40962
 30
0.000000
  70
    32
  0
VERTEX
  8
0
  5
10BB2
 10
128.919
 20
2.36504
 30
0.000000
  70
    32
  0
VERTEX
  8
0
  5
10BB3
 10
128.890
 20
2.31903
 30
0.000000
  70
    32
  0
VERTEX
  8
0
  5
10BB4
 10
128.862
 20
2.27163
 30
0.000000
  70
    32
  0
VERTEX
  8
0
  5
10BB5
 10
128.834
 20
2.22285
 30
0.000000
  70
    32
  0
VERTEX
  8
0
  5
10BB6
 10
128.807
 20
2.17274
 30
0.000000
  70
    32
  0
VERTEX
  8
0
  5
10BB7
 10
128.781
 20
2.12132
 30
0.000000
  70
    32
  0
VERTEX
  8
0
  5
10BB8
 10
128.755
 20
2.06862
 30
0.000000
  70
    32
  0
VERTEX
  8
0
  5
10BB9
 10
128.730
 20
2.01468
 30
0.000000
  70
    32
  0
VERTEX
  8
0
  5
10BBA
 10
128.706
 20
1.95952
 30
0.000000
  70
    32
  0
VERTEX
  8
0
  5
10BBB
 10
128.682
 20
1.90318
 30
0.000000
  70
    32
  0
VERTEX
  8
0
  5
10BBC
 10
128.659
 20
1.84569
 30
0.000000
  70
    32
  0
VERTEX
  8
0
  5
10BBD
 10
128.637
 20
1.78710
 30
0.000000
  70
    32
  0
VERTEX
  8
0
  5
10BBE
 10
128.615
 20
1.72742
 30
0.000000
  70
    32
  0
VERTEX
  8
0
  5
10BBF
 10
128.594
 20
1.66671
 30
0.000000
  70
    32
  0
VERTEX
  8
0
  5
10BC0
 10
128.574
 20
1.60499
 30
0.000000
  70
    32
  0
VERTEX
  8
0
  5
10BC1
 10
128.555
 20
1.54231
 30
0.000000
  70
    32
  0
VERTEX
  8
0
  5
10BC2
 10
128.536
 20
1.47869
 30
0.000000
  70
    32
  0
VERTEX
  8
0
  5
10BC3
 10
128.519
 20
1.41419
 30
0.000000
  70
    32
  0
VERTEX
  8
0
  5
10BC4
 10
128.502
 20
1.34883
 30
0.000000
  70
    32
  0
VERTEX
  8
0
  5
10BC5
 10
128.485
 20
1.28267
 30
0.000000
  70
    32
  0
VERTEX
  8
0
  5
10BC6
 10
128.470
 20
1.21572
 30
0.000000
  70
    32
  0
VERTEX
  8
0
  5
10BC7
 10
128.456
 20
1.14805
 30
0.000000
  70
    32
  0
VERTEX
  8
0
  5
10BC8
 10
128.442
 20
1.07969
 30
0.000000
  70
    32
  0
VERTEX
  8
0
  5
10BC9
 10
128.429
 20
1.01067
 30
0.000000
  70
    32
  0
VERTEX
  8
0
  5
10BCA
 10
128.417
 20
0.941045
 30
0.000000
  70
    32
  0
VERTEX
  8
0
  5
10BCB
 10
128.406
 20
0.870854
 30
0.000000
  70
    32
  0
VERTEX
  8
0
  5
10BCC
 10
128.396
 20
0.800138
 30
0.000000
  70
    32
  0
VERTEX
  8
0
  5
10BCD
 10
128.386
 20
0.728940
 30
0.000000
  70
    32
  0
VERTEX
  8
0
  5
10BCE
 10
128.378
 20
0.657304
 30
0.000000
  70
    32
  0
VERTEX
  8
0
  5
10BCF
 10
128.370
 20
0.585271
 30
0.000000
  70
    32
  0
VERTEX
  8
0
  5
10BD0
 10
128.363
 20
0.512886
 30
0.000000
  70
    32
  0
VERTEX
  8
0
  5
10BD1
 10
128.358
 20
0.440191
 30
0.000000
  70
    32
  0
VERTEX
  8
0
  5
10BD2
 10
128.353
 20
0.367232
 30
0.000000
  70
    32
  0
VERTEX
  8
0
  5
10BD3
 10
128.349
 20
0.294051
 30
0.000000
  70
    32
  0
VERTEX
  8
0
  5
10BD4
 10
128.345
 20
0.220694
 30
0.000000
  70
    32
  0
VERTEX
  8
0
  5
10BD5
 10
128.343
 20
0.147203
 30
0.000000
  70
    32
  0
VERTEX
  8
0
  5
10BD6
 10
128.342
 20
0.0736236
 30
0.000000
  70
    32
  0
VERTEX
  8
0
  5
10BD7
 10
128.341
 20
-3.48077e-008
 30
0.000000
  70
    32
  0
VERTEX
  8
0
  5
10BD8
 10
128.342
 20
-0.0736237
 30
0.000000
  70
    32
  0
VERTEX
  8
0
  5
10BD9
 10
128.343
 20
-0.147203
 30
0.000000
  70
    32
  0
VERTEX
  8
0
  5
10BDA
 10
128.345
 20
-0.220694
 30
0.000000
  70
    32
  0
VERTEX
  8
0
  5
10BDB
 10
128.349
 20
-0.294051
 30
0.000000
  70
    32
  0
VERTEX
  8
0
  5
10BDC
 10
128.353
 20
-0.367232
 30
0.000000
  70
    32
  0
VERTEX
  8
0
  5
10BDD
 10
128.358
 20
-0.440191
 30
0.000000
  70
    32
  0
VERTEX
  8
0
  5
10BDE
 10
128.363
 20
-0.512886
 30
0.000000
  70
    32
  0
VERTEX
  8
0
  5
10BDF
 10
128.370
 20
-0.585271
 30
0.000000
  70
    32
  0
VERTEX
  8
0
  5
10BE0
 10
128.378
 20
-0.657304
 30
0.000000
  70
    32
  0
VERTEX
  8
0
  5
10BE1
 10
128.386
 20
-0.728941
 30
0.000000
  70
    32
  0
VERTEX
  8
0
  5
10BE2
 10
128.396
 20
-0.800138
 30
0.000000
  70
    32
  0
VERTEX
  8
0
  5
10BE3
 10
128.406
 20
-0.870854
 30
0.000000
  70
    32
  0
VERTEX
  8
0
  5
10BE4
 10
128.417
 20
-0.941045
 30
0.000000
  70
    32
  0
VERTEX
  8
0
  5
10BE5
 10
128.429
 20
-1.01067
 30
0.000000
  70
    32
  0
VERTEX
  8
0
  5
10BE6
 10
128.442
 20
-1.07969
 30
0.000000
  70
    32
  0
VERTEX
  8
0
  5
10BE7
 10
128.456
 20
-1.14805
 30
0.000000
  70
    32
  0
VERTEX
  8
0
  5
10BE8
 10
128.470
 20
-1.21572
 30
0.000000
  70
    32
  0
VERTEX
  8
0
  5
10BE9
 10
128.485
 20
-1.28267
 30
0.000000
  70
    32
  0
VERTEX
  8
0
  5
10BEA
 10
128.502
 20
-1.34883
 30
0.000000
  70
    32
  0
VERTEX
  8
0
  5
10BEB
 10
128.519
 20
-1.41419
 30
0.000000
  70
    32
  0
VERTEX
  8
0
  5
10BEC
 10
128.536
 20
-1.47869
 30
0.000000
  70
    32
  0
VERTEX
  8
0
  5
10BED
 10
128.555
 20
-1.54231
 30
0.000000
  70
    32
  0
VERTEX
  8
0
  5
10BEE
 10
128.574
 20
-1.60499
 30
0.000000
  70
    32
  0
VERTEX
  8
0
  5
10BEF
 10
128.594
 20
-1.66671
 30
0.000000
  70
    32
  0
VERTEX
  8
0
  5
10BF0
 10
128.615
 20
-1.72742
 30
0.000000
  70
    32
  0
VERTEX
  8
0
  5
10BF1
 10
128.637
 20
-1.78710
 30
0.000000
  70
    32
  0
VERTEX
  8
0
  5
10BF2
 10
128.659
 20
-1.84569
 30
0.000000
  70
    32
  0
VERTEX
  8
0
  5
10BF3
 10
128.682
 20
-1.90318
 30
0.000000
  70
    32
  0
VERTEX
  8
0
  5
10BF4
 10
128.706
 20
-1.95952
 30
0.000000
  70
    32
  0
VERTEX
  8
0
  5
10BF5
 10
128.730
 20
-2.01468
 30
0.000000
  70
    32
  0
VERTEX
  8
0
  5
10BF6
 10
128.755
 20
-2.06862
 30
0.000000
  70
    32
  0
VERTEX
  8
0
  5
10BF7
 10
128.781
 20
-2.12132
 30
0.000000
  70
    32
  0
VERTEX
  8
0
  5
10BF8
 10
128.807
 20
-2.17274
 30
0.000000
  70
    32
  0
VERTEX
  8
0
  5
10BF9
 10
128.834
 20
-2.22285
 30
0.000000
  70
    32
  0
VERTEX
  8
0
  5
10BFA
 10
128.862
 20
-2.27163
 30
0.000000
  70
    32
  0
VERTEX
  8
0
  5
10BFB
 10
128.890
 20
-2.31903
 30
0.000000
  70
    32
  0
VERTEX
  8
0
  5
10BFC
 10
128.919
 20
-2.36504
 30
0.000000
  70
    32
  0
VERTEX
  8
0
  5
10BFD
 10
128.948
 20
-2.40962
 30
0.000000
  70
    32
  0
VERTEX
  8
0
  5
10BFE
 10
128.978
 20
-2.45275
 30
0.000000
  70
    32
  0
VERTEX
  8
0
  5
10BFF
 10
129.008
 20
-2.49441
 30
0.000000
  70
    32
  0
VERTEX
  8
0
  5
10C00
 10
129.039
 20
-2.53456
 30
0.000000
  70
    32
  0
VERTEX
  8
0
  5
10C01
 10
129.070
 20
-2.57319
 30
0.000000
  70
    32
  0
VERTEX
  8
0
  5
10C02
 10
129.102
 20
-2.61026
 30
0.000000
  70
    32
  0
VERTEX
  8
0
  5
10C03
 10
129.134
 20
-2.64576
 30
0.000000
  70
    32
  0
VERTEX
  8
0
  5
10C04
 10
129.167
 20
-2.67967
 30
0.000000
  70
    32
  0
VERTEX
  8
0
  5
10C05
 10
129.200
 20
-2.71197
 30
0.000000
  70
    32
  0
VERTEX
  8
0
  5
10C06
 10
129.234
 20
-2.74263
 30
0.000000
  70
    32
  0
VERTEX
  8
0
  5
10C07
 10
129.267
 20
-2.77164
 30
0.000000
  70
    32
  0
VERTEX
  8
0
  5
10C08
 10
129.302
 20
-2.79898
 30
0.000000
  70
    32
  0
VERTEX
  8
0
  5
10C09
 10
129.336
 20
-2.82463
 30
0.000000
  70
    32
  0
VERTEX
  8
0
  5
10C0A
 10
129.371
 20
-2.84858
 30
0.000000
  70
    32
  0
VERTEX
  8
0
  5
10C0B
 10
129.406
 20
-2.87082
 30
0.000000
  70
    32
  0
VERTEX
  8
0
  5
10C0C
 10
129.441
 20
-2.89133
 30
0.000000
  70
    32
  0
VERTEX
  8
0
  5
10C0D
 10
129.477
 20
-2.91009
 30
0.000000
  70
    32
  0
VERTEX
  8
0
  5
10C0E
 10
129.513
 20
-2.92711
 30
0.000000
  70
    32
  0
VERTEX
  8
0
  5
10C0F
 10
129.549
 20
-2.94236
 30
0.000000
  70
    32
  0
VERTEX
  8
0
  5
10C10
 10
129.585
 20
-2.95583
 30
0.000000
  70
    32
  0
VERTEX
  8
0
  5
10C11
 10
129.621
 20
-2.96753
 30
0.000000
  70
    32
  0
VERTEX
  8
0
  5
10C12
 10
129.658
 20
-2.97744
 30
0.000000
  70
    32
  0
VERTEX
  8
0
  5
10C13
 10
129.694
 20
-2.98555
 30
0.000000
  70
    32
  0
VERTEX
  8
0
  5
10C14
 10
129.731
 20
-2.99187
 30
0.000000
  70
    32
  0
VERTEX
  8
0
  5
10C15
 10
129.768
 20
-2.99639
 30
0.000000
  70
    32
  0
VERTEX
  8
0
  5
10C16
 10
129.805
 20
-2.99910
 30
0.000000
  70
    32
  0
VERTEX
  8
0
  5
10C17
 10
129.841
 20
-3.00000
 30
0.000000
  70
    32
  0
SEQEND
  8
0
  5
10C18
  0
ARC
  5
FCF9
  8
0
 10
141.84139601252261
 20
2.8040871053544829
 30
0.0
 40
8.0
 50
239.99999999999619
 51
299.99999999999721
  0
LINE
  5
FCFC
  8
0
 10
126.84139601252259
 20
40.499999999999993
 30
0.0
 11
126.8413960125208
 21
6.0000000000009086
 31
0.0
  0
LINE
  5
FCFD
  8
0
 10
156.84139601252261
 20
40.499999999999993
 30
0.0
 11
156.8413960125217
 21
6.0000199999999486
 31
0.0
  0
LINE
  5
FCFE
  8
0
 10
147.34139601252261
 20
8.0000199999999495
 30
0.0
 11
147.34139601252261
 21
6.0000199999999486
 31
0.0
  0
LINE
  5
FD00
  8
0
 10
136.34139601252079
 20
8.0000199999999495
 30
0.0
 11
136.34139601252079
 21
5.999999999999317
 31
0.0
  0
LINE
  5
FD03
  8
0
 10
147.34139601252261
 20
6.0000199999999486
 30
0.0
 11
156.8413960125217
 21
6.0000199999999486
 31
0.0
  0
LINE
  5
FD04
  8
0
 10
149.34139601252261
 20
8.0000199999994948
 30
0.0
 11
156.84139601252261
 21
8.0000199999999495
 31
0.0
  0
LINE
  5
FD05
  8
0
 10
134.34139601252261
 20
10.000019999999941
 30
0.0
 11
149.34139601252261
 21
10.000019999999941
 31
0.0
  0
LINE
  5
FD06
  8
0
 10
136.34139601252079
 20
8.0000199999999495
 30
0.0
 11
137.59139859114561
 21
8.0000199999999495
 31
0.0
  0
LINE
  5
FD0A
  8
0
 10
134.34139601252261
 20
8.0000199999999495
 30
0.0
 11
126.84139601252259
 21
8.0000199999999495
 31
0.0
  0
LINE
  5
FD0B
  8
0
 10
129.84139601252261
 20
-41.999996000000003
 30
0.0
 11
153.84139601252261
 21
-41.999996000000003
 31
0.0
  0
LINE
  5
FD0C
  8
0
 10
128.84139601252261
 20
-37.619808611953196
 30
0.0
 11
128.84139601252261
 21
-40.99999600000001
 31
0.0
  0
LINE
  5
FD0D
  8
0
 10
154.84139601252261
 20
-37.619808611953196
 30
0.0
 11
154.84139601252261
 21
-40.99999600000001
 31
0.0
  0
LINE
  5
FD0F
  8
0
 10
152.84139601252261
 20
-41.999996000000003
 30
0.0
 11
152.84139601252261
 21
-66.99999600000001
 31
0.0
  0
LINE
  5
FD10
  8
0
 10
130.84139601252261
 20
-41.999996000000003
 30
0.0
 11
130.84139601252261
 21
-66.99999600000001
 31
0.0
  0
ARC
  5
FD11
  8
0
 10
129.84139601252261
 20
-40.99999600000001
 30
0.0
 40
1.0
 50
179.99998999999889
 51
270.0
  0
ARC
  5
FD12
  8
0
 10
153.84139601252261
 20
-40.99999600000001
 30
0.0
 40
1.0
 50
270.0
 51
0.0
  0
LINE
  5
FD19
  8
0
 10
122.8413960125217
 20
-40.499999999999893
 30
0.0
 11
128.84139601252261
 21
-40.499999999999893
 31
0.0
  0
LINE
  5
FD1A
  8
0
 10
134.3413960125217
 20
-39.764933383467557
 30
0.0
 11
149.34139601252349
 21
-39.764933383467671
 31
0.0
  0
LINE
  5
FD1B
  8
0
 10
128.84139601252261
 20
-37.619808611953196
 30
0.0
 11
134.3413960125217
 21
-37.619808611952969
 31
0.0
  0
LINE
  5
FD1C
  8
0
 10
149.34139601252349
 20
-37.619808611952863
 30
0.0
 11
154.84139601252261
 21
-37.619808611953196
 31
0.0
  0
LINE
  5
FD1D
  8
0
 10
154.84139601252261
 20
-40.499999999999893
 30
0.0
 11
160.84139601252261
 21
-40.499999999999893
 31
0.0
  0
LINE
  5
FD1E
  8
0
 10
134.34139601252261
 20
42.5
 30
0.0
 11
149.34139601252261
 21
42.500000000000448
 31
0.0
  0
LINE
  5
FD1F
  8
0
 10
126.84139601252259
 20
40.499999999999993
 30
0.0
 11
134.34139601252261
 21
40.499999999999993
 31
0.0
  0
LINE
  5
FD20
  8
0
 10
149.34139601252261
 20
40.499999999999993
 30
0.0
 11
156.84139601252261
 21
40.499999999999993
 31
0.0
  0
LINE
  5
FD3E
  8
0
 10
130.84139601252261
 20
-66.99999600000001
 30
0.0
 11
152.84139601252261
 21
-66.99999600000001
 31
0.0
  0
LINE
  5
FE24
  8
0
 10
122.8413960125217
 20
-40.499999999999893
 30
0.0
 11
122.8413960125217
 21
-13.64734406395621
 31
0.0
  0
LINE
  5
FE26
  8
0
 10
129.8413960125217
 20
6.0000199999999486
 30
0.0
 11
129.8413960125217
 21
-8.0
 31
0.0
  0
LINE
  5
FE27
  8
0
 10
131.8413960125217
 20
6.0000199999999486
 30
0.0
 11
131.8413960125217
 21
-6.0
 31
0.0
  0
LINE
  5
FE2A
  8
0
 10
136.3413960125217
 20
-6.0
 30
0.0
 11
136.3413960125217
 21
-8.0
 31
0.0
  0
LINE
  5
FE2D
  8
0
 10
134.3413960125217
 20
-9.9999999999997726
 30
0.0
 11
149.34139601252349
 21
-9.9999999999997726
 31
0.0
  0
LINE
  5
FE2E
  8
0
 10
129.8413960125217
 20
-8.0
 30
0.0
 11
134.3413960125217
 21
-8.0
 31
0.0
  0
LINE
  5
FE30
  8
0
 10
134.3413960125217
 20
-8.0
 30
0.0
 11
134.3413960125217
 21
-39.764933383467557
 31
0.0
  0
LINE
  5
FE31
  8
0
 10
136.3413960125217
 20
-8.0
 30
0.0
 11
147.34139601252349
 21
-8.0
 31
0.0
  0
LINE
  5
FE34
  8
0
 10
122.8413960125217
 20
-13.64734406395621
 30
0.0
 11
129.8413960125217
 21
-8.0
 31
0.0
  0
LINE
  5
FE35
  8
0
 10
151.84139601252349
 20
-6.0
 30
0.0
 11
147.34139601252349
 21
-6.0
 31
0.0
  0
LINE
  5
FE36
  8
0
 10
160.84139601252349
 20
-40.499999999999893
 30
0.0
 11
160.84139601252349
 21
-13.64734406395621
 31
0.0
  0
LINE
  5
FE37
  8
0
 10
153.84139601252349
 20
6.0000199999999486
 30
0.0
 11
153.84139601252349
 21
-8.0
 31
0.0
  0
LINE
  5
FE38
  8
0
 10
151.84139601252349
 20
6.0000199999999486
 30
0.0
 11
151.84139601252349
 21
-6.0
 31
0.0
  0
LINE
  5
FE39
  8
0
 10
147.34139601252349
 20
-6.0
 30
0.0
 11
147.34139601252349
 21
-8.0
 31
0.0
  0
LINE
  5
FE3A
  8
0
 10
149.34139601252349
 20
-8.0
 30
0.0
 11
149.34139601252349
 21
-39.764933383467671
 31
0.0
  0
LINE
  5
FE3D
  8
0
 10
153.84139601252349
 20
-8.0
 30
0.0
 11
149.34139601252349
 21
-8.0
 31
0.0
  0
LINE
  5
FE3E
  8
0
 10
160.84139601252349
 20
-13.64734406395621
 30
0.0
 11
153.84139601252349
 21
-8.0
 31
0.0
  0
LINE
  5
FE3F
  8
0
 10
151.84139601252349
 20
2.5
 30
0.0
 11
145.84139601252261
 21
2.5
 31
0.0
  0
LINE
  5
FE40
  8
0
 10
151.84139601252349
 20
-2.5
 30
0.0
 11
145.84139601252261
 21
-2.5
 31
0.0
  0
POLYLINE
  5
FE41
  8
0
 10
153.84139601252349
 20
2.9999999000000002
 30
0.0
 66
     1
 70
     8
  0
VERTEX
  8
0
  5
10C19
 10
153.841
 20
3.00000
 30
0.000000
  70
    32
  0
VERTEX
  8
0
  5
10C1A
 10
153.878
 20
2.99910
 30
0.000000
  70
    32
  0
VERTEX
  8
0
  5
10C1B
 10
153.915
 20
2.99639
 30
0.000000
  70
    32
  0
VERTEX
  8
0
  5
10C1C
 10
153.952
 20
2.99187
 30
0.000000
  70
    32
  0
VERTEX
  8
0
  5
10C1D
 10
153.988
 20
2.98555
 30
0.000000
  70
    32
  0
VERTEX
  8
0
  5
10C1E
 10
154.025
 20
2.97744
 30
0.000000
  70
    32
  0
VERTEX
  8
0
  5
10C1F
 10
154.061
 20
2.96753
 30
0.000000
  70
    32
  0
VERTEX
  8
0
  5
10C20
 10
154.098
 20
2.95583
 30
0.000000
  70
    32
  0
VERTEX
  8
0
  5
10C21
 10
154.134
 20
2.94236
 30
0.000000
  70
    32
  0
VERTEX
  8
0
  5
10C22
 10
154.170
 20
2.92711
 30
0.000000
  70
    32
  0
VERTEX
  8
0
  5
10C23
 10
154.206
 20
2.91009
 30
0.000000
  70
    32
  0
VERTEX
  8
0
  5
10C24
 10
154.241
 20
2.89133
 30
0.000000
  70
    32
  0
VERTEX
  8
0
  5
10C25
 10
154.277
 20
2.87082
 30
0.000000
  70
    32
  0
VERTEX
  8
0
  5
10C26
 10
154.312
 20
2.84858
 30
0.000000
  70
    32
  0
VERTEX
  8
0
  5
10C27
 10
154.347
 20
2.82463
 30
0.000000
  70
    32
  0
VERTEX
  8
0
  5
10C28
 10
154.381
 20
2.79898
 30
0.000000
  70
    32
  0
VERTEX
  8
0
  5
10C29
 10
154.415
 20
2.77164
 30
0.000000
  70
    32
  0
VERTEX
  8
0
  5
10C2A
 10
154.449
 20
2.74263
 30
0.000000
  70
    32
  0
VERTEX
  8
0
  5
10C2B
 10
154.483
 20
2.71197
 30
0.000000
  70
    32
  0
VERTEX
  8
0
  5
10C2C
 10
154.516
 20
2.67967
 30
0.000000
  70
    32
  0
VERTEX
  8
0
  5
10C2D
 10
154.548
 20
2.64576
 30
0.000000
  70
    32
  0
VERTEX
  8
0
  5
10C2E
 10
154.581
 20
2.61026
 30
0.000000
  70
    32
  0
VERTEX
  8
0
  5
10C2F
 10
154.613
 20
2.57319
 30
0.000000
  70
    32
  0
VERTEX
  8
0
  5
10C30
 10
154.644
 20
2.53456
 30
0.000000
  70
    32
  0
VERTEX
  8
0
  5
10C31
 10
154.675
 20
2.49441
 30
0.000000
  70
    32
  0
VERTEX
  8
0
  5
10C32
 10
154.705
 20
2.45275
 30
0.000000
  70
    32
  0
VERTEX
  8
0
  5
10C33
 10
154.735
 20
2.40962
 30
0.000000
  70
    32
  0
VERTEX
  8
0
  5
10C34
 10
154.764
 20
2.36504
 30
0.000000
  70
    32
  0
VERTEX
  8
0
  5
10C35
 10
154.793
 20
2.31903
 30
0.000000
  70
    32
  0
VERTEX
  8
0
  5
10C36
 10
154.821
 20
2.27163
 30
0.000000
  70
    32
  0
VERTEX
  8
0
  5
10C37
 10
154.849
 20
2.22285
 30
0.000000
  70
    32
  0
VERTEX
  8
0
  5
10C38
 10
154.876
 20
2.17274
 30
0.000000
  70
    32
  0
VERTEX
  8
0
  5
10C39
 10
154.902
 20
2.12132
 30
0.000000
  70
    32
  0
VERTEX
  8
0
  5
10C3A
 10
154.928
 20
2.06862
 30
0.000000
  70
    32
  0
VERTEX
  8
0
  5
10C3B
 10
154.953
 20
2.01468
 30
0.000000
  70
    32
  0
VERTEX
  8
0
  5
10C3C
 10
154.977
 20
1.95952
 30
0.000000
  70
    32
  0
VERTEX
  8
0
  5
10C3D
 10
155.001
 20
1.90318
 30
0.000000
  70
    32
  0
VERTEX
  8
0
  5
10C3E
 10
155.024
 20
1.84569
 30
0.000000
  70
    32
  0
VERTEX
  8
0
  5
10C3F
 10
155.046
 20
1.78710
 30
0.000000
  70
    32
  0
VERTEX
  8
0
  5
10C40
 10
155.068
 20
1.72742
 30
0.000000
  70
    32
  0
VERTEX
  8
0
  5
10C41
 10
155.089
 20
1.66671
 30
0.000000
  70
    32
  0
VERTEX
  8
0
  5
10C42
 10
155.109
 20
1.60499
 30
0.000000
  70
    32
  0
VERTEX
  8
0
  5
10C43
 10
155.128
 20
1.54231
 30
0.000000
  70
    32
  0
VERTEX
  8
0
  5
10C44
 10
155.147
 20
1.47869
 30
0.000000
  70
    32
  0
VERTEX
  8
0
  5
10C45
 10
155.164
 20
1.41419
 30
0.000000
  70
    32
  0
VERTEX
  8
0
  5
10C46
 10
155.181
 20
1.34883
 30
0.000000
  70
    32
  0
VERTEX
  8
0
  5
10C47
 10
155.197
 20
1.28267
 30
0.000000
  70
    32
  0
VERTEX
  8
0
  5
10C48
 10
155.213
 20
1.21572
 30
0.000000
  70
    32
  0
VERTEX
  8
0
  5
10C49
 10
155.227
 20
1.14805
 30
0.000000
  70
    32
  0
VERTEX
  8
0
  5
10C4A
 10
155.241
 20
1.07969
 30
0.000000
  70
    32
  0
VERTEX
  8
0
  5
10C4B
 10
155.254
 20
1.01067
 30
0.000000
  70
    32
  0
VERTEX
  8
0
  5
10C4C
 10
155.266
 20
0.941045
 30
0.000000
  70
    32
  0
VERTEX
  8
0
  5
10C4D
 10
155.277
 20
0.870854
 30
0.000000
  70
    32
  0
VERTEX
  8
0
  5
10C4E
 10
155.287
 20
0.800138
 30
0.000000
  70
    32
  0
VERTEX
  8
0
  5
10C4F
 10
155.296
 20
0.728940
 30
0.000000
  70
    32
  0
VERTEX
  8
0
  5
10C50
 10
155.305
 20
0.657304
 30
0.000000
  70
    32
  0
VERTEX
  8
0
  5
10C51
 10
155.313
 20
0.585271
 30
0.000000
  70
    32
  0
VERTEX
  8
0
  5
10C52
 10
155.319
 20
0.512886
 30
0.000000
  70
    32
  0
VERTEX
  8
0
  5
10C53
 10
155.325
 20
0.440191
 30
0.000000
  70
    32
  0
VERTEX
  8
0
  5
10C54
 10
155.330
 20
0.367232
 30
0.000000
  70
    32
  0
VERTEX
  8
0
  5
10C55
 10
155.334
 20
0.294051
 30
0.000000
  70
    32
  0
VERTEX
  8
0
  5
10C56
 10
155.337
 20
0.220694
 30
0.000000
  70
    32
  0
VERTEX
  8
0
  5
10C57
 10
155.340
 20
0.147203
 30
0.000000
  70
    32
  0
VERTEX
  8
0
  5
10C58
 10
155.341
 20
0.0736236
 30
0.000000
  70
    32
  0
VERTEX
  8
0
  5
10C59
 10
155.341
 20
-3.48077e-008
 30
0.000000
  70
    32
  0
VERTEX
  8
0
  5
10C5A
 10
155.341
 20
-0.0736237
 30
0.000000
  70
    32
  0
VERTEX
  8
0
  5
10C5B
 10
155.340
 20
-0.147203
 30
0.000000
  70
    32
  0
VERTEX
  8
0
  5
10C5C
 10
155.337
 20
-0.220694
 30
0.000000
  70
    32
  0
VERTEX
  8
0
  5
10C5D
 10
155.334
 20
-0.294051
 30
0.000000
  70
    32
  0
VERTEX
  8
0
  5
10C5E
 10
155.330
 20
-0.367232
 30
0.000000
  70
    32
  0
VERTEX
  8
0
  5
10C5F
 10
155.325
 20
-0.440191
 30
0.000000
  70
    32
  0
VERTEX
  8
0
  5
10C60
 10
155.319
 20
-0.512886
 30
0.000000
  70
    32
  0
VERTEX
  8
0
  5
10C61
 10
155.313
 20
-0.585271
 30
0.000000
  70
    32
  0
VERTEX
  8
0
  5
10C62
 10
155.305
 20
-0.657304
 30
0.000000
  70
    32
  0
VERTEX
  8
0
  5
10C63
 10
155.296
 20
-0.728941
 30
0.000000
  70
    32
  0
VERTEX
  8
0
  5
10C64
 10
155.287
 20
-0.800138
 30
0.000000
  70
    32
  0
VERTEX
  8
0
  5
10C65
 10
155.277
 20
-0.870854
 30
0.000000
  70
    32
  0
VERTEX
  8
0
  5
10C66
 10
155.266
 20
-0.941045
 30
0.000000
  70
    32
  0
VERTEX
  8
0
  5
10C67
 10
155.254
 20
-1.01067
 30
0.000000
  70
    32
  0
VERTEX
  8
0
  5
10C68
 10
155.241
 20
-1.07969
 30
0.000000
  70
    32
  0
VERTEX
  8
0
  5
10C69
 10
155.227
 20
-1.14805
 30
0.000000
  70
    32
  0
VERTEX
  8
0
  5
10C6A
 10
155.213
 20
-1.21572
 30
0.000000
  70
    32
  0
VERTEX
  8
0
  5
10C6B
 10
155.197
 20
-1.28267
 30
0.000000
  70
    32
  0
VERTEX
  8
0
  5
10C6C
 10
155.181
 20
-1.34883
 30
0.000000
  70
    32
  0
VERTEX
  8
0
  5
10C6D
 10
155.164
 20
-1.41419
 30
0.000000
  70
    32
  0
VERTEX
  8
0
  5
10C6E
 10
155.147
 20
-1.47869
 30
0.000000
  70
    32
  0
VERTEX
  8
0
  5
10C6F
 10
155.128
 20
-1.54231
 30
0.000000
  70
    32
  0
VERTEX
  8
0
  5
10C70
 10
155.109
 20
-1.60499
 30
0.000000
  70
    32
  0
VERTEX
  8
0
  5
10C71
 10
155.089
 20
-1.66671
 30
0.000000
  70
    32
  0
VERTEX
  8
0
  5
10C72
 10
155.068
 20
-1.72742
 30
0.000000
  70
    32
  0
VERTEX
  8
0
  5
10C73
 10
155.046
 20
-1.78710
 30
0.000000
  70
    32
  0
VERTEX
  8
0
  5
10C74
 10
155.024
 20
-1.84569
 30
0.000000
  70
    32
  0
VERTEX
  8
0
  5
10C75
 10
155.001
 20
-1.90318
 30
0.000000
  70
    32
  0
VERTEX
  8
0
  5
10C76
 10
154.977
 20
-1.95952
 30
0.000000
  70
    32
  0
VERTEX
  8
0
  5
10C77
 10
154.953
 20
-2.01468
 30
0.000000
  70
    32
  0
VERTEX
  8
0
  5
10C78
 10
154.928
 20
-2.06862
 30
0.000000
  70
    32
  0
VERTEX
  8
0
  5
10C79
 10
154.902
 20
-2.12132
 30
0.000000
  70
    32
  0
VERTEX
  8
0
  5
10C7A
 10
154.876
 20
-2.17274
 30
0.000000
  70
    32
  0
VERTEX
  8
0
  5
10C7B
 10
154.849
 20
-2.22285
 30
0.000000
  70
    32
  0
VERTEX
  8
0
  5
10C7C
 10
154.821
 20
-2.27163
 30
0.000000
  70
    32
  0
VERTEX
  8
0
  5
10C7D
 10
154.793
 20
-2.31903
 30
0.000000
  70
    32
  0
VERTEX
  8
0
  5
10C7E
 10
154.764
 20
-2.36504
 30
0.000000
  70
    32
  0
VERTEX
  8
0
  5
10C7F
 10
154.735
 20
-2.40962
 30
0.000000
  70
    32
  0
VERTEX
  8
0
  5
10C80
 10
154.705
 20
-2.45275
 30
0.000000
  70
    32
  0
VERTEX
  8
0
  5
10C81
 10
154.675
 20
-2.49441
 30
0.000000
  70
    32
  0
VERTEX
  8
0
  5
10C82
 10
154.644
 20
-2.53456
 30
0.000000
  70
    32
  0
VERTEX
  8
0
  5
10C83
 10
154.613
 20
-2.57319
 30
0.000000
  70
    32
  0
VERTEX
  8
0
  5
10C84
 10
154.581
 20
-2.61026
 30
0.000000
  70
    32
  0
VERTEX
  8
0
  5
10C85
 10
154.548
 20
-2.64576
 30
0.000000
  70
    32
  0
VERTEX
  8
0
  5
10C86
 10
154.516
 20
-2.67967
 30
0.000000
  70
    32
  0
VERTEX
  8
0
  5
10C87
 10
154.483
 20
-2.71197
 30
0.000000
  70
    32
  0
VERTEX
  8
0
  5
10C88
 10
154.449
 20
-2.74263
 30
0.000000
  70
    32
  0
VERTEX
  8
0
  5
10C89
 10
154.415
 20
-2.77164
 30
0.000000
  70
    32
  0
VERTEX
  8
0
  5
10C8A
 10
154.381
 20
-2.79898
 30
0.000000
  70
    32
  0
VERTEX
  8
0
  5
10C8B
 10
154.347
 20
-2.82463
 30
0.000000
  70
    32
  0
VERTEX
  8
0
  5
10C8C
 10
154.312
 20
-2.84858
 30
0.000000
  70
    32
  0
VERTEX
  8
0
  5
10C8D
 10
154.277
 20
-2.87082
 30
0.000000
  70
    32
  0
VERTEX
  8
0
  5
10C8E
 10
154.241
 20
-2.89133
 30
0.000000
  70
    32
  0
VERTEX
  8
0
  5
10C8F
 10
154.206
 20
-2.91009
 30
0.000000
  70
    32
  0
VERTEX
  8
0
  5
10C90
 10
154.170
 20
-2.92711
 30
0.000000
  70
    32
  0
VERTEX
  8
0
  5
10C91
 10
154.134
 20
-2.94236
 30
0.000000
  70
    32
  0
VERTEX
  8
0
  5
10C92
 10
154.098
 20
-2.95583
 30
0.000000
  70
    32
  0
VERTEX
  8
0
  5
10C93
 10
154.061
 20
-2.96753
 30
0.000000
  70
    32
  0
VERTEX
  8
0
  5
10C94
 10
154.025
 20
-2.97744
 30
0.000000
  70
    32
  0
VERTEX
  8
0
  5
10C95
 10
153.988
 20
-2.98555
 30
0.000000
  70
    32
  0
VERTEX
  8
0
  5
10C96
 10
153.952
 20
-2.99187
 30
0.000000
  70
    32
  0
VERTEX
  8
0
  5
10C97
 10
153.915
 20
-2.99639
 30
0.000000
  70
    32
  0
VERTEX
  8
0
  5
10C98
 10
153.878
 20
-2.99910
 30
0.000000
  70
    32
  0
VERTEX
  8
0
  5
10C99
 10
153.841
 20
-3.00000
 30
0.000000
  70
    32
  0
SEQEND
  8
0
  5
10C9A
  0
LINE
  5
FE44
  8
0
 10
134.34139601252261
 20
42.5
 30
0.0
 11
134.34139601252261
 21
8.0000199999999495
 31
0.0
  0
LINE
  5
FE45
  8
0
 10
149.34139601252261
 20
42.500000000000448
 30
0.0
 11
149.34139601252261
 21
8.0000199999994948
 31
0.0
  0
LINE
  5
FE46
  8
0
  6
CENTER
 10
141.84139132605279
 20
50.127142796734461
 30
0.0
 11
141.84139626063731
 21
-73.201021286599484
 31
0.0
  0
LINE
  5
FF3C
  8
0
 10
137.59139859114561
 20
10.000019999999941
 30
0.0
 11
137.59139859114561
 21
8.0000199999999495
 31
0.0
  0
LINE
  5
FF3D
  8
0
 10
146.09139859114561
 20
10.000019999999941
 30
0.0
 11
146.09139859114561
 21
8.0000199999999495
 31
0.0
  0
LINE
  5
FF3E
  8
0
 10
146.0913985911447
 20
8.0000199999999495
 30
0.0
 11
147.34139601252261
 21
8.0000199999999495
 31
0.0
  0
LINE
  5
10078
  8
0
  6
CENTER
 10
126.1220461154352
 20
0.0000000000002274
 30
0.0
 11
157.5607405480277
 21
0.0000000000002274
 31
0.0
  0
LINE
  5
1007F
  8
0
  6
CENTER
 10
53.0
 20
105.4715153189984
 30
0.0
 11
53.0
 21
87.908352772831904
 31
0.0
  0
CIRCLE
  5
1009D
  8
0
 10
53.0
 20
96.662154045915244
 30
0.0
 40
4.0
  0
CIRCLE
  5
1009E
  8
0
 10
53.0
 20
96.662154045915244
 30
0.0
 40
5.5
  0
CIRCLE
  5
1009F
  8
0
 10
53.0
 20
96.662154045915244
 30
0.0
 40
3.0
  0
CIRCLE
  5
100A5
  8
0
 10
53.0
 20
0.0
 30
0.0
 40
2.9999998999996929
  0
CIRCLE
  5
100A6
  8
0
 10
-51.0
 20
0.0
 30
0.0
 40
2.9999998999996929
  0
TEXT
  5
10260
  8
0
 10
-152.997803163752
 20
187.54815638559299
 30
0.0
 40
30.0
  1
P-HANGER(S) 3S
 72
     4
 11
41.002196836247997
 21
200.40529924273591
 31
0.0
  0
ENDSEC
  0
EOF
