  0
SECTION
  2
HEADER
  9
$ACADVER
  1
AC1009
  9
$INSBASE
 10
0.0
 20
0.0
 30
0.0
  9
$EXTMIN
 10
-147.2835174494663
 20
-56.785491892155051
 30
0.0
  9
$EXTMAX
 10
229.28791112196211
 20
221.26244209987871
 30
0.0
  9
$LIMMIN
 10
0.0
 20
0.0
  9
$LIMMAX
 10
420.0
 20
297.0
  9
$ORTHOMODE
 70
     0
  9
$REGENMODE
 70
     1
  9
$FILLMODE
 70
     1
  9
$QTEXTMODE
 70
     0
  9
$MIRRTEXT
 70
     1
  9
$DRAGMODE
 70
     2
  9
$LTSCALE
 40
1.0
  9
$OSMODE
 70
    37
  9
$ATTMODE
 70
     1
  9
$TEXTSIZE
 40
73.985717453579113
  9
$TRACEWID
 40
1.0
  9
$TEXTSTYLE
  7
STANDARD
  9
$CLAYER
  8
0
  9
$CELTYPE
  6
BYLAYER
  9
$CECOLOR
 62
   256
  9
$DIMSCALE
 40
1.0
  9
$DIMASZ
 40
0.18
  9
$DIMEXO
 40
0.0625
  9
$DIMDLI
 40
0.38
  9
$DIMRND
 40
0.0
  9
$DIMDLE
 40
0.0
  9
$DIMEXE
 40
0.18
  9
$DIMTP
 40
0.0
  9
$DIMTM
 40
0.0
  9
$DIMTXT
 40
0.18
  9
$DIMCEN
 40
0.09
  9
$DIMTSZ
 40
0.0
  9
$DIMTOL
 70
     0
  9
$DIMLIM
 70
     0
  9
$DIMTIH
 70
     1
  9
$DIMTOH
 70
     1
  9
$DIMSE1
 70
     0
  9
$DIMSE2
 70
     0
  9
$DIMTAD
 70
     0
  9
$DIMZIN
 70
     0
  9
$DIMBLK
  1

  9
$DIMASO
 70
     1
  9
$DIMSHO
 70
     1
  9
$DIMPOST
  1

  9
$DIMAPOST
  1

  9
$DIMALT
 70
     0
  9
$DIMALTD
 70
     2
  9
$DIMALTF
 40
25.399999999999999
  9
$DIMLFAC
 40
1.0
  9
$DIMTOFL
 70
     0
  9
$DIMTVP
 40
0.0
  9
$DIMTIX
 70
     0
  9
$DIMSOXD
 70
     0
  9
$DIMSAH
 70
     0
  9
$DIMBLK1
  1

  9
$DIMBLK2
  1

  9
$DIMSTYLE
  2
STANDARD
  9
$DIMCLRD
 70
     0
  9
$DIMCLRE
 70
     0
  9
$DIMCLRT
 70
     0
  9
$DIMTFAC
 40
1.0
  9
$DIMGAP
 40
0.09
  9
$LUNITS
 70
     2
  9
$LUPREC
 70
     8
  9
$SKETCHINC
 40
1.0
  9
$FILLETRAD
 40
0.0
  9
$AUNITS
 70
     0
  9
$AUPREC
 70
     8
  9
$MENU
  1
.
  9
$ELEVATION
 40
0.0
  9
$PELEVATION
 40
0.0
  9
$THICKNESS
 40
0.0
  9
$LIMCHECK
 70
     0
  9
$BLIPMODE
 70
     0
  9
$CHAMFERA
 40
2.5
  9
$CHAMFERB
 40
2.5
  9
$SKPOLY
 70
     0
  9
$TDCREATE
 40
2454749.4701119331
  9
$TDUPDATE
 40
2454749.7564480202
  9
$TDINDWG
 40
0.1762904977
  9
$TDUSRTIMER
 40
0.1762899653
  9
$USRTIMER
 70
     1
  9
$ANGBASE
 50
0.0
  9
$ANGDIR
 70
     1
  9
$PDMODE
 70
     0
  9
$PDSIZE
 40
0.0
  9
$PLINEWID
 40
0.0
  9
$COORDS
 70
     1
  9
$SPLFRAME
 70
     0
  9
$SPLINETYPE
 70
     6
  9
$SPLINESEGS
 70
     8
  9
$ATTDIA
 70
     0
  9
$ATTREQ
 70
     1
  9
$HANDLING
 70
 22529
  9
$HANDSEED
  5
10C99
  9
$SURFTAB1
 70
     6
  9
$SURFTAB2
 70
     6
  9
$SURFTYPE
 70
     6
  9
$SURFU
 70
     6
  9
$SURFV
 70
     6
  9
$UCSNAME
  2

  9
$UCSORG
 10
0.0
 20
0.0
 30
0.0
  9
$UCSXDIR
 10
1.0
 20
0.0
 30
0.0
  9
$UCSYDIR
 10
0.0
 20
1.0
 30
0.0
  9
$PUCSNAME
  2

  9
$PUCSORG
 10
0.0
 20
0.0
 30
0.0
  9
$PUCSXDIR
 10
1.0
 20
0.0
 30
0.0
  9
$PUCSYDIR
 10
0.0
 20
1.0
 30
0.0
  9
$USERI1
 70
     0
  9
$USERI2
 70
     0
  9
$USERI3
 70
     0
  9
$USERI4
 70
     0
  9
$USERI5
 70
     0
  9
$USERR1
 40
0.0
  9
$USERR2
 40
0.0
  9
$USERR3
 40
0.0
  9
$USERR4
 40
0.0
  9
$USERR5
 40
0.0
  9
$WORLDVIEW
 70
     1
  9
$SHADEDGE
 70
     3
  9
$SHADEDIF
 70
    70
  9
$TILEMODE
 70
     1
  9
$MAXACTVP
 70
    48
  9
$PLIMCHECK
 70
     0
  9
$PEXTMIN
 10
1.0000000000000000E+020
 20
1.0000000000000000E+020
 30
1.0000000000000000E+020
  9
$PEXTMAX
 10
-1.0000000000000000E+020
 20
-1.0000000000000000E+020
 30
-1.0000000000000000E+020
  9
$PLIMMIN
 10
0.0
 20
0.0
  9
$PLIMMAX
 10
420.0
 20
297.0
  9
$UNITMODE
 70
     0
  9
$VISRETAIN
 70
     1
  9
$PLINEGEN
 70
     0
  9
$PSLTSCALE
 70
     1
  0
ENDSEC
  0
SECTION
  2
TABLES
  0
TABLE
  2
VPORT
 70
     2
  0
VPORT
  2
*ACTIVE
 70
     0
 10
0.0
 20
0.0
 11
1.0
 21
1.0
 12
41.011746746768857
 22
82.237912401559072
 13
0.0
 23
0.0
 14
2.5
 24
2.5
 15
10.0
 25
10.0
 16
0.0
 26
0.0
 36
1.0
 17
0.0
 27
0.0
 37
0.0
 40
280.24042102573759
 41
1.531806615776081
 42
50.0
 43
0.0
 44
0.0
 50
0.0
 51
0.0
 71
     0
 72
   100
 73
     1
 74
     3
 75
     0
 76
     0
 77
     0
 78
     0
  0
ENDTAB
  0
TABLE
  2
LTYPE
 70
     2
  0
LTYPE
  2
CONTINUOUS
 70
     0
  3
Solid line
 72
    65
 73
     0
 40
0.0
  0
LTYPE
  2
CENTER
 70
     0
  3
__ . __
 72
    65
 73
     4
 40
7.0
 49
4.0
 49
-1.0
 49
1.0
 49
-1.0
  0
ENDTAB
  0
TABLE
  2
LAYER
 70
     1
  0
LAYER
  2
0
 70
     0
 62
     7
  6
CONTINUOUS
  0
ENDTAB
  0
TABLE
  2
STYLE
 70
     2
  0
STYLE
  2
STANDARD
 70
     0
 40
0.0
 41
0.7
 50
0.0
 71
     0
 42
73.985717453579113
  3
romans.shx
  4
bigfont.shx
  0
STYLE
  2
TSKDIM
 70
     0
 40
0.0
 41
0.75
 50
0.0
 71
     0
 42
4.0
  3
romans.shx
  4
EXTFONT.SHX
  0
ENDTAB
  0
TABLE
  2
VIEW
 70
     0
  0
ENDTAB
  0
TABLE
  2
UCS
 70
     0
  0
ENDTAB
  0
TABLE
  2
APPID
 70
    43
  0
APPID
  2
ACAD
 70
     0
  0
APPID
  2
MCAD_NO_VIS
 70
     0
  0
APPID
  2
ACAD_TEMP_GRAPHIC
 70
     0
  0
APPID
  2
ACATTRIBSERVICES
 70
     0
  0
APPID
  2
AD_DRAW
 70
     0
  0
APPID
  2
DESIGNERASSEMBLIES
 70
     0
  0
APPID
  2
ASURF_PCURVE_APPNAME
 70
     0
  0
APPID
  2
ACADM_DIM_EDIT
 70
     0
  0
APPID
  2
GENIUS_GENDIM_13
 70
     0
  0
APPID
  2
GENIUS_GENDTOL_13
 70
     0
  0
APPID
  2
GENIUS_GE3DTOL_13
 70
     0
  0
APPID
  2
AMG_3D2D_5_0
 70
     0
  0
APPID
  2
AMDT_DM_ADJ
 70
     0
  0
APPID
  2
CK_MATE-SERIES
 70
     0
  0
APPID
  2
GEVID1042077799
 70
     0
  0
APPID
  2
GEVMK
 70
     0
  0
APPID
  2
GEVDC
 70
     0
  0
APPID
  2
GENIUS_GENBH_13
 70
     0
  0
APPID
  2
GENIUS_GENOLIS_13
 70
     0
  0
APPID
  2
GENIUS_GENOENT_13
 70
     0
  0
APPID
  2
GENIUS_GENODEF_13
 70
     0
  0
APPID
  2
GENIUS_GENOBJ-NBEHI-BHF_13
 70
     0
  0
APPID
  2
GENIUS_GENOREF_13
 70
     0
  0
APPID
  2
GENIUS_GENOBJ-NBEHI-BHB_13
 70
     0
  0
APPID
  2
GEVID1042183772
 70
     0
  0
APPID
  2
GEVID1042183773
 70
     0
  0
APPID
  2
GEVID1042183774
 70
     0
  0
APPID
  2
DCO15
 70
     0
  0
APPID
  2
ACAD_DSTYLE_DIMARC_LENGTH_
 70
     0
  0
APPID
  2
ACAD_DSTYLE_DIMJOGGED_JOGA
 70
     0
  0
APPID
  2
ACAD_MLEADERVER
 70
     0
  0
APPID
  2
ACAD_DSTYLE_DIMJAG
 70
     0
  0
APPID
  2
ACAD_DSTYLE_DIMTALN
 70
     0
  0
APPID
  2
ACAD_PSEXT
 70
     0
  0
APPID
  2
ACAD_EXEMPT_FROM_CAD_STANDARDS
 70
     0
  0
APPID
  2
ACAECLAYERSTANDARD
 70
     0
  0
APPID
  2
ACAD_DSTYLE_DIMINSPECT
 70
     0
  0
APPID
  2
ACAD_DSTYLE_DIM_LINETYPE
 70
     0
  0
APPID
  2
ACAD_DSTYLE_DIM_EXT1_LINETYPE
 70
     0
  0
APPID
  2
ACAD_DSTYLE_DIM_EXT2_LINETYPE
 70
     0
  0
APPID
  2
ACADANNOTATIVE
 70
     0
  0
APPID
  2
ACAD_DSTYLE_DIMANGULAR_EXT
 70
     0
  0
APPID
  2
GENIUS_GENOBJ-N-FIL_13
 70
     0
  0
ENDTAB
  0
TABLE
  2
DIMSTYLE
 70
     1
  0
DIMSTYLE
  2
STANDARD
 70
     0
  3

  4

  5

  6

  7

 40
1.0
 41
0.18
 42
0.0625
 43
0.38
 44
0.18
 45
0.0
 46
0.0
 47
0.0
 48
0.0
140
0.18
141
0.09
142
0.0
143
25.399999999999999
144
1.0
145
0.0
146
1.0
147
0.09
 71
     0
 72
     0
 73
     1
 74
     1
 75
     0
 76
     0
 77
     0
 78
     0
170
     0
171
     2
172
     0
173
     0
174
     0
175
     0
176
     0
177
     0
178
     0
  0
ENDTAB
  0
ENDSEC
  0
SECTION
  2
BLOCKS
  0
BLOCK
  8
0
  2
$MODEL_SPACE
 70
     0
 10
0.0
 20
0.0
 30
0.0
  3
$MODEL_SPACE
  1

  0
ENDBLK
  5
21
  8
0
  0
BLOCK
 67
     1
  8
0
  2
$PAPER_SPACE
 70
     0
 10
0.0
 20
0.0
 30
0.0
  3
$PAPER_SPACE
  1

  0
ENDBLK
  5
1D
 67
     1
  8
0
  0
BLOCK
  8
0
  2
_OPEN
 70
     0
 10
0.0
 20
0.0
 30
0.0
  3
_OPEN
  1

  0
LINE
  5
15A
  8
0
  6
BYBLOCK
 62
     0
 10
-1.0
 20
0.1666666666666666
 30
0.0
 11
0.0
 21
0.0
 31
0.0
  0
LINE
  5
15B
  8
0
  6
BYBLOCK
 62
     0
 10
-1.0
 20
-0.1666666666666666
 30
0.0
 11
0.0
 21
0.0
 31
0.0
  0
LINE
  5
15C
  8
0
  6
BYBLOCK
 62
     0
 10
0.0
 20
0.0
 30
0.0
 11
-1.0
 21
0.0
 31
0.0
  0
ENDBLK
  5
15E
  8
0
  0
ENDSEC
  0
SECTION
  2
ENTITIES
  0
LINE
  5
2B35
  8
0
  6
CENTER
 10
49.086049999999886
 20
0.0
 30
0.0
 11
-46.019620000000018
 21
0.0
 31
0.0
  0
LINE
  5
2B36
  8
0
 10
-11.5
 20
-28.800003000000061
 30
0.0
 11
11.5
 21
-28.800003000000061
 31
0.0
  0
LINE
  5
2B39
  8
0
 10
-12.5
 20
-23.932197999999971
 30
0.0
 11
-12.5
 21
-27.800003000000061
 31
0.0
  0
LINE
  5
2B3A
  8
0
 10
12.5
 20
-23.932197999999971
 30
0.0
 11
12.5
 21
-27.800003000000061
 31
0.0
  0
LINE
  5
2B3E
  8
0
 10
46.0
 20
4.0
 30
0.0
 11
46.0
 21
-9.0
 31
0.0
  0
LINE
  5
2B3F
  8
0
 10
-43.5
 20
-7.5
 30
0.0
 11
-26.678649999999831
 21
-7.5
 31
0.0
  0
LINE
  5
2B40
  8
0
 10
-43.5
 20
-9.0
 30
0.0
 11
-27.753369999999901
 21
-9.0
 31
0.0
  0
LINE
  5
2B41
  8
0
 10
25.558759999999889
 20
-6.0
 30
0.0
 11
34.0
 21
-6.0
 31
0.0
  0
LINE
  5
2B42
  8
0
 10
26.678650000000289
 20
-7.5
 30
0.0
 11
46.0
 21
-7.5
 31
0.0
  0
LINE
  5
2B43
  8
0
 10
27.753369999999901
 20
-9.0
 30
0.0
 11
46.0
 21
-9.0
 31
0.0
  0
LINE
  5
2B44
  8
0
  6
CENTER
 10
-38.0
 20
-10.88954200000012
 30
0.0
 11
-38.0
 21
9.8932409999999891
 31
0.0
  0
LINE
  5
2B45
  8
0
  6
CENTER
 10
40.0
 20
-10.34525299999995
 30
0.0
 11
40.0
 21
28.469209999999968
 31
0.0
  0
LINE
  5
2B46
  8
0
 10
34.0
 20
4.0
 30
0.0
 11
34.0
 21
-7.5
 31
0.0
  0
LINE
  5
2B47
  8
0
 10
36.0
 20
6.0
 30
0.0
 11
44.0
 21
6.0
 31
0.0
  0
LINE
  5
2B48
  8
0
 10
-32.5
 20
-6.0
 30
0.0
 11
-25.558759999999889
 21
-6.0
 31
0.0
  0
LINE
  5
2B69
  8
0
  6
CENTER
 10
0.0
 20
-53.412312000000043
 30
0.0
 11
0.0
 21
30.02689800000007
 31
0.0
  0
LINE
  5
2B6E
  8
0
 10
-44.0
 20
-0.5
 30
0.0
 11
-44.0
 21
-9.0
 31
0.0
  0
LINE
  5
2B6F
  8
0
 10
-32.0
 20
-0.5
 30
0.0
 11
-32.0
 21
-7.5
 31
0.0
  0
LINE
  5
2B7B
  8
0
 10
-11.0
 20
-49.800003000000061
 30
0.0
 11
11.0
 21
-49.800003000000061
 31
0.0
  0
LINE
  5
2B81
  8
0
 10
11.0
 20
-28.800003000000061
 30
0.0
 11
11.0
 21
-49.800003000000061
 31
0.0
  0
LINE
  5
2B82
  8
0
 10
-11.0
 20
-28.800003000000061
 30
0.0
 11
-11.0
 21
-49.800003000000061
 31
0.0
  0
ARC
  5
2BB9
  8
0
 10
36.0
 20
4.0
 30
0.0
 40
2.0
 50
90.000003000010722
 51
180.000010000001
  0
ARC
  5
2BBA
  8
0
 10
44.0
 20
4.0
 30
0.0
 40
2.0
 50
0.0
 51
90.000003000010722
  0
ARC
  5
2BBC
  8
0
 10
-11.5
 20
-27.800003000000061
 30
0.0
 40
1.0
 50
179.99998999999889
 51
270.0
  0
ARC
  5
2BBD
  8
0
 10
11.5
 20
-27.800003000000061
 30
0.0
 40
1.0
 50
270.0
 51
0.0
  0
ARC
  5
2BC1
  8
0
 10
0.0
 20
0.0
 30
0.0
 40
25.5
 50
195.31649999999721
 51
344.6834899999962
  0
ARC
  5
2BC2
  8
0
 10
0.0
 20
0.0
 30
0.0
 40
27.0
 50
197.67223999999419
 51
342.3277600000057
  0
ARC
  5
2BC3
  8
0
 10
0.0
 20
0.0
 30
0.0
 40
28.5
 50
199.8149299999904
 51
243.98563000000979
  0
ARC
  5
2BC4
  8
0
 10
0.0
 20
0.0
 30
0.0
 40
28.5
 50
296.01436000001502
 51
340.18507000000949
  0
ARC
  5
2BC7
  8
0
 10
-27.753369999999901
 20
-10.0
 30
0.0
 40
1.0
 50
19.814928999999889
 51
90.000003000010722
  0
ARC
  5
2BC8
  8
0
 10
-26.678649999999831
 20
-8.5
 30
0.0
 40
1.0
 50
17.672239000007281
 51
90.000003000010722
  0
ARC
  5
2BC9
  8
0
 10
-25.558759999999889
 20
-7.0
 30
0.0
 40
1.0
 50
15.31650799999839
 51
90.000003000010722
  0
ARC
  5
2BCA
  8
0
 10
25.558759999999889
 20
-7.0
 30
0.0
 40
1.0
 50
90.000003000010722
 51
164.68350000000271
  0
ARC
  5
2BCB
  8
0
 10
26.678650000000289
 20
-8.5
 30
0.0
 40
1.0
 50
90.000003000010722
 51
162.3277600000057
  0
ARC
  5
2BCC
  8
0
 10
27.753369999999901
 20
-10.0
 30
0.0
 40
1.0
 50
90.000003000010722
 51
160.18507000000949
  0
LINE
  5
3BF6
  8
0
  6
CENTER
 10
0.0
 20
111.2651340459151
 30
0.0
 11
0.0
 21
81.473794045915156
 31
0.0
  0
LINE
  5
3BF9
  8
0
 10
-44.0
 20
8.0
 30
0.0
 11
-26.514140000000221
 21
8.0
 31
0.0
  0
LINE
  5
3BFA
  8
0
 10
-44.0
 20
9.5
 30
0.0
 11
-27.5680999999995
 21
9.5
 31
0.0
  0
LINE
  5
3BFB
  8
0
 10
25.099810000000609
 20
7.5
 30
0.0
 11
49.0
 21
7.5
 31
0.0
  0
LINE
  5
3BFC
  8
0
 10
27.166150000000009
 20
10.5
 30
0.0
 11
49.0
 21
10.5
 31
0.0
  0
LINE
  5
3BFD
  8
0
  6
CENTER
 10
-47.516539999999623
 20
96.662154045915244
 30
0.0
 11
52.946520000000412
 21
96.662154045915244
 31
0.0
  0
LINE
  5
3BFE
  8
0
 10
-24.79104999999981
 20
83.662154045915258
 30
0.0
 11
49.0
 21
83.662154045915258
 31
0.0
  0
LINE
  5
3BFF
  8
0
 10
-24.791029999999409
 20
109.6621540459152
 30
0.0
 11
49.0
 21
109.6621540459152
 31
0.0
  0
LINE
  5
3C00
  8
0
 10
49.0
 20
109.6621540459152
 30
0.0
 11
49.0
 21
100.9121540459152
 31
0.0
  0
LINE
  5
3C01
  8
0
 10
45.562153647645573
 20
100.9121540459152
 30
0.0
 11
49.0
 21
100.9121540459152
 31
0.0
  0
LINE
  5
3C02
  8
0
 10
45.562153647645573
 20
92.412154045915258
 30
0.0
 11
49.0
 21
92.412154045915258
 31
0.0
  0
LINE
  5
3C03
  8
0
 10
-44.0
 20
103.1621540459152
 30
0.0
 11
37.401913550319478
 21
103.1621540459152
 31
0.0
  0
LINE
  5
3C04
  8
0
 10
-44.0
 20
90.162154045915244
 30
0.0
 11
37.401913550319478
 21
90.162154045915244
 31
0.0
  0
LINE
  5
3C05
  8
0
 10
49.0
 20
92.412154045915258
 30
0.0
 11
49.0
 21
83.662154045915258
 31
0.0
  0
LINE
  5
3C06
  8
0
 10
-44.0
 20
109.1621540459152
 30
0.0
 11
-44.0
 21
84.162154045915244
 31
0.0
  0
LINE
  5
3C07
  8
0
 10
-44.0
 20
84.162154045915244
 30
0.0
 11
-33.0
 21
84.162154045915244
 31
0.0
  0
LINE
  5
3C08
  8
0
 10
-44.0
 20
109.1621540459152
 30
0.0
 11
-33.0
 21
109.1621540459152
 31
0.0
  0
LINE
  5
3C09
  8
0
  6
CENTER
 10
-38.5
 20
110.2113540459151
 30
0.0
 11
-38.5
 21
82.795734045915196
 31
0.0
  0
LINE
  5
3C0A
  8
0
 10
-33.0
 20
109.1621540459152
 30
0.0
 11
-33.0
 21
107.6621540459152
 31
0.0
  0
LINE
  5
3C12
  8
0
 10
-26.46630999999979
 20
85.662154045915258
 30
0.0
 11
-24.791040000000059
 21
83.662154045915258
 31
0.0
  0
LINE
  5
3C13
  8
0
 10
-24.791040000000059
 20
109.6621640459152
 30
0.0
 11
-26.46630999999979
 21
107.6621640459152
 31
0.0
  0
LINE
  5
3C14
  8
0
 10
-33.0
 20
85.662154045915258
 30
0.0
 11
-33.0
 21
84.162154045915244
 31
0.0
  0
LINE
  5
3C15
  8
0
 10
-33.0
 20
85.662154045915258
 30
0.0
 11
-26.46630999999979
 21
85.662154045915258
 31
0.0
  0
LINE
  5
3C16
  8
0
 10
-33.0
 20
107.6621540459152
 30
0.0
 11
-26.46628999999939
 21
107.6621540459152
 31
0.0
  0
LINE
  5
3C17
  8
0
 10
-32.0
 20
6.5
 30
0.0
 11
-25.416529999999511
 21
6.5
 31
0.0
  0
LINE
  5
3C1B
  8
0
 10
26.15340000000014
 20
9.0
 30
0.0
 11
49.0
 21
9.0
 31
0.0
  0
LINE
  5
3C1D
  8
0
 10
49.0
 20
10.5
 30
0.0
 11
49.0
 21
7.5
 31
0.0
  0
LINE
  5
3C1E
  8
0
 10
-25.847149999999601
 20
107.88826404591531
 30
0.0
 11
-25.847149999999601
 21
103.6604040459153
 31
0.0
  0
LINE
  5
3C1F
  8
0
 10
-26.84853000000021
 20
102.57885404591519
 30
0.0
 11
-26.84853000000021
 21
90.583514045915081
 31
0.0
  0
LINE
  5
3C20
  8
0
 10
-25.847149999999601
 20
89.698624045915267
 30
0.0
 11
-25.847149999999601
 21
85.470754045915101
 31
0.0
  0
LINE
  5
3C21
  8
0
 10
25.347150000000511
 20
109.2342340459151
 30
0.0
 11
25.347150000000511
 21
103.928884045915
 31
0.0
  0
LINE
  5
3C22
  8
0
 10
26.348530000000199
 20
102.43249404591531
 30
0.0
 11
26.348529999999752
 21
98.912154045915273
 31
0.0
  0
LINE
  5
3C23
  8
0
 10
25.347150000000511
 20
89.645184045915144
 30
0.0
 11
25.347150000000511
 21
84.203794045915174
 31
0.0
  0
LINE
  5
3C24
  8
0
 10
-44.0
 20
9.5
 30
0.0
 11
-44.0
 21
0.0
 31
0.0
  0
LINE
  5
3C25
  8
0
 10
-32.0
 20
8.0
 30
0.0
 11
-32.0
 21
0.0
 31
0.0
  0
ARC
  5
3C28
  8
0
 10
-38.0
 20
0.0
 30
0.0
 40
6.0
 50
179.99998999999889
 51
0.0
  0
ARC
  5
3C2A
  8
0
 10
0.0
 20
0.0
 30
0.0
 40
27.0
 50
20.924833000010221
 51
161.25065999999251
  0
ARC
  5
3C2B
  8
0
 10
0.0
 20
0.0
 30
0.0
 40
28.5
 50
22.9439540000002
 51
159.1494200000069
  0
ARC
  5
3C2C
  8
0
 10
0.0
 20
0.0
 30
0.0
 40
25.5
 50
18.708572999996019
 51
163.55952999999531
  0
ARC
  5
3C2D
  8
0
 10
-27.5680999999995
 20
10.5
 30
0.0
 40
1.0
 50
270.0
 51
339.14941000000101
  0
ARC
  5
3C2E
  8
0
 10
-26.514140000000221
 20
9.0
 30
0.0
 40
1.0
 50
270.0
 51
341.25065999999242
  0
ARC
  5
3C2F
  8
0
 10
26.15340000000014
 20
10.0
 30
0.0
 40
1.0
 50
200.92483000000499
 51
270.0
  0
ARC
  5
3C30
  8
0
 10
27.166150000000009
 20
11.5
 30
0.0
 40
1.0
 50
202.94395000000671
 51
270.0
  0
ARC
  5
3C31
  8
0
 10
-25.416529999999511
 20
7.5
 30
0.0
 40
1.0
 50
270.0
 51
343.55954000000207
  0
ARC
  5
3C32
  8
0
 10
25.099810000000609
 20
8.5
 30
0.0
 40
1.0
 50
198.70857999998219
 51
270.0
  0
LINE
  5
F7EB
  8
0
 10
45.499999999999993
 20
16.5
 30
0.0
 11
34.5
 21
16.5
 31
0.0
  0
LINE
  5
F7EC
  8
0
 10
45.500044000000337
 20
16.50001999999995
 30
0.0
 11
47.000045000000682
 21
10.500019999999941
 31
0.0
  0
LINE
  5
F7ED
  8
0
 10
49.328972999999678
 20
25.02635000000009
 30
0.0
 11
54.765666999999667
 21
21.919669999999989
 31
0.0
  0
LINE
  5
F7EE
  8
0
 10
44.0
 20
25.725450000000141
 30
0.0
 11
44.0
 21
16.5
 31
0.0
  0
LINE
  5
F7EF
  8
0
 10
44.0
 20
7.5
 30
0.0
 11
44.0
 21
6.0
 31
0.0
  0
LINE
  5
F7F0
  8
0
 10
43.0
 20
26.72545000000013
 30
0.0
 11
37.0
 21
26.72545000000013
 31
0.0
  0
LINE
  5
F7F1
  8
0
 10
43.000035999999447
 20
26.725490000000029
 30
0.0
 11
44.000036999999793
 21
25.725490000000029
 31
0.0
  0
ARC
  5
F7F2
  8
0
 10
48.832518999999593
 20
24.157570000000081
 30
0.0
 40
1.0
 50
60.255116000012798
 51
149.14714999999811
  0
ARC
  5
F7F3
  8
0
 10
54.269538999999902
 20
21.05146000000013
 30
0.0
 40
1.0
 50
338.7236600000021
 51
60.255116000012798
  0
POLYLINE
  8
0
  5
10505
  66
     1
 10
0.000000
 20
0.000000
 30
0.000000
  70
     8
  0
VERTEX
  8
0
  5
10506
 10
45.5000
 20
16.5000
 30
0.000000
  70
    32
  0
VERTEX
  8
0
  5
10507
 10
45.5016
 20
16.5300
 30
0.000000
  70
    32
  0
VERTEX
  8
0
  5
10508
 10
45.5032
 20
16.5600
 30
0.000000
  70
    32
  0
VERTEX
  8
0
  5
10509
 10
45.5049
 20
16.5900
 30
0.000000
  70
    32
  0
VERTEX
  8
0
  5
1050A
 10
45.5066
 20
16.6200
 30
0.000000
  70
    32
  0
VERTEX
  8
0
  5
1050B
 10
45.5084
 20
16.6500
 30
0.000000
  70
    32
  0
VERTEX
  8
0
  5
1050C
 10
45.5102
 20
16.6800
 30
0.000000
  70
    32
  0
VERTEX
  8
0
  5
1050D
 10
45.5121
 20
16.7100
 30
0.000000
  70
    32
  0
VERTEX
  8
0
  5
1050E
 10
45.5140
 20
16.7399
 30
0.000000
  70
    32
  0
VERTEX
  8
0
  5
1050F
 10
45.5160
 20
16.7699
 30
0.000000
  70
    32
  0
VERTEX
  8
0
  5
10510
 10
45.5180
 20
16.7999
 30
0.000000
  70
    32
  0
VERTEX
  8
0
  5
10511
 10
45.5200
 20
16.8299
 30
0.000000
  70
    32
  0
VERTEX
  8
0
  5
10512
 10
45.5221
 20
16.8598
 30
0.000000
  70
    32
  0
VERTEX
  8
0
  5
10513
 10
45.5243
 20
16.8898
 30
0.000000
  70
    32
  0
VERTEX
  8
0
  5
10514
 10
45.5265
 20
16.9198
 30
0.000000
  70
    32
  0
VERTEX
  8
0
  5
10515
 10
45.5288
 20
16.9497
 30
0.000000
  70
    32
  0
VERTEX
  8
0
  5
10516
 10
45.5311
 20
16.9797
 30
0.000000
  70
    32
  0
VERTEX
  8
0
  5
10517
 10
45.5334
 20
17.0096
 30
0.000000
  70
    32
  0
VERTEX
  8
0
  5
10518
 10
45.5358
 20
17.0396
 30
0.000000
  70
    32
  0
VERTEX
  8
0
  5
10519
 10
45.5383
 20
17.0695
 30
0.000000
  70
    32
  0
VERTEX
  8
0
  5
1051A
 10
45.5408
 20
17.0995
 30
0.000000
  70
    32
  0
VERTEX
  8
0
  5
1051B
 10
45.5433
 20
17.1294
 30
0.000000
  70
    32
  0
VERTEX
  8
0
  5
1051C
 10
45.5459
 20
17.1594
 30
0.000000
  70
    32
  0
VERTEX
  8
0
  5
1051D
 10
45.5486
 20
17.1893
 30
0.000000
  70
    32
  0
VERTEX
  8
0
  5
1051E
 10
45.5513
 20
17.2192
 30
0.000000
  70
    32
  0
VERTEX
  8
0
  5
1051F
 10
45.5540
 20
17.2492
 30
0.000000
  70
    32
  0
VERTEX
  8
0
  5
10520
 10
45.5568
 20
17.2791
 30
0.000000
  70
    32
  0
VERTEX
  8
0
  5
10521
 10
45.5597
 20
17.3090
 30
0.000000
  70
    32
  0
VERTEX
  8
0
  5
10522
 10
45.5625
 20
17.3389
 30
0.000000
  70
    32
  0
VERTEX
  8
0
  5
10523
 10
45.5655
 20
17.3688
 30
0.000000
  70
    32
  0
VERTEX
  8
0
  5
10524
 10
45.5685
 20
17.3987
 30
0.000000
  70
    32
  0
VERTEX
  8
0
  5
10525
 10
45.5715
 20
17.4286
 30
0.000000
  70
    32
  0
VERTEX
  8
0
  5
10526
 10
45.5746
 20
17.4585
 30
0.000000
  70
    32
  0
VERTEX
  8
0
  5
10527
 10
45.5777
 20
17.4884
 30
0.000000
  70
    32
  0
VERTEX
  8
0
  5
10528
 10
45.5809
 20
17.5183
 30
0.000000
  70
    32
  0
VERTEX
  8
0
  5
10529
 10
45.5842
 20
17.5481
 30
0.000000
  70
    32
  0
VERTEX
  8
0
  5
1052A
 10
45.5874
 20
17.5780
 30
0.000000
  70
    32
  0
VERTEX
  8
0
  5
1052B
 10
45.5908
 20
17.6079
 30
0.000000
  70
    32
  0
VERTEX
  8
0
  5
1052C
 10
45.5941
 20
17.6377
 30
0.000000
  70
    32
  0
VERTEX
  8
0
  5
1052D
 10
45.5976
 20
17.6676
 30
0.000000
  70
    32
  0
VERTEX
  8
0
  5
1052E
 10
45.6010
 20
17.6974
 30
0.000000
  70
    32
  0
VERTEX
  8
0
  5
1052F
 10
45.6046
 20
17.7273
 30
0.000000
  70
    32
  0
VERTEX
  8
0
  5
10530
 10
45.6081
 20
17.7571
 30
0.000000
  70
    32
  0
VERTEX
  8
0
  5
10531
 10
45.6118
 20
17.7870
 30
0.000000
  70
    32
  0
VERTEX
  8
0
  5
10532
 10
45.6154
 20
17.8168
 30
0.000000
  70
    32
  0
VERTEX
  8
0
  5
10533
 10
45.6192
 20
17.8466
 30
0.000000
  70
    32
  0
VERTEX
  8
0
  5
10534
 10
45.6229
 20
17.8764
 30
0.000000
  70
    32
  0
VERTEX
  8
0
  5
10535
 10
45.6268
 20
17.9062
 30
0.000000
  70
    32
  0
VERTEX
  8
0
  5
10536
 10
45.6306
 20
17.9360
 30
0.000000
  70
    32
  0
VERTEX
  8
0
  5
10537
 10
45.6345
 20
17.9658
 30
0.000000
  70
    32
  0
VERTEX
  8
0
  5
10538
 10
45.6385
 20
17.9956
 30
0.000000
  70
    32
  0
VERTEX
  8
0
  5
10539
 10
45.6425
 20
18.0254
 30
0.000000
  70
    32
  0
VERTEX
  8
0
  5
1053A
 10
45.6466
 20
18.0552
 30
0.000000
  70
    32
  0
VERTEX
  8
0
  5
1053B
 10
45.6507
 20
18.0849
 30
0.000000
  70
    32
  0
VERTEX
  8
0
  5
1053C
 10
45.6549
 20
18.1147
 30
0.000000
  70
    32
  0
VERTEX
  8
0
  5
1053D
 10
45.6591
 20
18.1444
 30
0.000000
  70
    32
  0
VERTEX
  8
0
  5
1053E
 10
45.6633
 20
18.1742
 30
0.000000
  70
    32
  0
VERTEX
  8
0
  5
1053F
 10
45.6677
 20
18.2039
 30
0.000000
  70
    32
  0
VERTEX
  8
0
  5
10540
 10
45.6720
 20
18.2337
 30
0.000000
  70
    32
  0
VERTEX
  8
0
  5
10541
 10
45.6764
 20
18.2634
 30
0.000000
  70
    32
  0
VERTEX
  8
0
  5
10542
 10
45.6809
 20
18.2931
 30
0.000000
  70
    32
  0
VERTEX
  8
0
  5
10543
 10
45.6854
 20
18.3228
 30
0.000000
  70
    32
  0
VERTEX
  8
0
  5
10544
 10
45.6900
 20
18.3525
 30
0.000000
  70
    32
  0
VERTEX
  8
0
  5
10545
 10
45.6946
 20
18.3822
 30
0.000000
  70
    32
  0
VERTEX
  8
0
  5
10546
 10
45.6992
 20
18.4119
 30
0.000000
  70
    32
  0
VERTEX
  8
0
  5
10547
 10
45.7039
 20
18.4416
 30
0.000000
  70
    32
  0
VERTEX
  8
0
  5
10548
 10
45.7087
 20
18.4712
 30
0.000000
  70
    32
  0
VERTEX
  8
0
  5
10549
 10
45.7135
 20
18.5009
 30
0.000000
  70
    32
  0
VERTEX
  8
0
  5
1054A
 10
45.7183
 20
18.5305
 30
0.000000
  70
    32
  0
VERTEX
  8
0
  5
1054B
 10
45.7232
 20
18.5602
 30
0.000000
  70
    32
  0
VERTEX
  8
0
  5
1054C
 10
45.7282
 20
18.5898
 30
0.000000
  70
    32
  0
VERTEX
  8
0
  5
1054D
 10
45.7332
 20
18.6195
 30
0.000000
  70
    32
  0
VERTEX
  8
0
  5
1054E
 10
45.7382
 20
18.6491
 30
0.000000
  70
    32
  0
VERTEX
  8
0
  5
1054F
 10
45.7434
 20
18.6787
 30
0.000000
  70
    32
  0
VERTEX
  8
0
  5
10550
 10
45.7485
 20
18.7083
 30
0.000000
  70
    32
  0
VERTEX
  8
0
  5
10551
 10
45.7537
 20
18.7379
 30
0.000000
  70
    32
  0
VERTEX
  8
0
  5
10552
 10
45.7590
 20
18.7675
 30
0.000000
  70
    32
  0
VERTEX
  8
0
  5
10553
 10
45.7643
 20
18.7971
 30
0.000000
  70
    32
  0
VERTEX
  8
0
  5
10554
 10
45.7696
 20
18.8266
 30
0.000000
  70
    32
  0
VERTEX
  8
0
  5
10555
 10
45.7750
 20
18.8562
 30
0.000000
  70
    32
  0
VERTEX
  8
0
  5
10556
 10
45.7804
 20
18.8857
 30
0.000000
  70
    32
  0
VERTEX
  8
0
  5
10557
 10
45.7859
 20
18.9153
 30
0.000000
  70
    32
  0
VERTEX
  8
0
  5
10558
 10
45.7915
 20
18.9448
 30
0.000000
  70
    32
  0
VERTEX
  8
0
  5
10559
 10
45.7971
 20
18.9743
 30
0.000000
  70
    32
  0
VERTEX
  8
0
  5
1055A
 10
45.8027
 20
19.0038
 30
0.000000
  70
    32
  0
VERTEX
  8
0
  5
1055B
 10
45.8084
 20
19.0333
 30
0.000000
  70
    32
  0
VERTEX
  8
0
  5
1055C
 10
45.8142
 20
19.0628
 30
0.000000
  70
    32
  0
VERTEX
  8
0
  5
1055D
 10
45.8200
 20
19.0923
 30
0.000000
  70
    32
  0
VERTEX
  8
0
  5
1055E
 10
45.8258
 20
19.1218
 30
0.000000
  70
    32
  0
VERTEX
  8
0
  5
1055F
 10
45.8317
 20
19.1513
 30
0.000000
  70
    32
  0
VERTEX
  8
0
  5
10560
 10
45.8377
 20
19.1807
 30
0.000000
  70
    32
  0
VERTEX
  8
0
  5
10561
 10
45.8437
 20
19.2102
 30
0.000000
  70
    32
  0
VERTEX
  8
0
  5
10562
 10
45.8497
 20
19.2396
 30
0.000000
  70
    32
  0
VERTEX
  8
0
  5
10563
 10
45.8558
 20
19.2690
 30
0.000000
  70
    32
  0
VERTEX
  8
0
  5
10564
 10
45.8619
 20
19.2984
 30
0.000000
  70
    32
  0
VERTEX
  8
0
  5
10565
 10
45.8681
 20
19.3278
 30
0.000000
  70
    32
  0
VERTEX
  8
0
  5
10566
 10
45.8744
 20
19.3572
 30
0.000000
  70
    32
  0
VERTEX
  8
0
  5
10567
 10
45.8807
 20
19.3866
 30
0.000000
  70
    32
  0
VERTEX
  8
0
  5
10568
 10
45.8870
 20
19.4160
 30
0.000000
  70
    32
  0
VERTEX
  8
0
  5
10569
 10
45.8934
 20
19.4453
 30
0.000000
  70
    32
  0
VERTEX
  8
0
  5
1056A
 10
45.8999
 20
19.4747
 30
0.000000
  70
    32
  0
VERTEX
  8
0
  5
1056B
 10
45.9064
 20
19.5040
 30
0.000000
  70
    32
  0
VERTEX
  8
0
  5
1056C
 10
45.9129
 20
19.5334
 30
0.000000
  70
    32
  0
VERTEX
  8
0
  5
1056D
 10
45.9195
 20
19.5627
 30
0.000000
  70
    32
  0
VERTEX
  8
0
  5
1056E
 10
45.9261
 20
19.5920
 30
0.000000
  70
    32
  0
VERTEX
  8
0
  5
1056F
 10
45.9328
 20
19.6213
 30
0.000000
  70
    32
  0
VERTEX
  8
0
  5
10570
 10
45.9396
 20
19.6506
 30
0.000000
  70
    32
  0
VERTEX
  8
0
  5
10571
 10
45.9464
 20
19.6798
 30
0.000000
  70
    32
  0
VERTEX
  8
0
  5
10572
 10
45.9532
 20
19.7091
 30
0.000000
  70
    32
  0
VERTEX
  8
0
  5
10573
 10
45.9601
 20
19.7383
 30
0.000000
  70
    32
  0
VERTEX
  8
0
  5
10574
 10
45.9671
 20
19.7676
 30
0.000000
  70
    32
  0
VERTEX
  8
0
  5
10575
 10
45.9741
 20
19.7968
 30
0.000000
  70
    32
  0
VERTEX
  8
0
  5
10576
 10
45.9811
 20
19.8260
 30
0.000000
  70
    32
  0
VERTEX
  8
0
  5
10577
 10
45.9882
 20
19.8552
 30
0.000000
  70
    32
  0
VERTEX
  8
0
  5
10578
 10
45.9954
 20
19.8844
 30
0.000000
  70
    32
  0
VERTEX
  8
0
  5
10579
 10
46.0026
 20
19.9136
 30
0.000000
  70
    32
  0
VERTEX
  8
0
  5
1057A
 10
46.0098
 20
19.9427
 30
0.000000
  70
    32
  0
VERTEX
  8
0
  5
1057B
 10
46.0171
 20
19.9719
 30
0.000000
  70
    32
  0
VERTEX
  8
0
  5
1057C
 10
46.0245
 20
20.0010
 30
0.000000
  70
    32
  0
VERTEX
  8
0
  5
1057D
 10
46.0319
 20
20.0301
 30
0.000000
  70
    32
  0
VERTEX
  8
0
  5
1057E
 10
46.0393
 20
20.0592
 30
0.000000
  70
    32
  0
VERTEX
  8
0
  5
1057F
 10
46.0468
 20
20.0883
 30
0.000000
  70
    32
  0
VERTEX
  8
0
  5
10580
 10
46.0544
 20
20.1174
 30
0.000000
  70
    32
  0
VERTEX
  8
0
  5
10581
 10
46.0620
 20
20.1465
 30
0.000000
  70
    32
  0
VERTEX
  8
0
  5
10582
 10
46.0696
 20
20.1756
 30
0.000000
  70
    32
  0
VERTEX
  8
0
  5
10583
 10
46.0773
 20
20.2046
 30
0.000000
  70
    32
  0
VERTEX
  8
0
  5
10584
 10
46.0851
 20
20.2336
 30
0.000000
  70
    32
  0
VERTEX
  8
0
  5
10585
 10
46.0929
 20
20.2627
 30
0.000000
  70
    32
  0
VERTEX
  8
0
  5
10586
 10
46.1008
 20
20.2917
 30
0.000000
  70
    32
  0
VERTEX
  8
0
  5
10587
 10
46.1087
 20
20.3206
 30
0.000000
  70
    32
  0
VERTEX
  8
0
  5
10588
 10
46.1166
 20
20.3496
 30
0.000000
  70
    32
  0
VERTEX
  8
0
  5
10589
 10
46.1246
 20
20.3786
 30
0.000000
  70
    32
  0
VERTEX
  8
0
  5
1058A
 10
46.1327
 20
20.4075
 30
0.000000
  70
    32
  0
VERTEX
  8
0
  5
1058B
 10
46.1408
 20
20.4365
 30
0.000000
  70
    32
  0
VERTEX
  8
0
  5
1058C
 10
46.1490
 20
20.4654
 30
0.000000
  70
    32
  0
VERTEX
  8
0
  5
1058D
 10
46.1572
 20
20.4943
 30
0.000000
  70
    32
  0
VERTEX
  8
0
  5
1058E
 10
46.1655
 20
20.5232
 30
0.000000
  70
    32
  0
VERTEX
  8
0
  5
1058F
 10
46.1738
 20
20.5521
 30
0.000000
  70
    32
  0
VERTEX
  8
0
  5
10590
 10
46.1822
 20
20.5809
 30
0.000000
  70
    32
  0
VERTEX
  8
0
  5
10591
 10
46.1906
 20
20.6098
 30
0.000000
  70
    32
  0
VERTEX
  8
0
  5
10592
 10
46.1990
 20
20.6386
 30
0.000000
  70
    32
  0
VERTEX
  8
0
  5
10593
 10
46.2076
 20
20.6674
 30
0.000000
  70
    32
  0
VERTEX
  8
0
  5
10594
 10
46.2161
 20
20.6962
 30
0.000000
  70
    32
  0
VERTEX
  8
0
  5
10595
 10
46.2248
 20
20.7250
 30
0.000000
  70
    32
  0
VERTEX
  8
0
  5
10596
 10
46.2334
 20
20.7538
 30
0.000000
  70
    32
  0
VERTEX
  8
0
  5
10597
 10
46.2422
 20
20.7825
 30
0.000000
  70
    32
  0
VERTEX
  8
0
  5
10598
 10
46.2510
 20
20.8112
 30
0.000000
  70
    32
  0
VERTEX
  8
0
  5
10599
 10
46.2598
 20
20.8400
 30
0.000000
  70
    32
  0
VERTEX
  8
0
  5
1059A
 10
46.2687
 20
20.8687
 30
0.000000
  70
    32
  0
VERTEX
  8
0
  5
1059B
 10
46.2776
 20
20.8974
 30
0.000000
  70
    32
  0
VERTEX
  8
0
  5
1059C
 10
46.2866
 20
20.9260
 30
0.000000
  70
    32
  0
VERTEX
  8
0
  5
1059D
 10
46.2956
 20
20.9547
 30
0.000000
  70
    32
  0
VERTEX
  8
0
  5
1059E
 10
46.3047
 20
20.9833
 30
0.000000
  70
    32
  0
VERTEX
  8
0
  5
1059F
 10
46.3138
 20
21.0120
 30
0.000000
  70
    32
  0
VERTEX
  8
0
  5
105A0
 10
46.3230
 20
21.0406
 30
0.000000
  70
    32
  0
VERTEX
  8
0
  5
105A1
 10
46.3323
 20
21.0692
 30
0.000000
  70
    32
  0
VERTEX
  8
0
  5
105A2
 10
46.3416
 20
21.0978
 30
0.000000
  70
    32
  0
VERTEX
  8
0
  5
105A3
 10
46.3509
 20
21.1263
 30
0.000000
  70
    32
  0
VERTEX
  8
0
  5
105A4
 10
46.3603
 20
21.1549
 30
0.000000
  70
    32
  0
VERTEX
  8
0
  5
105A5
 10
46.3697
 20
21.1834
 30
0.000000
  70
    32
  0
VERTEX
  8
0
  5
105A6
 10
46.3792
 20
21.2119
 30
0.000000
  70
    32
  0
VERTEX
  8
0
  5
105A7
 10
46.3888
 20
21.2404
 30
0.000000
  70
    32
  0
VERTEX
  8
0
  5
105A8
 10
46.3984
 20
21.2689
 30
0.000000
  70
    32
  0
VERTEX
  8
0
  5
105A9
 10
46.4080
 20
21.2973
 30
0.000000
  70
    32
  0
VERTEX
  8
0
  5
105AA
 10
46.4177
 20
21.3258
 30
0.000000
  70
    32
  0
VERTEX
  8
0
  5
105AB
 10
46.4275
 20
21.3542
 30
0.000000
  70
    32
  0
VERTEX
  8
0
  5
105AC
 10
46.4373
 20
21.3826
 30
0.000000
  70
    32
  0
VERTEX
  8
0
  5
105AD
 10
46.4471
 20
21.4110
 30
0.000000
  70
    32
  0
VERTEX
  8
0
  5
105AE
 10
46.4570
 20
21.4394
 30
0.000000
  70
    32
  0
VERTEX
  8
0
  5
105AF
 10
46.4669
 20
21.4677
 30
0.000000
  70
    32
  0
VERTEX
  8
0
  5
105B0
 10
46.4769
 20
21.4961
 30
0.000000
  70
    32
  0
VERTEX
  8
0
  5
105B1
 10
46.4870
 20
21.5244
 30
0.000000
  70
    32
  0
VERTEX
  8
0
  5
105B2
 10
46.4971
 20
21.5527
 30
0.000000
  70
    32
  0
VERTEX
  8
0
  5
105B3
 10
46.5072
 20
21.5810
 30
0.000000
  70
    32
  0
VERTEX
  8
0
  5
105B4
 10
46.5174
 20
21.6092
 30
0.000000
  70
    32
  0
VERTEX
  8
0
  5
105B5
 10
46.5277
 20
21.6375
 30
0.000000
  70
    32
  0
VERTEX
  8
0
  5
105B6
 10
46.5380
 20
21.6657
 30
0.000000
  70
    32
  0
VERTEX
  8
0
  5
105B7
 10
46.5483
 20
21.6939
 30
0.000000
  70
    32
  0
VERTEX
  8
0
  5
105B8
 10
46.5587
 20
21.7221
 30
0.000000
  70
    32
  0
VERTEX
  8
0
  5
105B9
 10
46.5692
 20
21.7503
 30
0.000000
  70
    32
  0
VERTEX
  8
0
  5
105BA
 10
46.5796
 20
21.7785
 30
0.000000
  70
    32
  0
VERTEX
  8
0
  5
105BB
 10
46.5902
 20
21.8066
 30
0.000000
  70
    32
  0
VERTEX
  8
0
  5
105BC
 10
46.6008
 20
21.8347
 30
0.000000
  70
    32
  0
VERTEX
  8
0
  5
105BD
 10
46.6114
 20
21.8628
 30
0.000000
  70
    32
  0
VERTEX
  8
0
  5
105BE
 10
46.6221
 20
21.8909
 30
0.000000
  70
    32
  0
VERTEX
  8
0
  5
105BF
 10
46.6329
 20
21.9190
 30
0.000000
  70
    32
  0
VERTEX
  8
0
  5
105C0
 10
46.6437
 20
21.9470
 30
0.000000
  70
    32
  0
VERTEX
  8
0
  5
105C1
 10
46.6545
 20
21.9750
 30
0.000000
  70
    32
  0
VERTEX
  8
0
  5
105C2
 10
46.6654
 20
22.0030
 30
0.000000
  70
    32
  0
VERTEX
  8
0
  5
105C3
 10
46.6763
 20
22.0310
 30
0.000000
  70
    32
  0
VERTEX
  8
0
  5
105C4
 10
46.6873
 20
22.0590
 30
0.000000
  70
    32
  0
VERTEX
  8
0
  5
105C5
 10
46.6983
 20
22.0870
 30
0.000000
  70
    32
  0
VERTEX
  8
0
  5
105C6
 10
46.7094
 20
22.1149
 30
0.000000
  70
    32
  0
VERTEX
  8
0
  5
105C7
 10
46.7206
 20
22.1428
 30
0.000000
  70
    32
  0
VERTEX
  8
0
  5
105C8
 10
46.7317
 20
22.1707
 30
0.000000
  70
    32
  0
VERTEX
  8
0
  5
105C9
 10
46.7430
 20
22.1986
 30
0.000000
  70
    32
  0
VERTEX
  8
0
  5
105CA
 10
46.7543
 20
22.2264
 30
0.000000
  70
    32
  0
VERTEX
  8
0
  5
105CB
 10
46.7656
 20
22.2542
 30
0.000000
  70
    32
  0
VERTEX
  8
0
  5
105CC
 10
46.7770
 20
22.2820
 30
0.000000
  70
    32
  0
VERTEX
  8
0
  5
105CD
 10
46.7884
 20
22.3098
 30
0.000000
  70
    32
  0
VERTEX
  8
0
  5
105CE
 10
46.7999
 20
22.3376
 30
0.000000
  70
    32
  0
VERTEX
  8
0
  5
105CF
 10
46.8114
 20
22.3654
 30
0.000000
  70
    32
  0
VERTEX
  8
0
  5
105D0
 10
46.8229
 20
22.3931
 30
0.000000
  70
    32
  0
VERTEX
  8
0
  5
105D1
 10
46.8346
 20
22.4208
 30
0.000000
  70
    32
  0
VERTEX
  8
0
  5
105D2
 10
46.8462
 20
22.4485
 30
0.000000
  70
    32
  0
VERTEX
  8
0
  5
105D3
 10
46.8579
 20
22.4762
 30
0.000000
  70
    32
  0
VERTEX
  8
0
  5
105D4
 10
46.8697
 20
22.5038
 30
0.000000
  70
    32
  0
VERTEX
  8
0
  5
105D5
 10
46.8815
 20
22.5315
 30
0.000000
  70
    32
  0
VERTEX
  8
0
  5
105D6
 10
46.8934
 20
22.5591
 30
0.000000
  70
    32
  0
VERTEX
  8
0
  5
105D7
 10
46.9053
 20
22.5867
 30
0.000000
  70
    32
  0
VERTEX
  8
0
  5
105D8
 10
46.9172
 20
22.6142
 30
0.000000
  70
    32
  0
VERTEX
  8
0
  5
105D9
 10
46.9292
 20
22.6418
 30
0.000000
  70
    32
  0
VERTEX
  8
0
  5
105DA
 10
46.9413
 20
22.6693
 30
0.000000
  70
    32
  0
VERTEX
  8
0
  5
105DB
 10
46.9534
 20
22.6968
 30
0.000000
  70
    32
  0
VERTEX
  8
0
  5
105DC
 10
46.9655
 20
22.7243
 30
0.000000
  70
    32
  0
VERTEX
  8
0
  5
105DD
 10
46.9777
 20
22.7518
 30
0.000000
  70
    32
  0
VERTEX
  8
0
  5
105DE
 10
46.9899
 20
22.7792
 30
0.000000
  70
    32
  0
VERTEX
  8
0
  5
105DF
 10
47.0022
 20
22.8066
 30
0.000000
  70
    32
  0
VERTEX
  8
0
  5
105E0
 10
47.0145
 20
22.8340
 30
0.000000
  70
    32
  0
VERTEX
  8
0
  5
105E1
 10
47.0269
 20
22.8614
 30
0.000000
  70
    32
  0
VERTEX
  8
0
  5
105E2
 10
47.0393
 20
22.8888
 30
0.000000
  70
    32
  0
VERTEX
  8
0
  5
105E3
 10
47.0518
 20
22.9161
 30
0.000000
  70
    32
  0
VERTEX
  8
0
  5
105E4
 10
47.0643
 20
22.9434
 30
0.000000
  70
    32
  0
VERTEX
  8
0
  5
105E5
 10
47.0769
 20
22.9707
 30
0.000000
  70
    32
  0
VERTEX
  8
0
  5
105E6
 10
47.0895
 20
22.9980
 30
0.000000
  70
    32
  0
VERTEX
  8
0
  5
105E7
 10
47.1022
 20
23.0253
 30
0.000000
  70
    32
  0
VERTEX
  8
0
  5
105E8
 10
47.1149
 20
23.0525
 30
0.000000
  70
    32
  0
VERTEX
  8
0
  5
105E9
 10
47.1276
 20
23.0797
 30
0.000000
  70
    32
  0
VERTEX
  8
0
  5
105EA
 10
47.1404
 20
23.1069
 30
0.000000
  70
    32
  0
VERTEX
  8
0
  5
105EB
 10
47.1532
 20
23.1341
 30
0.000000
  70
    32
  0
VERTEX
  8
0
  5
105EC
 10
47.1661
 20
23.1612
 30
0.000000
  70
    32
  0
VERTEX
  8
0
  5
105ED
 10
47.1791
 20
23.1883
 30
0.000000
  70
    32
  0
VERTEX
  8
0
  5
105EE
 10
47.1920
 20
23.2154
 30
0.000000
  70
    32
  0
VERTEX
  8
0
  5
105EF
 10
47.2051
 20
23.2425
 30
0.000000
  70
    32
  0
VERTEX
  8
0
  5
105F0
 10
47.2181
 20
23.2696
 30
0.000000
  70
    32
  0
VERTEX
  8
0
  5
105F1
 10
47.2312
 20
23.2966
 30
0.000000
  70
    32
  0
VERTEX
  8
0
  5
105F2
 10
47.2444
 20
23.3236
 30
0.000000
  70
    32
  0
VERTEX
  8
0
  5
105F3
 10
47.2576
 20
23.3506
 30
0.000000
  70
    32
  0
VERTEX
  8
0
  5
105F4
 10
47.2709
 20
23.3776
 30
0.000000
  70
    32
  0
VERTEX
  8
0
  5
105F5
 10
47.2842
 20
23.4045
 30
0.000000
  70
    32
  0
VERTEX
  8
0
  5
105F6
 10
47.2975
 20
23.4315
 30
0.000000
  70
    32
  0
VERTEX
  8
0
  5
105F7
 10
47.3109
 20
23.4584
 30
0.000000
  70
    32
  0
VERTEX
  8
0
  5
105F8
 10
47.3243
 20
23.4853
 30
0.000000
  70
    32
  0
VERTEX
  8
0
  5
105F9
 10
47.3378
 20
23.5121
 30
0.000000
  70
    32
  0
VERTEX
  8
0
  5
105FA
 10
47.3513
 20
23.5390
 30
0.000000
  70
    32
  0
VERTEX
  8
0
  5
105FB
 10
47.3649
 20
23.5658
 30
0.000000
  70
    32
  0
VERTEX
  8
0
  5
105FC
 10
47.3785
 20
23.5926
 30
0.000000
  70
    32
  0
VERTEX
  8
0
  5
105FD
 10
47.3921
 20
23.6193
 30
0.000000
  70
    32
  0
VERTEX
  8
0
  5
105FE
 10
47.4058
 20
23.6461
 30
0.000000
  70
    32
  0
VERTEX
  8
0
  5
105FF
 10
47.4196
 20
23.6728
 30
0.000000
  70
    32
  0
VERTEX
  8
0
  5
10600
 10
47.4334
 20
23.6995
 30
0.000000
  70
    32
  0
VERTEX
  8
0
  5
10601
 10
47.4472
 20
23.7262
 30
0.000000
  70
    32
  0
VERTEX
  8
0
  5
10602
 10
47.4611
 20
23.7528
 30
0.000000
  70
    32
  0
VERTEX
  8
0
  5
10603
 10
47.4750
 20
23.7795
 30
0.000000
  70
    32
  0
VERTEX
  8
0
  5
10604
 10
47.4890
 20
23.8061
 30
0.000000
  70
    32
  0
VERTEX
  8
0
  5
10605
 10
47.5030
 20
23.8327
 30
0.000000
  70
    32
  0
VERTEX
  8
0
  5
10606
 10
47.5170
 20
23.8592
 30
0.000000
  70
    32
  0
VERTEX
  8
0
  5
10607
 10
47.5311
 20
23.8858
 30
0.000000
  70
    32
  0
VERTEX
  8
0
  5
10608
 10
47.5453
 20
23.9123
 30
0.000000
  70
    32
  0
VERTEX
  8
0
  5
10609
 10
47.5595
 20
23.9388
 30
0.000000
  70
    32
  0
VERTEX
  8
0
  5
1060A
 10
47.5737
 20
23.9652
 30
0.000000
  70
    32
  0
VERTEX
  8
0
  5
1060B
 10
47.5880
 20
23.9917
 30
0.000000
  70
    32
  0
VERTEX
  8
0
  5
1060C
 10
47.6023
 20
24.0181
 30
0.000000
  70
    32
  0
VERTEX
  8
0
  5
1060D
 10
47.6167
 20
24.0445
 30
0.000000
  70
    32
  0
VERTEX
  8
0
  5
1060E
 10
47.6311
 20
24.0709
 30
0.000000
  70
    32
  0
VERTEX
  8
0
  5
1060F
 10
47.6455
 20
24.0972
 30
0.000000
  70
    32
  0
VERTEX
  8
0
  5
10610
 10
47.6600
 20
24.1235
 30
0.000000
  70
    32
  0
VERTEX
  8
0
  5
10611
 10
47.6745
 20
24.1498
 30
0.000000
  70
    32
  0
VERTEX
  8
0
  5
10612
 10
47.6891
 20
24.1761
 30
0.000000
  70
    32
  0
VERTEX
  8
0
  5
10613
 10
47.7037
 20
24.2024
 30
0.000000
  70
    32
  0
VERTEX
  8
0
  5
10614
 10
47.7184
 20
24.2286
 30
0.000000
  70
    32
  0
VERTEX
  8
0
  5
10615
 10
47.7331
 20
24.2548
 30
0.000000
  70
    32
  0
VERTEX
  8
0
  5
10616
 10
47.7478
 20
24.2810
 30
0.000000
  70
    32
  0
VERTEX
  8
0
  5
10617
 10
47.7626
 20
24.3071
 30
0.000000
  70
    32
  0
VERTEX
  8
0
  5
10618
 10
47.7775
 20
24.3333
 30
0.000000
  70
    32
  0
VERTEX
  8
0
  5
10619
 10
47.7924
 20
24.3594
 30
0.000000
  70
    32
  0
VERTEX
  8
0
  5
1061A
 10
47.8073
 20
24.3855
 30
0.000000
  70
    32
  0
VERTEX
  8
0
  5
1061B
 10
47.8222
 20
24.4115
 30
0.000000
  70
    32
  0
VERTEX
  8
0
  5
1061C
 10
47.8372
 20
24.4375
 30
0.000000
  70
    32
  0
VERTEX
  8
0
  5
1061D
 10
47.8523
 20
24.4635
 30
0.000000
  70
    32
  0
VERTEX
  8
0
  5
1061E
 10
47.8674
 20
24.4895
 30
0.000000
  70
    32
  0
VERTEX
  8
0
  5
1061F
 10
47.8825
 20
24.5155
 30
0.000000
  70
    32
  0
VERTEX
  8
0
  5
10620
 10
47.8977
 20
24.5414
 30
0.000000
  70
    32
  0
VERTEX
  8
0
  5
10621
 10
47.9129
 20
24.5673
 30
0.000000
  70
    32
  0
VERTEX
  8
0
  5
10622
 10
47.9282
 20
24.5932
 30
0.000000
  70
    32
  0
VERTEX
  8
0
  5
10623
 10
47.9435
 20
24.6190
 30
0.000000
  70
    32
  0
VERTEX
  8
0
  5
10624
 10
47.9588
 20
24.6449
 30
0.000000
  70
    32
  0
VERTEX
  8
0
  5
10625
 10
47.9742
 20
24.6707
 30
0.000000
  70
    32
  0
SEQEND
  8
0
  5
10626
  0
POLYLINE
  8
0
  5
10627
  66
     1
 10
0.000000
 20
0.000000
 30
0.000000
  70
     8
  0
VERTEX
  8
0
  5
10628
 10
47.0000
 20
10.5000
 30
0.000000
  70
    32
  0
VERTEX
  8
0
  5
10629
 10
47.0387
 20
10.5255
 30
0.000000
  70
    32
  0
VERTEX
  8
0
  5
1062A
 10
47.0773
 20
10.5510
 30
0.000000
  70
    32
  0
VERTEX
  8
0
  5
1062B
 10
47.1159
 20
10.5766
 30
0.000000
  70
    32
  0
VERTEX
  8
0
  5
1062C
 10
47.1544
 20
10.6023
 30
0.000000
  70
    32
  0
VERTEX
  8
0
  5
1062D
 10
47.1929
 20
10.6281
 30
0.000000
  70
    32
  0
VERTEX
  8
0
  5
1062E
 10
47.2313
 20
10.6539
 30
0.000000
  70
    32
  0
VERTEX
  8
0
  5
1062F
 10
47.2697
 20
10.6799
 30
0.000000
  70
    32
  0
VERTEX
  8
0
  5
10630
 10
47.3080
 20
10.7059
 30
0.000000
  70
    32
  0
VERTEX
  8
0
  5
10631
 10
47.3463
 20
10.7320
 30
0.000000
  70
    32
  0
VERTEX
  8
0
  5
10632
 10
47.3845
 20
10.7581
 30
0.000000
  70
    32
  0
VERTEX
  8
0
  5
10633
 10
47.4227
 20
10.7844
 30
0.000000
  70
    32
  0
VERTEX
  8
0
  5
10634
 10
47.4608
 20
10.8107
 30
0.000000
  70
    32
  0
VERTEX
  8
0
  5
10635
 10
47.4989
 20
10.8371
 30
0.000000
  70
    32
  0
VERTEX
  8
0
  5
10636
 10
47.5369
 20
10.8636
 30
0.000000
  70
    32
  0
VERTEX
  8
0
  5
10637
 10
47.5749
 20
10.8901
 30
0.000000
  70
    32
  0
VERTEX
  8
0
  5
10638
 10
47.6128
 20
10.9168
 30
0.000000
  70
    32
  0
VERTEX
  8
0
  5
10639
 10
47.6506
 20
10.9435
 30
0.000000
  70
    32
  0
VERTEX
  8
0
  5
1063A
 10
47.6884
 20
10.9703
 30
0.000000
  70
    32
  0
VERTEX
  8
0
  5
1063B
 10
47.7261
 20
10.9971
 30
0.000000
  70
    32
  0
VERTEX
  8
0
  5
1063C
 10
47.7638
 20
11.0241
 30
0.000000
  70
    32
  0
VERTEX
  8
0
  5
1063D
 10
47.8015
 20
11.0511
 30
0.000000
  70
    32
  0
VERTEX
  8
0
  5
1063E
 10
47.8390
 20
11.0782
 30
0.000000
  70
    32
  0
VERTEX
  8
0
  5
1063F
 10
47.8766
 20
11.1054
 30
0.000000
  70
    32
  0
VERTEX
  8
0
  5
10640
 10
47.9140
 20
11.1326
 30
0.000000
  70
    32
  0
VERTEX
  8
0
  5
10641
 10
47.9514
 20
11.1600
 30
0.000000
  70
    32
  0
VERTEX
  8
0
  5
10642
 10
47.9888
 20
11.1874
 30
0.000000
  70
    32
  0
VERTEX
  8
0
  5
10643
 10
48.0261
 20
11.2149
 30
0.000000
  70
    32
  0
VERTEX
  8
0
  5
10644
 10
48.0633
 20
11.2424
 30
0.000000
  70
    32
  0
VERTEX
  8
0
  5
10645
 10
48.1005
 20
11.2701
 30
0.000000
  70
    32
  0
VERTEX
  8
0
  5
10646
 10
48.1376
 20
11.2978
 30
0.000000
  70
    32
  0
VERTEX
  8
0
  5
10647
 10
48.1747
 20
11.3256
 30
0.000000
  70
    32
  0
VERTEX
  8
0
  5
10648
 10
48.2117
 20
11.3535
 30
0.000000
  70
    32
  0
VERTEX
  8
0
  5
10649
 10
48.2487
 20
11.3814
 30
0.000000
  70
    32
  0
VERTEX
  8
0
  5
1064A
 10
48.2856
 20
11.4094
 30
0.000000
  70
    32
  0
VERTEX
  8
0
  5
1064B
 10
48.3224
 20
11.4375
 30
0.000000
  70
    32
  0
VERTEX
  8
0
  5
1064C
 10
48.3592
 20
11.4657
 30
0.000000
  70
    32
  0
VERTEX
  8
0
  5
1064D
 10
48.3959
 20
11.4940
 30
0.000000
  70
    32
  0
VERTEX
  8
0
  5
1064E
 10
48.4326
 20
11.5223
 30
0.000000
  70
    32
  0
VERTEX
  8
0
  5
1064F
 10
48.4692
 20
11.5507
 30
0.000000
  70
    32
  0
VERTEX
  8
0
  5
10650
 10
48.5057
 20
11.5792
 30
0.000000
  70
    32
  0
VERTEX
  8
0
  5
10651
 10
48.5422
 20
11.6078
 30
0.000000
  70
    32
  0
VERTEX
  8
0
  5
10652
 10
48.5786
 20
11.6364
 30
0.000000
  70
    32
  0
VERTEX
  8
0
  5
10653
 10
48.6150
 20
11.6652
 30
0.000000
  70
    32
  0
VERTEX
  8
0
  5
10654
 10
48.6513
 20
11.6939
 30
0.000000
  70
    32
  0
VERTEX
  8
0
  5
10655
 10
48.6875
 20
11.7228
 30
0.000000
  70
    32
  0
VERTEX
  8
0
  5
10656
 10
48.7237
 20
11.7518
 30
0.000000
  70
    32
  0
VERTEX
  8
0
  5
10657
 10
48.7598
 20
11.7808
 30
0.000000
  70
    32
  0
VERTEX
  8
0
  5
10658
 10
48.7959
 20
11.8099
 30
0.000000
  70
    32
  0
VERTEX
  8
0
  5
10659
 10
48.8318
 20
11.8391
 30
0.000000
  70
    32
  0
VERTEX
  8
0
  5
1065A
 10
48.8678
 20
11.8683
 30
0.000000
  70
    32
  0
VERTEX
  8
0
  5
1065B
 10
48.9036
 20
11.8977
 30
0.000000
  70
    32
  0
VERTEX
  8
0
  5
1065C
 10
48.9395
 20
11.9271
 30
0.000000
  70
    32
  0
VERTEX
  8
0
  5
1065D
 10
48.9752
 20
11.9566
 30
0.000000
  70
    32
  0
VERTEX
  8
0
  5
1065E
 10
49.0109
 20
11.9861
 30
0.000000
  70
    32
  0
VERTEX
  8
0
  5
1065F
 10
49.0465
 20
12.0158
 30
0.000000
  70
    32
  0
VERTEX
  8
0
  5
10660
 10
49.0820
 20
12.0455
 30
0.000000
  70
    32
  0
VERTEX
  8
0
  5
10661
 10
49.1175
 20
12.0753
 30
0.000000
  70
    32
  0
VERTEX
  8
0
  5
10662
 10
49.1529
 20
12.1051
 30
0.000000
  70
    32
  0
VERTEX
  8
0
  5
10663
 10
49.1883
 20
12.1351
 30
0.000000
  70
    32
  0
VERTEX
  8
0
  5
10664
 10
49.2236
 20
12.1651
 30
0.000000
  70
    32
  0
VERTEX
  8
0
  5
10665
 10
49.2588
 20
12.1952
 30
0.000000
  70
    32
  0
VERTEX
  8
0
  5
10666
 10
49.2940
 20
12.2254
 30
0.000000
  70
    32
  0
VERTEX
  8
0
  5
10667
 10
49.3291
 20
12.2556
 30
0.000000
  70
    32
  0
VERTEX
  8
0
  5
10668
 10
49.3641
 20
12.2859
 30
0.000000
  70
    32
  0
VERTEX
  8
0
  5
10669
 10
49.3991
 20
12.3163
 30
0.000000
  70
    32
  0
VERTEX
  8
0
  5
1066A
 10
49.4340
 20
12.3468
 30
0.000000
  70
    32
  0
VERTEX
  8
0
  5
1066B
 10
49.4688
 20
12.3774
 30
0.000000
  70
    32
  0
VERTEX
  8
0
  5
1066C
 10
49.5036
 20
12.4080
 30
0.000000
  70
    32
  0
VERTEX
  8
0
  5
1066D
 10
49.5382
 20
12.4387
 30
0.000000
  70
    32
  0
VERTEX
  8
0
  5
1066E
 10
49.5729
 20
12.4695
 30
0.000000
  70
    32
  0
VERTEX
  8
0
  5
1066F
 10
49.6074
 20
12.5004
 30
0.000000
  70
    32
  0
VERTEX
  8
0
  5
10670
 10
49.6419
 20
12.5313
 30
0.000000
  70
    32
  0
VERTEX
  8
0
  5
10671
 10
49.6763
 20
12.5623
 30
0.000000
  70
    32
  0
VERTEX
  8
0
  5
10672
 10
49.7107
 20
12.5934
 30
0.000000
  70
    32
  0
VERTEX
  8
0
  5
10673
 10
49.7450
 20
12.6246
 30
0.000000
  70
    32
  0
VERTEX
  8
0
  5
10674
 10
49.7792
 20
12.6558
 30
0.000000
  70
    32
  0
VERTEX
  8
0
  5
10675
 10
49.8133
 20
12.6871
 30
0.000000
  70
    32
  0
VERTEX
  8
0
  5
10676
 10
49.8474
 20
12.7185
 30
0.000000
  70
    32
  0
VERTEX
  8
0
  5
10677
 10
49.8814
 20
12.7500
 30
0.000000
  70
    32
  0
VERTEX
  8
0
  5
10678
 10
49.9153
 20
12.7815
 30
0.000000
  70
    32
  0
VERTEX
  8
0
  5
10679
 10
49.9492
 20
12.8132
 30
0.000000
  70
    32
  0
VERTEX
  8
0
  5
1067A
 10
49.9830
 20
12.8449
 30
0.000000
  70
    32
  0
VERTEX
  8
0
  5
1067B
 10
50.0167
 20
12.8766
 30
0.000000
  70
    32
  0
VERTEX
  8
0
  5
1067C
 10
50.0503
 20
12.9085
 30
0.000000
  70
    32
  0
VERTEX
  8
0
  5
1067D
 10
50.0839
 20
12.9404
 30
0.000000
  70
    32
  0
VERTEX
  8
0
  5
1067E
 10
50.1174
 20
12.9724
 30
0.000000
  70
    32
  0
VERTEX
  8
0
  5
1067F
 10
50.1508
 20
13.0045
 30
0.000000
  70
    32
  0
VERTEX
  8
0
  5
10680
 10
50.1842
 20
13.0367
 30
0.000000
  70
    32
  0
VERTEX
  8
0
  5
10681
 10
50.2174
 20
13.0689
 30
0.000000
  70
    32
  0
VERTEX
  8
0
  5
10682
 10
50.2506
 20
13.1012
 30
0.000000
  70
    32
  0
VERTEX
  8
0
  5
10683
 10
50.2838
 20
13.1336
 30
0.000000
  70
    32
  0
VERTEX
  8
0
  5
10684
 10
50.3168
 20
13.1660
 30
0.000000
  70
    32
  0
VERTEX
  8
0
  5
10685
 10
50.3498
 20
13.1986
 30
0.000000
  70
    32
  0
VERTEX
  8
0
  5
10686
 10
50.3827
 20
13.2312
 30
0.000000
  70
    32
  0
VERTEX
  8
0
  5
10687
 10
50.4155
 20
13.2639
 30
0.000000
  70
    32
  0
VERTEX
  8
0
  5
10688
 10
50.4483
 20
13.2966
 30
0.000000
  70
    32
  0
VERTEX
  8
0
  5
10689
 10
50.4810
 20
13.3295
 30
0.000000
  70
    32
  0
VERTEX
  8
0
  5
1068A
 10
50.5136
 20
13.3624
 30
0.000000
  70
    32
  0
VERTEX
  8
0
  5
1068B
 10
50.5461
 20
13.3954
 30
0.000000
  70
    32
  0
VERTEX
  8
0
  5
1068C
 10
50.5785
 20
13.4285
 30
0.000000
  70
    32
  0
VERTEX
  8
0
  5
1068D
 10
50.6109
 20
13.4616
 30
0.000000
  70
    32
  0
VERTEX
  8
0
  5
1068E
 10
50.6432
 20
13.4948
 30
0.000000
  70
    32
  0
VERTEX
  8
0
  5
1068F
 10
50.6754
 20
13.5281
 30
0.000000
  70
    32
  0
VERTEX
  8
0
  5
10690
 10
50.7076
 20
13.5615
 30
0.000000
  70
    32
  0
VERTEX
  8
0
  5
10691
 10
50.7396
 20
13.5949
 30
0.000000
  70
    32
  0
VERTEX
  8
0
  5
10692
 10
50.7716
 20
13.6284
 30
0.000000
  70
    32
  0
VERTEX
  8
0
  5
10693
 10
50.8035
 20
13.6620
 30
0.000000
  70
    32
  0
VERTEX
  8
0
  5
10694
 10
50.8354
 20
13.6957
 30
0.000000
  70
    32
  0
VERTEX
  8
0
  5
10695
 10
50.8671
 20
13.7294
 30
0.000000
  70
    32
  0
VERTEX
  8
0
  5
10696
 10
50.8988
 20
13.7632
 30
0.000000
  70
    32
  0
VERTEX
  8
0
  5
10697
 10
50.9304
 20
13.7971
 30
0.000000
  70
    32
  0
VERTEX
  8
0
  5
10698
 10
50.9619
 20
13.8311
 30
0.000000
  70
    32
  0
VERTEX
  8
0
  5
10699
 10
50.9934
 20
13.8651
 30
0.000000
  70
    32
  0
VERTEX
  8
0
  5
1069A
 10
51.0247
 20
13.8992
 30
0.000000
  70
    32
  0
VERTEX
  8
0
  5
1069B
 10
51.0560
 20
13.9334
 30
0.000000
  70
    32
  0
VERTEX
  8
0
  5
1069C
 10
51.0872
 20
13.9676
 30
0.000000
  70
    32
  0
VERTEX
  8
0
  5
1069D
 10
51.1184
 20
14.0020
 30
0.000000
  70
    32
  0
VERTEX
  8
0
  5
1069E
 10
51.1494
 20
14.0364
 30
0.000000
  70
    32
  0
VERTEX
  8
0
  5
1069F
 10
51.1804
 20
14.0708
 30
0.000000
  70
    32
  0
VERTEX
  8
0
  5
106A0
 10
51.2113
 20
14.1054
 30
0.000000
  70
    32
  0
VERTEX
  8
0
  5
106A1
 10
51.2421
 20
14.1400
 30
0.000000
  70
    32
  0
VERTEX
  8
0
  5
106A2
 10
51.2728
 20
14.1746
 30
0.000000
  70
    32
  0
VERTEX
  8
0
  5
106A3
 10
51.3034
 20
14.2094
 30
0.000000
  70
    32
  0
VERTEX
  8
0
  5
106A4
 10
51.3340
 20
14.2442
 30
0.000000
  70
    32
  0
VERTEX
  8
0
  5
106A5
 10
51.3645
 20
14.2791
 30
0.000000
  70
    32
  0
VERTEX
  8
0
  5
106A6
 10
51.3949
 20
14.3141
 30
0.000000
  70
    32
  0
VERTEX
  8
0
  5
106A7
 10
51.4252
 20
14.3491
 30
0.000000
  70
    32
  0
VERTEX
  8
0
  5
106A8
 10
51.4555
 20
14.3842
 30
0.000000
  70
    32
  0
VERTEX
  8
0
  5
106A9
 10
51.4856
 20
14.4194
 30
0.000000
  70
    32
  0
VERTEX
  8
0
  5
106AA
 10
51.5157
 20
14.4546
 30
0.000000
  70
    32
  0
VERTEX
  8
0
  5
106AB
 10
51.5457
 20
14.4899
 30
0.000000
  70
    32
  0
VERTEX
  8
0
  5
106AC
 10
51.5756
 20
14.5253
 30
0.000000
  70
    32
  0
VERTEX
  8
0
  5
106AD
 10
51.6055
 20
14.5607
 30
0.000000
  70
    32
  0
VERTEX
  8
0
  5
106AE
 10
51.6352
 20
14.5962
 30
0.000000
  70
    32
  0
VERTEX
  8
0
  5
106AF
 10
51.6649
 20
14.6318
 30
0.000000
  70
    32
  0
VERTEX
  8
0
  5
106B0
 10
51.6945
 20
14.6675
 30
0.000000
  70
    32
  0
VERTEX
  8
0
  5
106B1
 10
51.7240
 20
14.7032
 30
0.000000
  70
    32
  0
VERTEX
  8
0
  5
106B2
 10
51.7534
 20
14.7390
 30
0.000000
  70
    32
  0
VERTEX
  8
0
  5
106B3
 10
51.7828
 20
14.7748
 30
0.000000
  70
    32
  0
VERTEX
  8
0
  5
106B4
 10
51.8120
 20
14.8108
 30
0.000000
  70
    32
  0
VERTEX
  8
0
  5
106B5
 10
51.8412
 20
14.8468
 30
0.000000
  70
    32
  0
VERTEX
  8
0
  5
106B6
 10
51.8703
 20
14.8828
 30
0.000000
  70
    32
  0
VERTEX
  8
0
  5
106B7
 10
51.8993
 20
14.9189
 30
0.000000
  70
    32
  0
VERTEX
  8
0
  5
106B8
 10
51.9283
 20
14.9551
 30
0.000000
  70
    32
  0
VERTEX
  8
0
  5
106B9
 10
51.9571
 20
14.9914
 30
0.000000
  70
    32
  0
VERTEX
  8
0
  5
106BA
 10
51.9859
 20
15.0277
 30
0.000000
  70
    32
  0
VERTEX
  8
0
  5
106BB
 10
52.0145
 20
15.0641
 30
0.000000
  70
    32
  0
VERTEX
  8
0
  5
106BC
 10
52.0431
 20
15.1006
 30
0.000000
  70
    32
  0
VERTEX
  8
0
  5
106BD
 10
52.0716
 20
15.1371
 30
0.000000
  70
    32
  0
VERTEX
  8
0
  5
106BE
 10
52.1001
 20
15.1737
 30
0.000000
  70
    32
  0
VERTEX
  8
0
  5
106BF
 10
52.1284
 20
15.2103
 30
0.000000
  70
    32
  0
VERTEX
  8
0
  5
106C0
 10
52.1567
 20
15.2470
 30
0.000000
  70
    32
  0
VERTEX
  8
0
  5
106C1
 10
52.1848
 20
15.2838
 30
0.000000
  70
    32
  0
VERTEX
  8
0
  5
106C2
 10
52.2129
 20
15.3207
 30
0.000000
  70
    32
  0
VERTEX
  8
0
  5
106C3
 10
52.2409
 20
15.3576
 30
0.000000
  70
    32
  0
VERTEX
  8
0
  5
106C4
 10
52.2689
 20
15.3945
 30
0.000000
  70
    32
  0
VERTEX
  8
0
  5
106C5
 10
52.2967
 20
15.4316
 30
0.000000
  70
    32
  0
VERTEX
  8
0
  5
106C6
 10
52.3244
 20
15.4687
 30
0.000000
  70
    32
  0
VERTEX
  8
0
  5
106C7
 10
52.3521
 20
15.5058
 30
0.000000
  70
    32
  0
VERTEX
  8
0
  5
106C8
 10
52.3797
 20
15.5431
 30
0.000000
  70
    32
  0
VERTEX
  8
0
  5
106C9
 10
52.4072
 20
15.5803
 30
0.000000
  70
    32
  0
VERTEX
  8
0
  5
106CA
 10
52.4346
 20
15.6177
 30
0.000000
  70
    32
  0
VERTEX
  8
0
  5
106CB
 10
52.4620
 20
15.6551
 30
0.000000
  70
    32
  0
VERTEX
  8
0
  5
106CC
 10
52.4892
 20
15.6926
 30
0.000000
  70
    32
  0
VERTEX
  8
0
  5
106CD
 10
52.5164
 20
15.7301
 30
0.000000
  70
    32
  0
VERTEX
  8
0
  5
106CE
 10
52.5435
 20
15.7677
 30
0.000000
  70
    32
  0
VERTEX
  8
0
  5
106CF
 10
52.5705
 20
15.8053
 30
0.000000
  70
    32
  0
VERTEX
  8
0
  5
106D0
 10
52.5974
 20
15.8430
 30
0.000000
  70
    32
  0
VERTEX
  8
0
  5
106D1
 10
52.6242
 20
15.8808
 30
0.000000
  70
    32
  0
VERTEX
  8
0
  5
106D2
 10
52.6510
 20
15.9186
 30
0.000000
  70
    32
  0
VERTEX
  8
0
  5
106D3
 10
52.6776
 20
15.9565
 30
0.000000
  70
    32
  0
VERTEX
  8
0
  5
106D4
 10
52.7042
 20
15.9945
 30
0.000000
  70
    32
  0
VERTEX
  8
0
  5
106D5
 10
52.7307
 20
16.0325
 30
0.000000
  70
    32
  0
VERTEX
  8
0
  5
106D6
 10
52.7572
 20
16.0705
 30
0.000000
  70
    32
  0
VERTEX
  8
0
  5
106D7
 10
52.7835
 20
16.1086
 30
0.000000
  70
    32
  0
VERTEX
  8
0
  5
106D8
 10
52.8097
 20
16.1468
 30
0.000000
  70
    32
  0
VERTEX
  8
0
  5
106D9
 10
52.8359
 20
16.1851
 30
0.000000
  70
    32
  0
VERTEX
  8
0
  5
106DA
 10
52.8620
 20
16.2233
 30
0.000000
  70
    32
  0
VERTEX
  8
0
  5
106DB
 10
52.8880
 20
16.2617
 30
0.000000
  70
    32
  0
VERTEX
  8
0
  5
106DC
 10
52.9139
 20
16.3001
 30
0.000000
  70
    32
  0
VERTEX
  8
0
  5
106DD
 10
52.9397
 20
16.3386
 30
0.000000
  70
    32
  0
VERTEX
  8
0
  5
106DE
 10
52.9655
 20
16.3771
 30
0.000000
  70
    32
  0
VERTEX
  8
0
  5
106DF
 10
52.9911
 20
16.4157
 30
0.000000
  70
    32
  0
VERTEX
  8
0
  5
106E0
 10
53.0167
 20
16.4543
 30
0.000000
  70
    32
  0
VERTEX
  8
0
  5
106E1
 10
53.0422
 20
16.4930
 30
0.000000
  70
    32
  0
VERTEX
  8
0
  5
106E2
 10
53.0676
 20
16.5317
 30
0.000000
  70
    32
  0
VERTEX
  8
0
  5
106E3
 10
53.0930
 20
16.5705
 30
0.000000
  70
    32
  0
VERTEX
  8
0
  5
106E4
 10
53.1182
 20
16.6093
 30
0.000000
  70
    32
  0
VERTEX
  8
0
  5
106E5
 10
53.1434
 20
16.6482
 30
0.000000
  70
    32
  0
VERTEX
  8
0
  5
106E6
 10
53.1685
 20
16.6872
 30
0.000000
  70
    32
  0
VERTEX
  8
0
  5
106E7
 10
53.1935
 20
16.7262
 30
0.000000
  70
    32
  0
VERTEX
  8
0
  5
106E8
 10
53.2184
 20
16.7653
 30
0.000000
  70
    32
  0
VERTEX
  8
0
  5
106E9
 10
53.2432
 20
16.8044
 30
0.000000
  70
    32
  0
VERTEX
  8
0
  5
106EA
 10
53.2680
 20
16.8435
 30
0.000000
  70
    32
  0
VERTEX
  8
0
  5
106EB
 10
53.2926
 20
16.8828
 30
0.000000
  70
    32
  0
VERTEX
  8
0
  5
106EC
 10
53.3172
 20
16.9220
 30
0.000000
  70
    32
  0
VERTEX
  8
0
  5
106ED
 10
53.3417
 20
16.9613
 30
0.000000
  70
    32
  0
VERTEX
  8
0
  5
106EE
 10
53.3661
 20
17.0007
 30
0.000000
  70
    32
  0
VERTEX
  8
0
  5
106EF
 10
53.3904
 20
17.0401
 30
0.000000
  70
    32
  0
VERTEX
  8
0
  5
106F0
 10
53.4147
 20
17.0796
 30
0.000000
  70
    32
  0
VERTEX
  8
0
  5
106F1
 10
53.4388
 20
17.1191
 30
0.000000
  70
    32
  0
VERTEX
  8
0
  5
106F2
 10
53.4629
 20
17.1587
 30
0.000000
  70
    32
  0
VERTEX
  8
0
  5
106F3
 10
53.4869
 20
17.1984
 30
0.000000
  70
    32
  0
VERTEX
  8
0
  5
106F4
 10
53.5108
 20
17.2380
 30
0.000000
  70
    32
  0
VERTEX
  8
0
  5
106F5
 10
53.5346
 20
17.2778
 30
0.000000
  70
    32
  0
VERTEX
  8
0
  5
106F6
 10
53.5584
 20
17.3175
 30
0.000000
  70
    32
  0
VERTEX
  8
0
  5
106F7
 10
53.5820
 20
17.3574
 30
0.000000
  70
    32
  0
VERTEX
  8
0
  5
106F8
 10
53.6056
 20
17.3973
 30
0.000000
  70
    32
  0
VERTEX
  8
0
  5
106F9
 10
53.6291
 20
17.4372
 30
0.000000
  70
    32
  0
VERTEX
  8
0
  5
106FA
 10
53.6525
 20
17.4772
 30
0.000000
  70
    32
  0
VERTEX
  8
0
  5
106FB
 10
53.6758
 20
17.5172
 30
0.000000
  70
    32
  0
VERTEX
  8
0
  5
106FC
 10
53.6991
 20
17.5573
 30
0.000000
  70
    32
  0
VERTEX
  8
0
  5
106FD
 10
53.7222
 20
17.5974
 30
0.000000
  70
    32
  0
VERTEX
  8
0
  5
106FE
 10
53.7453
 20
17.6376
 30
0.000000
  70
    32
  0
VERTEX
  8
0
  5
106FF
 10
53.7683
 20
17.6778
 30
0.000000
  70
    32
  0
VERTEX
  8
0
  5
10700
 10
53.7912
 20
17.7181
 30
0.000000
  70
    32
  0
VERTEX
  8
0
  5
10701
 10
53.8140
 20
17.7584
 30
0.000000
  70
    32
  0
VERTEX
  8
0
  5
10702
 10
53.8368
 20
17.7987
 30
0.000000
  70
    32
  0
VERTEX
  8
0
  5
10703
 10
53.8594
 20
17.8391
 30
0.000000
  70
    32
  0
VERTEX
  8
0
  5
10704
 10
53.8820
 20
17.8796
 30
0.000000
  70
    32
  0
VERTEX
  8
0
  5
10705
 10
53.9045
 20
17.9201
 30
0.000000
  70
    32
  0
VERTEX
  8
0
  5
10706
 10
53.9269
 20
17.9607
 30
0.000000
  70
    32
  0
VERTEX
  8
0
  5
10707
 10
53.9492
 20
18.0013
 30
0.000000
  70
    32
  0
VERTEX
  8
0
  5
10708
 10
53.9714
 20
18.0419
 30
0.000000
  70
    32
  0
VERTEX
  8
0
  5
10709
 10
53.9935
 20
18.0826
 30
0.000000
  70
    32
  0
VERTEX
  8
0
  5
1070A
 10
54.0156
 20
18.1233
 30
0.000000
  70
    32
  0
VERTEX
  8
0
  5
1070B
 10
54.0376
 20
18.1641
 30
0.000000
  70
    32
  0
VERTEX
  8
0
  5
1070C
 10
54.0595
 20
18.2050
 30
0.000000
  70
    32
  0
VERTEX
  8
0
  5
1070D
 10
54.0813
 20
18.2458
 30
0.000000
  70
    32
  0
VERTEX
  8
0
  5
1070E
 10
54.1030
 20
18.2868
 30
0.000000
  70
    32
  0
VERTEX
  8
0
  5
1070F
 10
54.1247
 20
18.3277
 30
0.000000
  70
    32
  0
VERTEX
  8
0
  5
10710
 10
54.1462
 20
18.3687
 30
0.000000
  70
    32
  0
VERTEX
  8
0
  5
10711
 10
54.1677
 20
18.4098
 30
0.000000
  70
    32
  0
VERTEX
  8
0
  5
10712
 10
54.1891
 20
18.4509
 30
0.000000
  70
    32
  0
VERTEX
  8
0
  5
10713
 10
54.2104
 20
18.4920
 30
0.000000
  70
    32
  0
VERTEX
  8
0
  5
10714
 10
54.2316
 20
18.5332
 30
0.000000
  70
    32
  0
VERTEX
  8
0
  5
10715
 10
54.2527
 20
18.5744
 30
0.000000
  70
    32
  0
VERTEX
  8
0
  5
10716
 10
54.2738
 20
18.6157
 30
0.000000
  70
    32
  0
VERTEX
  8
0
  5
10717
 10
54.2947
 20
18.6570
 30
0.000000
  70
    32
  0
VERTEX
  8
0
  5
10718
 10
54.3156
 20
18.6984
 30
0.000000
  70
    32
  0
VERTEX
  8
0
  5
10719
 10
54.3364
 20
18.7398
 30
0.000000
  70
    32
  0
VERTEX
  8
0
  5
1071A
 10
54.3571
 20
18.7812
 30
0.000000
  70
    32
  0
VERTEX
  8
0
  5
1071B
 10
54.3778
 20
18.8227
 30
0.000000
  70
    32
  0
VERTEX
  8
0
  5
1071C
 10
54.3983
 20
18.8643
 30
0.000000
  70
    32
  0
VERTEX
  8
0
  5
1071D
 10
54.4188
 20
18.9058
 30
0.000000
  70
    32
  0
VERTEX
  8
0
  5
1071E
 10
54.4391
 20
18.9474
 30
0.000000
  70
    32
  0
VERTEX
  8
0
  5
1071F
 10
54.4594
 20
18.9891
 30
0.000000
  70
    32
  0
VERTEX
  8
0
  5
10720
 10
54.4796
 20
19.0308
 30
0.000000
  70
    32
  0
VERTEX
  8
0
  5
10721
 10
54.4997
 20
19.0725
 30
0.000000
  70
    32
  0
VERTEX
  8
0
  5
10722
 10
54.5198
 20
19.1143
 30
0.000000
  70
    32
  0
VERTEX
  8
0
  5
10723
 10
54.5397
 20
19.1561
 30
0.000000
  70
    32
  0
VERTEX
  8
0
  5
10724
 10
54.5596
 20
19.1980
 30
0.000000
  70
    32
  0
VERTEX
  8
0
  5
10725
 10
54.5793
 20
19.2399
 30
0.000000
  70
    32
  0
VERTEX
  8
0
  5
10726
 10
54.5990
 20
19.2818
 30
0.000000
  70
    32
  0
VERTEX
  8
0
  5
10727
 10
54.6186
 20
19.3238
 30
0.000000
  70
    32
  0
VERTEX
  8
0
  5
10728
 10
54.6382
 20
19.3658
 30
0.000000
  70
    32
  0
VERTEX
  8
0
  5
10729
 10
54.6576
 20
19.4079
 30
0.000000
  70
    32
  0
VERTEX
  8
0
  5
1072A
 10
54.6769
 20
19.4500
 30
0.000000
  70
    32
  0
VERTEX
  8
0
  5
1072B
 10
54.6962
 20
19.4921
 30
0.000000
  70
    32
  0
VERTEX
  8
0
  5
1072C
 10
54.7154
 20
19.5343
 30
0.000000
  70
    32
  0
VERTEX
  8
0
  5
1072D
 10
54.7345
 20
19.5765
 30
0.000000
  70
    32
  0
VERTEX
  8
0
  5
1072E
 10
54.7535
 20
19.6188
 30
0.000000
  70
    32
  0
VERTEX
  8
0
  5
1072F
 10
54.7724
 20
19.6611
 30
0.000000
  70
    32
  0
VERTEX
  8
0
  5
10730
 10
54.7913
 20
19.7034
 30
0.000000
  70
    32
  0
VERTEX
  8
0
  5
10731
 10
54.8100
 20
19.7458
 30
0.000000
  70
    32
  0
VERTEX
  8
0
  5
10732
 10
54.8287
 20
19.7882
 30
0.000000
  70
    32
  0
VERTEX
  8
0
  5
10733
 10
54.8472
 20
19.8306
 30
0.000000
  70
    32
  0
VERTEX
  8
0
  5
10734
 10
54.8657
 20
19.8731
 30
0.000000
  70
    32
  0
VERTEX
  8
0
  5
10735
 10
54.8841
 20
19.9156
 30
0.000000
  70
    32
  0
VERTEX
  8
0
  5
10736
 10
54.9025
 20
19.9581
 30
0.000000
  70
    32
  0
VERTEX
  8
0
  5
10737
 10
54.9207
 20
20.0007
 30
0.000000
  70
    32
  0
VERTEX
  8
0
  5
10738
 10
54.9388
 20
20.0434
 30
0.000000
  70
    32
  0
VERTEX
  8
0
  5
10739
 10
54.9569
 20
20.0860
 30
0.000000
  70
    32
  0
VERTEX
  8
0
  5
1073A
 10
54.9749
 20
20.1287
 30
0.000000
  70
    32
  0
VERTEX
  8
0
  5
1073B
 10
54.9928
 20
20.1714
 30
0.000000
  70
    32
  0
VERTEX
  8
0
  5
1073C
 10
55.0106
 20
20.2142
 30
0.000000
  70
    32
  0
VERTEX
  8
0
  5
1073D
 10
55.0283
 20
20.2570
 30
0.000000
  70
    32
  0
VERTEX
  8
0
  5
1073E
 10
55.0459
 20
20.2998
 30
0.000000
  70
    32
  0
VERTEX
  8
0
  5
1073F
 10
55.0635
 20
20.3427
 30
0.000000
  70
    32
  0
VERTEX
  8
0
  5
10740
 10
55.0809
 20
20.3856
 30
0.000000
  70
    32
  0
VERTEX
  8
0
  5
10741
 10
55.0983
 20
20.4285
 30
0.000000
  70
    32
  0
VERTEX
  8
0
  5
10742
 10
55.1156
 20
20.4715
 30
0.000000
  70
    32
  0
VERTEX
  8
0
  5
10743
 10
55.1328
 20
20.5145
 30
0.000000
  70
    32
  0
VERTEX
  8
0
  5
10744
 10
55.1499
 20
20.5575
 30
0.000000
  70
    32
  0
VERTEX
  8
0
  5
10745
 10
55.1669
 20
20.6006
 30
0.000000
  70
    32
  0
VERTEX
  8
0
  5
10746
 10
55.1839
 20
20.6437
 30
0.000000
  70
    32
  0
VERTEX
  8
0
  5
10747
 10
55.2007
 20
20.6868
 30
0.000000
  70
    32
  0
SEQEND
  8
0
  5
10748
  0
LINE
  5
F7F6
  8
0
 10
34.499955999999649
 20
16.50001999999995
 30
0.0
 11
32.999954999999318
 21
10.500019999999941
 31
0.0
  0
LINE
  5
F7F7
  8
0
 10
30.671027000000318
 20
25.02635000000009
 30
0.0
 11
25.23433300000033
 21
21.919669999999989
 31
0.0
  0
LINE
  5
F7F8
  8
0
 10
36.0
 20
25.725450000000141
 30
0.0
 11
36.0
 21
16.5
 31
0.0
  0
LINE
  5
F7F9
  8
0
 10
36.0
 20
7.5
 30
0.0
 11
36.0
 21
6.0
 31
0.0
  0
LINE
  5
F7FA
  8
0
 10
36.999964000000539
 20
26.725490000000029
 30
0.0
 11
35.9999630000002
 21
25.725490000000029
 31
0.0
  0
ARC
  5
F7FB
  8
0
 10
31.1674810000004
 20
24.157570000000081
 30
0.0
 40
1.0
 50
30.852850000001808
 51
119.7448839999871
  0
ARC
  5
F7FC
  8
0
 10
25.730461000000101
 20
21.05146000000013
 30
0.0
 40
1.0
 50
119.7448839999871
 51
201.27633999998571
  0
POLYLINE
  8
0
  5
10749
  66
     1
 10
0.000000
 20
0.000000
 30
0.000000
  70
     8
  0
VERTEX
  8
0
  5
1074A
 10
34.5000
 20
16.5000
 30
0.000000
  70
    32
  0
VERTEX
  8
0
  5
1074B
 10
34.4984
 20
16.5300
 30
0.000000
  70
    32
  0
VERTEX
  8
0
  5
1074C
 10
34.4968
 20
16.5600
 30
0.000000
  70
    32
  0
VERTEX
  8
0
  5
1074D
 10
34.4951
 20
16.5900
 30
0.000000
  70
    32
  0
VERTEX
  8
0
  5
1074E
 10
34.4934
 20
16.6200
 30
0.000000
  70
    32
  0
VERTEX
  8
0
  5
1074F
 10
34.4916
 20
16.6500
 30
0.000000
  70
    32
  0
VERTEX
  8
0
  5
10750
 10
34.4898
 20
16.6800
 30
0.000000
  70
    32
  0
VERTEX
  8
0
  5
10751
 10
34.4879
 20
16.7100
 30
0.000000
  70
    32
  0
VERTEX
  8
0
  5
10752
 10
34.4860
 20
16.7399
 30
0.000000
  70
    32
  0
VERTEX
  8
0
  5
10753
 10
34.4840
 20
16.7699
 30
0.000000
  70
    32
  0
VERTEX
  8
0
  5
10754
 10
34.4820
 20
16.7999
 30
0.000000
  70
    32
  0
VERTEX
  8
0
  5
10755
 10
34.4800
 20
16.8299
 30
0.000000
  70
    32
  0
VERTEX
  8
0
  5
10756
 10
34.4779
 20
16.8598
 30
0.000000
  70
    32
  0
VERTEX
  8
0
  5
10757
 10
34.4757
 20
16.8898
 30
0.000000
  70
    32
  0
VERTEX
  8
0
  5
10758
 10
34.4735
 20
16.9198
 30
0.000000
  70
    32
  0
VERTEX
  8
0
  5
10759
 10
34.4712
 20
16.9497
 30
0.000000
  70
    32
  0
VERTEX
  8
0
  5
1075A
 10
34.4689
 20
16.9797
 30
0.000000
  70
    32
  0
VERTEX
  8
0
  5
1075B
 10
34.4666
 20
17.0096
 30
0.000000
  70
    32
  0
VERTEX
  8
0
  5
1075C
 10
34.4642
 20
17.0396
 30
0.000000
  70
    32
  0
VERTEX
  8
0
  5
1075D
 10
34.4617
 20
17.0695
 30
0.000000
  70
    32
  0
VERTEX
  8
0
  5
1075E
 10
34.4592
 20
17.0995
 30
0.000000
  70
    32
  0
VERTEX
  8
0
  5
1075F
 10
34.4567
 20
17.1294
 30
0.000000
  70
    32
  0
VERTEX
  8
0
  5
10760
 10
34.4541
 20
17.1594
 30
0.000000
  70
    32
  0
VERTEX
  8
0
  5
10761
 10
34.4514
 20
17.1893
 30
0.000000
  70
    32
  0
VERTEX
  8
0
  5
10762
 10
34.4487
 20
17.2192
 30
0.000000
  70
    32
  0
VERTEX
  8
0
  5
10763
 10
34.4460
 20
17.2492
 30
0.000000
  70
    32
  0
VERTEX
  8
0
  5
10764
 10
34.4432
 20
17.2791
 30
0.000000
  70
    32
  0
VERTEX
  8
0
  5
10765
 10
34.4403
 20
17.3090
 30
0.000000
  70
    32
  0
VERTEX
  8
0
  5
10766
 10
34.4375
 20
17.3389
 30
0.000000
  70
    32
  0
VERTEX
  8
0
  5
10767
 10
34.4345
 20
17.3688
 30
0.000000
  70
    32
  0
VERTEX
  8
0
  5
10768
 10
34.4315
 20
17.3987
 30
0.000000
  70
    32
  0
VERTEX
  8
0
  5
10769
 10
34.4285
 20
17.4286
 30
0.000000
  70
    32
  0
VERTEX
  8
0
  5
1076A
 10
34.4254
 20
17.4585
 30
0.000000
  70
    32
  0
VERTEX
  8
0
  5
1076B
 10
34.4223
 20
17.4884
 30
0.000000
  70
    32
  0
VERTEX
  8
0
  5
1076C
 10
34.4191
 20
17.5183
 30
0.000000
  70
    32
  0
VERTEX
  8
0
  5
1076D
 10
34.4158
 20
17.5481
 30
0.000000
  70
    32
  0
VERTEX
  8
0
  5
1076E
 10
34.4126
 20
17.5780
 30
0.000000
  70
    32
  0
VERTEX
  8
0
  5
1076F
 10
34.4092
 20
17.6079
 30
0.000000
  70
    32
  0
VERTEX
  8
0
  5
10770
 10
34.4059
 20
17.6377
 30
0.000000
  70
    32
  0
VERTEX
  8
0
  5
10771
 10
34.4024
 20
17.6676
 30
0.000000
  70
    32
  0
VERTEX
  8
0
  5
10772
 10
34.3990
 20
17.6974
 30
0.000000
  70
    32
  0
VERTEX
  8
0
  5
10773
 10
34.3954
 20
17.7273
 30
0.000000
  70
    32
  0
VERTEX
  8
0
  5
10774
 10
34.3919
 20
17.7571
 30
0.000000
  70
    32
  0
VERTEX
  8
0
  5
10775
 10
34.3882
 20
17.7870
 30
0.000000
  70
    32
  0
VERTEX
  8
0
  5
10776
 10
34.3846
 20
17.8168
 30
0.000000
  70
    32
  0
VERTEX
  8
0
  5
10777
 10
34.3808
 20
17.8466
 30
0.000000
  70
    32
  0
VERTEX
  8
0
  5
10778
 10
34.3771
 20
17.8764
 30
0.000000
  70
    32
  0
VERTEX
  8
0
  5
10779
 10
34.3732
 20
17.9062
 30
0.000000
  70
    32
  0
VERTEX
  8
0
  5
1077A
 10
34.3694
 20
17.9360
 30
0.000000
  70
    32
  0
VERTEX
  8
0
  5
1077B
 10
34.3655
 20
17.9658
 30
0.000000
  70
    32
  0
VERTEX
  8
0
  5
1077C
 10
34.3615
 20
17.9956
 30
0.000000
  70
    32
  0
VERTEX
  8
0
  5
1077D
 10
34.3575
 20
18.0254
 30
0.000000
  70
    32
  0
VERTEX
  8
0
  5
1077E
 10
34.3534
 20
18.0552
 30
0.000000
  70
    32
  0
VERTEX
  8
0
  5
1077F
 10
34.3493
 20
18.0849
 30
0.000000
  70
    32
  0
VERTEX
  8
0
  5
10780
 10
34.3451
 20
18.1147
 30
0.000000
  70
    32
  0
VERTEX
  8
0
  5
10781
 10
34.3409
 20
18.1444
 30
0.000000
  70
    32
  0
VERTEX
  8
0
  5
10782
 10
34.3367
 20
18.1742
 30
0.000000
  70
    32
  0
VERTEX
  8
0
  5
10783
 10
34.3323
 20
18.2039
 30
0.000000
  70
    32
  0
VERTEX
  8
0
  5
10784
 10
34.3280
 20
18.2337
 30
0.000000
  70
    32
  0
VERTEX
  8
0
  5
10785
 10
34.3236
 20
18.2634
 30
0.000000
  70
    32
  0
VERTEX
  8
0
  5
10786
 10
34.3191
 20
18.2931
 30
0.000000
  70
    32
  0
VERTEX
  8
0
  5
10787
 10
34.3146
 20
18.3228
 30
0.000000
  70
    32
  0
VERTEX
  8
0
  5
10788
 10
34.3100
 20
18.3525
 30
0.000000
  70
    32
  0
VERTEX
  8
0
  5
10789
 10
34.3054
 20
18.3822
 30
0.000000
  70
    32
  0
VERTEX
  8
0
  5
1078A
 10
34.3008
 20
18.4119
 30
0.000000
  70
    32
  0
VERTEX
  8
0
  5
1078B
 10
34.2961
 20
18.4416
 30
0.000000
  70
    32
  0
VERTEX
  8
0
  5
1078C
 10
34.2913
 20
18.4712
 30
0.000000
  70
    32
  0
VERTEX
  8
0
  5
1078D
 10
34.2865
 20
18.5009
 30
0.000000
  70
    32
  0
VERTEX
  8
0
  5
1078E
 10
34.2817
 20
18.5305
 30
0.000000
  70
    32
  0
VERTEX
  8
0
  5
1078F
 10
34.2768
 20
18.5602
 30
0.000000
  70
    32
  0
VERTEX
  8
0
  5
10790
 10
34.2718
 20
18.5898
 30
0.000000
  70
    32
  0
VERTEX
  8
0
  5
10791
 10
34.2668
 20
18.6195
 30
0.000000
  70
    32
  0
VERTEX
  8
0
  5
10792
 10
34.2618
 20
18.6491
 30
0.000000
  70
    32
  0
VERTEX
  8
0
  5
10793
 10
34.2566
 20
18.6787
 30
0.000000
  70
    32
  0
VERTEX
  8
0
  5
10794
 10
34.2515
 20
18.7083
 30
0.000000
  70
    32
  0
VERTEX
  8
0
  5
10795
 10
34.2463
 20
18.7379
 30
0.000000
  70
    32
  0
VERTEX
  8
0
  5
10796
 10
34.2410
 20
18.7675
 30
0.000000
  70
    32
  0
VERTEX
  8
0
  5
10797
 10
34.2357
 20
18.7971
 30
0.000000
  70
    32
  0
VERTEX
  8
0
  5
10798
 10
34.2304
 20
18.8266
 30
0.000000
  70
    32
  0
VERTEX
  8
0
  5
10799
 10
34.2250
 20
18.8562
 30
0.000000
  70
    32
  0
VERTEX
  8
0
  5
1079A
 10
34.2196
 20
18.8857
 30
0.000000
  70
    32
  0
VERTEX
  8
0
  5
1079B
 10
34.2141
 20
18.9153
 30
0.000000
  70
    32
  0
VERTEX
  8
0
  5
1079C
 10
34.2085
 20
18.9448
 30
0.000000
  70
    32
  0
VERTEX
  8
0
  5
1079D
 10
34.2029
 20
18.9743
 30
0.000000
  70
    32
  0
VERTEX
  8
0
  5
1079E
 10
34.1973
 20
19.0038
 30
0.000000
  70
    32
  0
VERTEX
  8
0
  5
1079F
 10
34.1916
 20
19.0333
 30
0.000000
  70
    32
  0
VERTEX
  8
0
  5
107A0
 10
34.1858
 20
19.0628
 30
0.000000
  70
    32
  0
VERTEX
  8
0
  5
107A1
 10
34.1800
 20
19.0923
 30
0.000000
  70
    32
  0
VERTEX
  8
0
  5
107A2
 10
34.1742
 20
19.1218
 30
0.000000
  70
    32
  0
VERTEX
  8
0
  5
107A3
 10
34.1683
 20
19.1513
 30
0.000000
  70
    32
  0
VERTEX
  8
0
  5
107A4
 10
34.1623
 20
19.1807
 30
0.000000
  70
    32
  0
VERTEX
  8
0
  5
107A5
 10
34.1563
 20
19.2102
 30
0.000000
  70
    32
  0
VERTEX
  8
0
  5
107A6
 10
34.1503
 20
19.2396
 30
0.000000
  70
    32
  0
VERTEX
  8
0
  5
107A7
 10
34.1442
 20
19.2690
 30
0.000000
  70
    32
  0
VERTEX
  8
0
  5
107A8
 10
34.1381
 20
19.2984
 30
0.000000
  70
    32
  0
VERTEX
  8
0
  5
107A9
 10
34.1319
 20
19.3278
 30
0.000000
  70
    32
  0
VERTEX
  8
0
  5
107AA
 10
34.1256
 20
19.3572
 30
0.000000
  70
    32
  0
VERTEX
  8
0
  5
107AB
 10
34.1193
 20
19.3866
 30
0.000000
  70
    32
  0
VERTEX
  8
0
  5
107AC
 10
34.1130
 20
19.4160
 30
0.000000
  70
    32
  0
VERTEX
  8
0
  5
107AD
 10
34.1066
 20
19.4453
 30
0.000000
  70
    32
  0
VERTEX
  8
0
  5
107AE
 10
34.1001
 20
19.4747
 30
0.000000
  70
    32
  0
VERTEX
  8
0
  5
107AF
 10
34.0936
 20
19.5040
 30
0.000000
  70
    32
  0
VERTEX
  8
0
  5
107B0
 10
34.0871
 20
19.5334
 30
0.000000
  70
    32
  0
VERTEX
  8
0
  5
107B1
 10
34.0805
 20
19.5627
 30
0.000000
  70
    32
  0
VERTEX
  8
0
  5
107B2
 10
34.0739
 20
19.5920
 30
0.000000
  70
    32
  0
VERTEX
  8
0
  5
107B3
 10
34.0672
 20
19.6213
 30
0.000000
  70
    32
  0
VERTEX
  8
0
  5
107B4
 10
34.0604
 20
19.6506
 30
0.000000
  70
    32
  0
VERTEX
  8
0
  5
107B5
 10
34.0536
 20
19.6798
 30
0.000000
  70
    32
  0
VERTEX
  8
0
  5
107B6
 10
34.0468
 20
19.7091
 30
0.000000
  70
    32
  0
VERTEX
  8
0
  5
107B7
 10
34.0399
 20
19.7383
 30
0.000000
  70
    32
  0
VERTEX
  8
0
  5
107B8
 10
34.0329
 20
19.7676
 30
0.000000
  70
    32
  0
VERTEX
  8
0
  5
107B9
 10
34.0259
 20
19.7968
 30
0.000000
  70
    32
  0
VERTEX
  8
0
  5
107BA
 10
34.0189
 20
19.8260
 30
0.000000
  70
    32
  0
VERTEX
  8
0
  5
107BB
 10
34.0118
 20
19.8552
 30
0.000000
  70
    32
  0
VERTEX
  8
0
  5
107BC
 10
34.0046
 20
19.8844
 30
0.000000
  70
    32
  0
VERTEX
  8
0
  5
107BD
 10
33.9974
 20
19.9136
 30
0.000000
  70
    32
  0
VERTEX
  8
0
  5
107BE
 10
33.9902
 20
19.9427
 30
0.000000
  70
    32
  0
VERTEX
  8
0
  5
107BF
 10
33.9829
 20
19.9719
 30
0.000000
  70
    32
  0
VERTEX
  8
0
  5
107C0
 10
33.9755
 20
20.0010
 30
0.000000
  70
    32
  0
VERTEX
  8
0
  5
107C1
 10
33.9681
 20
20.0301
 30
0.000000
  70
    32
  0
VERTEX
  8
0
  5
107C2
 10
33.9607
 20
20.0592
 30
0.000000
  70
    32
  0
VERTEX
  8
0
  5
107C3
 10
33.9532
 20
20.0883
 30
0.000000
  70
    32
  0
VERTEX
  8
0
  5
107C4
 10
33.9456
 20
20.1174
 30
0.000000
  70
    32
  0
VERTEX
  8
0
  5
107C5
 10
33.9380
 20
20.1465
 30
0.000000
  70
    32
  0
VERTEX
  8
0
  5
107C6
 10
33.9304
 20
20.1756
 30
0.000000
  70
    32
  0
VERTEX
  8
0
  5
107C7
 10
33.9227
 20
20.2046
 30
0.000000
  70
    32
  0
VERTEX
  8
0
  5
107C8
 10
33.9149
 20
20.2336
 30
0.000000
  70
    32
  0
VERTEX
  8
0
  5
107C9
 10
33.9071
 20
20.2627
 30
0.000000
  70
    32
  0
VERTEX
  8
0
  5
107CA
 10
33.8992
 20
20.2917
 30
0.000000
  70
    32
  0
VERTEX
  8
0
  5
107CB
 10
33.8913
 20
20.3206
 30
0.000000
  70
    32
  0
VERTEX
  8
0
  5
107CC
 10
33.8834
 20
20.3496
 30
0.000000
  70
    32
  0
VERTEX
  8
0
  5
107CD
 10
33.8754
 20
20.3786
 30
0.000000
  70
    32
  0
VERTEX
  8
0
  5
107CE
 10
33.8673
 20
20.4075
 30
0.000000
  70
    32
  0
VERTEX
  8
0
  5
107CF
 10
33.8592
 20
20.4365
 30
0.000000
  70
    32
  0
VERTEX
  8
0
  5
107D0
 10
33.8510
 20
20.4654
 30
0.000000
  70
    32
  0
VERTEX
  8
0
  5
107D1
 10
33.8428
 20
20.4943
 30
0.000000
  70
    32
  0
VERTEX
  8
0
  5
107D2
 10
33.8345
 20
20.5232
 30
0.000000
  70
    32
  0
VERTEX
  8
0
  5
107D3
 10
33.8262
 20
20.5521
 30
0.000000
  70
    32
  0
VERTEX
  8
0
  5
107D4
 10
33.8178
 20
20.5809
 30
0.000000
  70
    32
  0
VERTEX
  8
0
  5
107D5
 10
33.8094
 20
20.6098
 30
0.000000
  70
    32
  0
VERTEX
  8
0
  5
107D6
 10
33.8010
 20
20.6386
 30
0.000000
  70
    32
  0
VERTEX
  8
0
  5
107D7
 10
33.7924
 20
20.6674
 30
0.000000
  70
    32
  0
VERTEX
  8
0
  5
107D8
 10
33.7839
 20
20.6962
 30
0.000000
  70
    32
  0
VERTEX
  8
0
  5
107D9
 10
33.7752
 20
20.7250
 30
0.000000
  70
    32
  0
VERTEX
  8
0
  5
107DA
 10
33.7666
 20
20.7538
 30
0.000000
  70
    32
  0
VERTEX
  8
0
  5
107DB
 10
33.7578
 20
20.7825
 30
0.000000
  70
    32
  0
VERTEX
  8
0
  5
107DC
 10
33.7490
 20
20.8112
 30
0.000000
  70
    32
  0
VERTEX
  8
0
  5
107DD
 10
33.7402
 20
20.8400
 30
0.000000
  70
    32
  0
VERTEX
  8
0
  5
107DE
 10
33.7313
 20
20.8687
 30
0.000000
  70
    32
  0
VERTEX
  8
0
  5
107DF
 10
33.7224
 20
20.8974
 30
0.000000
  70
    32
  0
VERTEX
  8
0
  5
107E0
 10
33.7134
 20
20.9260
 30
0.000000
  70
    32
  0
VERTEX
  8
0
  5
107E1
 10
33.7044
 20
20.9547
 30
0.000000
  70
    32
  0
VERTEX
  8
0
  5
107E2
 10
33.6953
 20
20.9833
 30
0.000000
  70
    32
  0
VERTEX
  8
0
  5
107E3
 10
33.6862
 20
21.0120
 30
0.000000
  70
    32
  0
VERTEX
  8
0
  5
107E4
 10
33.6770
 20
21.0406
 30
0.000000
  70
    32
  0
VERTEX
  8
0
  5
107E5
 10
33.6677
 20
21.0692
 30
0.000000
  70
    32
  0
VERTEX
  8
0
  5
107E6
 10
33.6584
 20
21.0978
 30
0.000000
  70
    32
  0
VERTEX
  8
0
  5
107E7
 10
33.6491
 20
21.1263
 30
0.000000
  70
    32
  0
VERTEX
  8
0
  5
107E8
 10
33.6397
 20
21.1549
 30
0.000000
  70
    32
  0
VERTEX
  8
0
  5
107E9
 10
33.6303
 20
21.1834
 30
0.000000
  70
    32
  0
VERTEX
  8
0
  5
107EA
 10
33.6208
 20
21.2119
 30
0.000000
  70
    32
  0
VERTEX
  8
0
  5
107EB
 10
33.6112
 20
21.2404
 30
0.000000
  70
    32
  0
VERTEX
  8
0
  5
107EC
 10
33.6016
 20
21.2689
 30
0.000000
  70
    32
  0
VERTEX
  8
0
  5
107ED
 10
33.5920
 20
21.2973
 30
0.000000
  70
    32
  0
VERTEX
  8
0
  5
107EE
 10
33.5823
 20
21.3258
 30
0.000000
  70
    32
  0
VERTEX
  8
0
  5
107EF
 10
33.5725
 20
21.3542
 30
0.000000
  70
    32
  0
VERTEX
  8
0
  5
107F0
 10
33.5627
 20
21.3826
 30
0.000000
  70
    32
  0
VERTEX
  8
0
  5
107F1
 10
33.5529
 20
21.4110
 30
0.000000
  70
    32
  0
VERTEX
  8
0
  5
107F2
 10
33.5430
 20
21.4394
 30
0.000000
  70
    32
  0
VERTEX
  8
0
  5
107F3
 10
33.5331
 20
21.4677
 30
0.000000
  70
    32
  0
VERTEX
  8
0
  5
107F4
 10
33.5231
 20
21.4961
 30
0.000000
  70
    32
  0
VERTEX
  8
0
  5
107F5
 10
33.5130
 20
21.5244
 30
0.000000
  70
    32
  0
VERTEX
  8
0
  5
107F6
 10
33.5029
 20
21.5527
 30
0.000000
  70
    32
  0
VERTEX
  8
0
  5
107F7
 10
33.4928
 20
21.5810
 30
0.000000
  70
    32
  0
VERTEX
  8
0
  5
107F8
 10
33.4826
 20
21.6092
 30
0.000000
  70
    32
  0
VERTEX
  8
0
  5
107F9
 10
33.4723
 20
21.6375
 30
0.000000
  70
    32
  0
VERTEX
  8
0
  5
107FA
 10
33.4620
 20
21.6657
 30
0.000000
  70
    32
  0
VERTEX
  8
0
  5
107FB
 10
33.4517
 20
21.6939
 30
0.000000
  70
    32
  0
VERTEX
  8
0
  5
107FC
 10
33.4413
 20
21.7221
 30
0.000000
  70
    32
  0
VERTEX
  8
0
  5
107FD
 10
33.4308
 20
21.7503
 30
0.000000
  70
    32
  0
VERTEX
  8
0
  5
107FE
 10
33.4204
 20
21.7785
 30
0.000000
  70
    32
  0
VERTEX
  8
0
  5
107FF
 10
33.4098
 20
21.8066
 30
0.000000
  70
    32
  0
VERTEX
  8
0
  5
10800
 10
33.3992
 20
21.8347
 30
0.000000
  70
    32
  0
VERTEX
  8
0
  5
10801
 10
33.3886
 20
21.8628
 30
0.000000
  70
    32
  0
VERTEX
  8
0
  5
10802
 10
33.3779
 20
21.8909
 30
0.000000
  70
    32
  0
VERTEX
  8
0
  5
10803
 10
33.3671
 20
21.9190
 30
0.000000
  70
    32
  0
VERTEX
  8
0
  5
10804
 10
33.3563
 20
21.9470
 30
0.000000
  70
    32
  0
VERTEX
  8
0
  5
10805
 10
33.3455
 20
21.9750
 30
0.000000
  70
    32
  0
VERTEX
  8
0
  5
10806
 10
33.3346
 20
22.0030
 30
0.000000
  70
    32
  0
VERTEX
  8
0
  5
10807
 10
33.3237
 20
22.0310
 30
0.000000
  70
    32
  0
VERTEX
  8
0
  5
10808
 10
33.3127
 20
22.0590
 30
0.000000
  70
    32
  0
VERTEX
  8
0
  5
10809
 10
33.3017
 20
22.0870
 30
0.000000
  70
    32
  0
VERTEX
  8
0
  5
1080A
 10
33.2906
 20
22.1149
 30
0.000000
  70
    32
  0
VERTEX
  8
0
  5
1080B
 10
33.2794
 20
22.1428
 30
0.000000
  70
    32
  0
VERTEX
  8
0
  5
1080C
 10
33.2683
 20
22.1707
 30
0.000000
  70
    32
  0
VERTEX
  8
0
  5
1080D
 10
33.2570
 20
22.1986
 30
0.000000
  70
    32
  0
VERTEX
  8
0
  5
1080E
 10
33.2457
 20
22.2264
 30
0.000000
  70
    32
  0
VERTEX
  8
0
  5
1080F
 10
33.2344
 20
22.2542
 30
0.000000
  70
    32
  0
VERTEX
  8
0
  5
10810
 10
33.2230
 20
22.2820
 30
0.000000
  70
    32
  0
VERTEX
  8
0
  5
10811
 10
33.2116
 20
22.3098
 30
0.000000
  70
    32
  0
VERTEX
  8
0
  5
10812
 10
33.2001
 20
22.3376
 30
0.000000
  70
    32
  0
VERTEX
  8
0
  5
10813
 10
33.1886
 20
22.3654
 30
0.000000
  70
    32
  0
VERTEX
  8
0
  5
10814
 10
33.1771
 20
22.3931
 30
0.000000
  70
    32
  0
VERTEX
  8
0
  5
10815
 10
33.1654
 20
22.4208
 30
0.000000
  70
    32
  0
VERTEX
  8
0
  5
10816
 10
33.1538
 20
22.4485
 30
0.000000
  70
    32
  0
VERTEX
  8
0
  5
10817
 10
33.1421
 20
22.4762
 30
0.000000
  70
    32
  0
VERTEX
  8
0
  5
10818
 10
33.1303
 20
22.5038
 30
0.000000
  70
    32
  0
VERTEX
  8
0
  5
10819
 10
33.1185
 20
22.5315
 30
0.000000
  70
    32
  0
VERTEX
  8
0
  5
1081A
 10
33.1066
 20
22.5591
 30
0.000000
  70
    32
  0
VERTEX
  8
0
  5
1081B
 10
33.0947
 20
22.5867
 30
0.000000
  70
    32
  0
VERTEX
  8
0
  5
1081C
 10
33.0828
 20
22.6142
 30
0.000000
  70
    32
  0
VERTEX
  8
0
  5
1081D
 10
33.0708
 20
22.6418
 30
0.000000
  70
    32
  0
VERTEX
  8
0
  5
1081E
 10
33.0587
 20
22.6693
 30
0.000000
  70
    32
  0
VERTEX
  8
0
  5
1081F
 10
33.0466
 20
22.6968
 30
0.000000
  70
    32
  0
VERTEX
  8
0
  5
10820
 10
33.0345
 20
22.7243
 30
0.000000
  70
    32
  0
VERTEX
  8
0
  5
10821
 10
33.0223
 20
22.7518
 30
0.000000
  70
    32
  0
VERTEX
  8
0
  5
10822
 10
33.0101
 20
22.7792
 30
0.000000
  70
    32
  0
VERTEX
  8
0
  5
10823
 10
32.9978
 20
22.8066
 30
0.000000
  70
    32
  0
VERTEX
  8
0
  5
10824
 10
32.9855
 20
22.8340
 30
0.000000
  70
    32
  0
VERTEX
  8
0
  5
10825
 10
32.9731
 20
22.8614
 30
0.000000
  70
    32
  0
VERTEX
  8
0
  5
10826
 10
32.9607
 20
22.8888
 30
0.000000
  70
    32
  0
VERTEX
  8
0
  5
10827
 10
32.9482
 20
22.9161
 30
0.000000
  70
    32
  0
VERTEX
  8
0
  5
10828
 10
32.9357
 20
22.9434
 30
0.000000
  70
    32
  0
VERTEX
  8
0
  5
10829
 10
32.9231
 20
22.9707
 30
0.000000
  70
    32
  0
VERTEX
  8
0
  5
1082A
 10
32.9105
 20
22.9980
 30
0.000000
  70
    32
  0
VERTEX
  8
0
  5
1082B
 10
32.8978
 20
23.0253
 30
0.000000
  70
    32
  0
VERTEX
  8
0
  5
1082C
 10
32.8851
 20
23.0525
 30
0.000000
  70
    32
  0
VERTEX
  8
0
  5
1082D
 10
32.8724
 20
23.0797
 30
0.000000
  70
    32
  0
VERTEX
  8
0
  5
1082E
 10
32.8596
 20
23.1069
 30
0.000000
  70
    32
  0
VERTEX
  8
0
  5
1082F
 10
32.8468
 20
23.1341
 30
0.000000
  70
    32
  0
VERTEX
  8
0
  5
10830
 10
32.8339
 20
23.1612
 30
0.000000
  70
    32
  0
VERTEX
  8
0
  5
10831
 10
32.8209
 20
23.1883
 30
0.000000
  70
    32
  0
VERTEX
  8
0
  5
10832
 10
32.8080
 20
23.2154
 30
0.000000
  70
    32
  0
VERTEX
  8
0
  5
10833
 10
32.7949
 20
23.2425
 30
0.000000
  70
    32
  0
VERTEX
  8
0
  5
10834
 10
32.7819
 20
23.2696
 30
0.000000
  70
    32
  0
VERTEX
  8
0
  5
10835
 10
32.7688
 20
23.2966
 30
0.000000
  70
    32
  0
VERTEX
  8
0
  5
10836
 10
32.7556
 20
23.3236
 30
0.000000
  70
    32
  0
VERTEX
  8
0
  5
10837
 10
32.7424
 20
23.3506
 30
0.000000
  70
    32
  0
VERTEX
  8
0
  5
10838
 10
32.7291
 20
23.3776
 30
0.000000
  70
    32
  0
VERTEX
  8
0
  5
10839
 10
32.7158
 20
23.4045
 30
0.000000
  70
    32
  0
VERTEX
  8
0
  5
1083A
 10
32.7025
 20
23.4315
 30
0.000000
  70
    32
  0
VERTEX
  8
0
  5
1083B
 10
32.6891
 20
23.4584
 30
0.000000
  70
    32
  0
VERTEX
  8
0
  5
1083C
 10
32.6757
 20
23.4853
 30
0.000000
  70
    32
  0
VERTEX
  8
0
  5
1083D
 10
32.6622
 20
23.5121
 30
0.000000
  70
    32
  0
VERTEX
  8
0
  5
1083E
 10
32.6487
 20
23.5390
 30
0.000000
  70
    32
  0
VERTEX
  8
0
  5
1083F
 10
32.6351
 20
23.5658
 30
0.000000
  70
    32
  0
VERTEX
  8
0
  5
10840
 10
32.6215
 20
23.5926
 30
0.000000
  70
    32
  0
VERTEX
  8
0
  5
10841
 10
32.6079
 20
23.6193
 30
0.000000
  70
    32
  0
VERTEX
  8
0
  5
10842
 10
32.5942
 20
23.6461
 30
0.000000
  70
    32
  0
VERTEX
  8
0
  5
10843
 10
32.5804
 20
23.6728
 30
0.000000
  70
    32
  0
VERTEX
  8
0
  5
10844
 10
32.5666
 20
23.6995
 30
0.000000
  70
    32
  0
VERTEX
  8
0
  5
10845
 10
32.5528
 20
23.7262
 30
0.000000
  70
    32
  0
VERTEX
  8
0
  5
10846
 10
32.5389
 20
23.7528
 30
0.000000
  70
    32
  0
VERTEX
  8
0
  5
10847
 10
32.5250
 20
23.7795
 30
0.000000
  70
    32
  0
VERTEX
  8
0
  5
10848
 10
32.5110
 20
23.8061
 30
0.000000
  70
    32
  0
VERTEX
  8
0
  5
10849
 10
32.4970
 20
23.8327
 30
0.000000
  70
    32
  0
VERTEX
  8
0
  5
1084A
 10
32.4830
 20
23.8592
 30
0.000000
  70
    32
  0
VERTEX
  8
0
  5
1084B
 10
32.4689
 20
23.8858
 30
0.000000
  70
    32
  0
VERTEX
  8
0
  5
1084C
 10
32.4547
 20
23.9123
 30
0.000000
  70
    32
  0
VERTEX
  8
0
  5
1084D
 10
32.4405
 20
23.9388
 30
0.000000
  70
    32
  0
VERTEX
  8
0
  5
1084E
 10
32.4263
 20
23.9652
 30
0.000000
  70
    32
  0
VERTEX
  8
0
  5
1084F
 10
32.4120
 20
23.9917
 30
0.000000
  70
    32
  0
VERTEX
  8
0
  5
10850
 10
32.3977
 20
24.0181
 30
0.000000
  70
    32
  0
VERTEX
  8
0
  5
10851
 10
32.3833
 20
24.0445
 30
0.000000
  70
    32
  0
VERTEX
  8
0
  5
10852
 10
32.3689
 20
24.0709
 30
0.000000
  70
    32
  0
VERTEX
  8
0
  5
10853
 10
32.3545
 20
24.0972
 30
0.000000
  70
    32
  0
VERTEX
  8
0
  5
10854
 10
32.3400
 20
24.1235
 30
0.000000
  70
    32
  0
VERTEX
  8
0
  5
10855
 10
32.3255
 20
24.1498
 30
0.000000
  70
    32
  0
VERTEX
  8
0
  5
10856
 10
32.3109
 20
24.1761
 30
0.000000
  70
    32
  0
VERTEX
  8
0
  5
10857
 10
32.2963
 20
24.2024
 30
0.000000
  70
    32
  0
VERTEX
  8
0
  5
10858
 10
32.2816
 20
24.2286
 30
0.000000
  70
    32
  0
VERTEX
  8
0
  5
10859
 10
32.2669
 20
24.2548
 30
0.000000
  70
    32
  0
VERTEX
  8
0
  5
1085A
 10
32.2522
 20
24.2810
 30
0.000000
  70
    32
  0
VERTEX
  8
0
  5
1085B
 10
32.2374
 20
24.3071
 30
0.000000
  70
    32
  0
VERTEX
  8
0
  5
1085C
 10
32.2225
 20
24.3333
 30
0.000000
  70
    32
  0
VERTEX
  8
0
  5
1085D
 10
32.2076
 20
24.3594
 30
0.000000
  70
    32
  0
VERTEX
  8
0
  5
1085E
 10
32.1927
 20
24.3855
 30
0.000000
  70
    32
  0
VERTEX
  8
0
  5
1085F
 10
32.1778
 20
24.4115
 30
0.000000
  70
    32
  0
VERTEX
  8
0
  5
10860
 10
32.1628
 20
24.4375
 30
0.000000
  70
    32
  0
VERTEX
  8
0
  5
10861
 10
32.1477
 20
24.4635
 30
0.000000
  70
    32
  0
VERTEX
  8
0
  5
10862
 10
32.1326
 20
24.4895
 30
0.000000
  70
    32
  0
VERTEX
  8
0
  5
10863
 10
32.1175
 20
24.5155
 30
0.000000
  70
    32
  0
VERTEX
  8
0
  5
10864
 10
32.1023
 20
24.5414
 30
0.000000
  70
    32
  0
VERTEX
  8
0
  5
10865
 10
32.0871
 20
24.5673
 30
0.000000
  70
    32
  0
VERTEX
  8
0
  5
10866
 10
32.0718
 20
24.5932
 30
0.000000
  70
    32
  0
VERTEX
  8
0
  5
10867
 10
32.0565
 20
24.6190
 30
0.000000
  70
    32
  0
VERTEX
  8
0
  5
10868
 10
32.0412
 20
24.6449
 30
0.000000
  70
    32
  0
VERTEX
  8
0
  5
10869
 10
32.0258
 20
24.6707
 30
0.000000
  70
    32
  0
SEQEND
  8
0
  5
1086A
  0
POLYLINE
  8
0
  5
1086B
  66
     1
 10
0.000000
 20
0.000000
 30
0.000000
  70
     8
  0
VERTEX
  8
0
  5
1086C
 10
33.0000
 20
10.5000
 30
0.000000
  70
    32
  0
VERTEX
  8
0
  5
1086D
 10
32.9613
 20
10.5255
 30
0.000000
  70
    32
  0
VERTEX
  8
0
  5
1086E
 10
32.9227
 20
10.5510
 30
0.000000
  70
    32
  0
VERTEX
  8
0
  5
1086F
 10
32.8841
 20
10.5766
 30
0.000000
  70
    32
  0
VERTEX
  8
0
  5
10870
 10
32.8456
 20
10.6023
 30
0.000000
  70
    32
  0
VERTEX
  8
0
  5
10871
 10
32.8071
 20
10.6281
 30
0.000000
  70
    32
  0
VERTEX
  8
0
  5
10872
 10
32.7687
 20
10.6539
 30
0.000000
  70
    32
  0
VERTEX
  8
0
  5
10873
 10
32.7303
 20
10.6799
 30
0.000000
  70
    32
  0
VERTEX
  8
0
  5
10874
 10
32.6920
 20
10.7059
 30
0.000000
  70
    32
  0
VERTEX
  8
0
  5
10875
 10
32.6537
 20
10.7320
 30
0.000000
  70
    32
  0
VERTEX
  8
0
  5
10876
 10
32.6155
 20
10.7581
 30
0.000000
  70
    32
  0
VERTEX
  8
0
  5
10877
 10
32.5773
 20
10.7844
 30
0.000000
  70
    32
  0
VERTEX
  8
0
  5
10878
 10
32.5392
 20
10.8107
 30
0.000000
  70
    32
  0
VERTEX
  8
0
  5
10879
 10
32.5011
 20
10.8371
 30
0.000000
  70
    32
  0
VERTEX
  8
0
  5
1087A
 10
32.4631
 20
10.8636
 30
0.000000
  70
    32
  0
VERTEX
  8
0
  5
1087B
 10
32.4251
 20
10.8901
 30
0.000000
  70
    32
  0
VERTEX
  8
0
  5
1087C
 10
32.3872
 20
10.9168
 30
0.000000
  70
    32
  0
VERTEX
  8
0
  5
1087D
 10
32.3494
 20
10.9435
 30
0.000000
  70
    32
  0
VERTEX
  8
0
  5
1087E
 10
32.3116
 20
10.9703
 30
0.000000
  70
    32
  0
VERTEX
  8
0
  5
1087F
 10
32.2739
 20
10.9971
 30
0.000000
  70
    32
  0
VERTEX
  8
0
  5
10880
 10
32.2362
 20
11.0241
 30
0.000000
  70
    32
  0
VERTEX
  8
0
  5
10881
 10
32.1985
 20
11.0511
 30
0.000000
  70
    32
  0
VERTEX
  8
0
  5
10882
 10
32.1610
 20
11.0782
 30
0.000000
  70
    32
  0
VERTEX
  8
0
  5
10883
 10
32.1234
 20
11.1054
 30
0.000000
  70
    32
  0
VERTEX
  8
0
  5
10884
 10
32.0860
 20
11.1326
 30
0.000000
  70
    32
  0
VERTEX
  8
0
  5
10885
 10
32.0486
 20
11.1600
 30
0.000000
  70
    32
  0
VERTEX
  8
0
  5
10886
 10
32.0112
 20
11.1874
 30
0.000000
  70
    32
  0
VERTEX
  8
0
  5
10887
 10
31.9739
 20
11.2149
 30
0.000000
  70
    32
  0
VERTEX
  8
0
  5
10888
 10
31.9367
 20
11.2424
 30
0.000000
  70
    32
  0
VERTEX
  8
0
  5
10889
 10
31.8995
 20
11.2701
 30
0.000000
  70
    32
  0
VERTEX
  8
0
  5
1088A
 10
31.8624
 20
11.2978
 30
0.000000
  70
    32
  0
VERTEX
  8
0
  5
1088B
 10
31.8253
 20
11.3256
 30
0.000000
  70
    32
  0
VERTEX
  8
0
  5
1088C
 10
31.7883
 20
11.3535
 30
0.000000
  70
    32
  0
VERTEX
  8
0
  5
1088D
 10
31.7513
 20
11.3814
 30
0.000000
  70
    32
  0
VERTEX
  8
0
  5
1088E
 10
31.7144
 20
11.4094
 30
0.000000
  70
    32
  0
VERTEX
  8
0
  5
1088F
 10
31.6776
 20
11.4375
 30
0.000000
  70
    32
  0
VERTEX
  8
0
  5
10890
 10
31.6408
 20
11.4657
 30
0.000000
  70
    32
  0
VERTEX
  8
0
  5
10891
 10
31.6041
 20
11.4940
 30
0.000000
  70
    32
  0
VERTEX
  8
0
  5
10892
 10
31.5674
 20
11.5223
 30
0.000000
  70
    32
  0
VERTEX
  8
0
  5
10893
 10
31.5308
 20
11.5507
 30
0.000000
  70
    32
  0
VERTEX
  8
0
  5
10894
 10
31.4943
 20
11.5792
 30
0.000000
  70
    32
  0
VERTEX
  8
0
  5
10895
 10
31.4578
 20
11.6078
 30
0.000000
  70
    32
  0
VERTEX
  8
0
  5
10896
 10
31.4214
 20
11.6364
 30
0.000000
  70
    32
  0
VERTEX
  8
0
  5
10897
 10
31.3850
 20
11.6652
 30
0.000000
  70
    32
  0
VERTEX
  8
0
  5
10898
 10
31.3487
 20
11.6939
 30
0.000000
  70
    32
  0
VERTEX
  8
0
  5
10899
 10
31.3125
 20
11.7228
 30
0.000000
  70
    32
  0
VERTEX
  8
0
  5
1089A
 10
31.2763
 20
11.7518
 30
0.000000
  70
    32
  0
VERTEX
  8
0
  5
1089B
 10
31.2402
 20
11.7808
 30
0.000000
  70
    32
  0
VERTEX
  8
0
  5
1089C
 10
31.2041
 20
11.8099
 30
0.000000
  70
    32
  0
VERTEX
  8
0
  5
1089D
 10
31.1682
 20
11.8391
 30
0.000000
  70
    32
  0
VERTEX
  8
0
  5
1089E
 10
31.1322
 20
11.8683
 30
0.000000
  70
    32
  0
VERTEX
  8
0
  5
1089F
 10
31.0964
 20
11.8977
 30
0.000000
  70
    32
  0
VERTEX
  8
0
  5
108A0
 10
31.0605
 20
11.9271
 30
0.000000
  70
    32
  0
VERTEX
  8
0
  5
108A1
 10
31.0248
 20
11.9566
 30
0.000000
  70
    32
  0
VERTEX
  8
0
  5
108A2
 10
30.9891
 20
11.9861
 30
0.000000
  70
    32
  0
VERTEX
  8
0
  5
108A3
 10
30.9535
 20
12.0158
 30
0.000000
  70
    32
  0
VERTEX
  8
0
  5
108A4
 10
30.9180
 20
12.0455
 30
0.000000
  70
    32
  0
VERTEX
  8
0
  5
108A5
 10
30.8825
 20
12.0753
 30
0.000000
  70
    32
  0
VERTEX
  8
0
  5
108A6
 10
30.8471
 20
12.1051
 30
0.000000
  70
    32
  0
VERTEX
  8
0
  5
108A7
 10
30.8117
 20
12.1351
 30
0.000000
  70
    32
  0
VERTEX
  8
0
  5
108A8
 10
30.7764
 20
12.1651
 30
0.000000
  70
    32
  0
VERTEX
  8
0
  5
108A9
 10
30.7412
 20
12.1952
 30
0.000000
  70
    32
  0
VERTEX
  8
0
  5
108AA
 10
30.7060
 20
12.2254
 30
0.000000
  70
    32
  0
VERTEX
  8
0
  5
108AB
 10
30.6709
 20
12.2556
 30
0.000000
  70
    32
  0
VERTEX
  8
0
  5
108AC
 10
30.6359
 20
12.2859
 30
0.000000
  70
    32
  0
VERTEX
  8
0
  5
108AD
 10
30.6009
 20
12.3163
 30
0.000000
  70
    32
  0
VERTEX
  8
0
  5
108AE
 10
30.5660
 20
12.3468
 30
0.000000
  70
    32
  0
VERTEX
  8
0
  5
108AF
 10
30.5312
 20
12.3774
 30
0.000000
  70
    32
  0
VERTEX
  8
0
  5
108B0
 10
30.4964
 20
12.4080
 30
0.000000
  70
    32
  0
VERTEX
  8
0
  5
108B1
 10
30.4618
 20
12.4387
 30
0.000000
  70
    32
  0
VERTEX
  8
0
  5
108B2
 10
30.4271
 20
12.4695
 30
0.000000
  70
    32
  0
VERTEX
  8
0
  5
108B3
 10
30.3926
 20
12.5004
 30
0.000000
  70
    32
  0
VERTEX
  8
0
  5
108B4
 10
30.3581
 20
12.5313
 30
0.000000
  70
    32
  0
VERTEX
  8
0
  5
108B5
 10
30.3237
 20
12.5623
 30
0.000000
  70
    32
  0
VERTEX
  8
0
  5
108B6
 10
30.2893
 20
12.5934
 30
0.000000
  70
    32
  0
VERTEX
  8
0
  5
108B7
 10
30.2550
 20
12.6246
 30
0.000000
  70
    32
  0
VERTEX
  8
0
  5
108B8
 10
30.2208
 20
12.6558
 30
0.000000
  70
    32
  0
VERTEX
  8
0
  5
108B9
 10
30.1867
 20
12.6871
 30
0.000000
  70
    32
  0
VERTEX
  8
0
  5
108BA
 10
30.1526
 20
12.7185
 30
0.000000
  70
    32
  0
VERTEX
  8
0
  5
108BB
 10
30.1186
 20
12.7500
 30
0.000000
  70
    32
  0
VERTEX
  8
0
  5
108BC
 10
30.0847
 20
12.7815
 30
0.000000
  70
    32
  0
VERTEX
  8
0
  5
108BD
 10
30.0508
 20
12.8132
 30
0.000000
  70
    32
  0
VERTEX
  8
0
  5
108BE
 10
30.0170
 20
12.8449
 30
0.000000
  70
    32
  0
VERTEX
  8
0
  5
108BF
 10
29.9833
 20
12.8766
 30
0.000000
  70
    32
  0
VERTEX
  8
0
  5
108C0
 10
29.9497
 20
12.9085
 30
0.000000
  70
    32
  0
VERTEX
  8
0
  5
108C1
 10
29.9161
 20
12.9404
 30
0.000000
  70
    32
  0
VERTEX
  8
0
  5
108C2
 10
29.8826
 20
12.9724
 30
0.000000
  70
    32
  0
VERTEX
  8
0
  5
108C3
 10
29.8492
 20
13.0045
 30
0.000000
  70
    32
  0
VERTEX
  8
0
  5
108C4
 10
29.8158
 20
13.0367
 30
0.000000
  70
    32
  0
VERTEX
  8
0
  5
108C5
 10
29.7826
 20
13.0689
 30
0.000000
  70
    32
  0
VERTEX
  8
0
  5
108C6
 10
29.7494
 20
13.1012
 30
0.000000
  70
    32
  0
VERTEX
  8
0
  5
108C7
 10
29.7162
 20
13.1336
 30
0.000000
  70
    32
  0
VERTEX
  8
0
  5
108C8
 10
29.6832
 20
13.1660
 30
0.000000
  70
    32
  0
VERTEX
  8
0
  5
108C9
 10
29.6502
 20
13.1986
 30
0.000000
  70
    32
  0
VERTEX
  8
0
  5
108CA
 10
29.6173
 20
13.2312
 30
0.000000
  70
    32
  0
VERTEX
  8
0
  5
108CB
 10
29.5845
 20
13.2639
 30
0.000000
  70
    32
  0
VERTEX
  8
0
  5
108CC
 10
29.5517
 20
13.2966
 30
0.000000
  70
    32
  0
VERTEX
  8
0
  5
108CD
 10
29.5190
 20
13.3295
 30
0.000000
  70
    32
  0
VERTEX
  8
0
  5
108CE
 10
29.4864
 20
13.3624
 30
0.000000
  70
    32
  0
VERTEX
  8
0
  5
108CF
 10
29.4539
 20
13.3954
 30
0.000000
  70
    32
  0
VERTEX
  8
0
  5
108D0
 10
29.4215
 20
13.4285
 30
0.000000
  70
    32
  0
VERTEX
  8
0
  5
108D1
 10
29.3891
 20
13.4616
 30
0.000000
  70
    32
  0
VERTEX
  8
0
  5
108D2
 10
29.3568
 20
13.4948
 30
0.000000
  70
    32
  0
VERTEX
  8
0
  5
108D3
 10
29.3246
 20
13.5281
 30
0.000000
  70
    32
  0
VERTEX
  8
0
  5
108D4
 10
29.2924
 20
13.5615
 30
0.000000
  70
    32
  0
VERTEX
  8
0
  5
108D5
 10
29.2604
 20
13.5949
 30
0.000000
  70
    32
  0
VERTEX
  8
0
  5
108D6
 10
29.2284
 20
13.6284
 30
0.000000
  70
    32
  0
VERTEX
  8
0
  5
108D7
 10
29.1965
 20
13.6620
 30
0.000000
  70
    32
  0
VERTEX
  8
0
  5
108D8
 10
29.1646
 20
13.6957
 30
0.000000
  70
    32
  0
VERTEX
  8
0
  5
108D9
 10
29.1329
 20
13.7294
 30
0.000000
  70
    32
  0
VERTEX
  8
0
  5
108DA
 10
29.1012
 20
13.7632
 30
0.000000
  70
    32
  0
VERTEX
  8
0
  5
108DB
 10
29.0696
 20
13.7971
 30
0.000000
  70
    32
  0
VERTEX
  8
0
  5
108DC
 10
29.0381
 20
13.8311
 30
0.000000
  70
    32
  0
VERTEX
  8
0
  5
108DD
 10
29.0066
 20
13.8651
 30
0.000000
  70
    32
  0
VERTEX
  8
0
  5
108DE
 10
28.9753
 20
13.8992
 30
0.000000
  70
    32
  0
VERTEX
  8
0
  5
108DF
 10
28.9440
 20
13.9334
 30
0.000000
  70
    32
  0
VERTEX
  8
0
  5
108E0
 10
28.9128
 20
13.9676
 30
0.000000
  70
    32
  0
VERTEX
  8
0
  5
108E1
 10
28.8816
 20
14.0020
 30
0.000000
  70
    32
  0
VERTEX
  8
0
  5
108E2
 10
28.8506
 20
14.0364
 30
0.000000
  70
    32
  0
VERTEX
  8
0
  5
108E3
 10
28.8196
 20
14.0708
 30
0.000000
  70
    32
  0
VERTEX
  8
0
  5
108E4
 10
28.7887
 20
14.1054
 30
0.000000
  70
    32
  0
VERTEX
  8
0
  5
108E5
 10
28.7579
 20
14.1400
 30
0.000000
  70
    32
  0
VERTEX
  8
0
  5
108E6
 10
28.7272
 20
14.1746
 30
0.000000
  70
    32
  0
VERTEX
  8
0
  5
108E7
 10
28.6966
 20
14.2094
 30
0.000000
  70
    32
  0
VERTEX
  8
0
  5
108E8
 10
28.6660
 20
14.2442
 30
0.000000
  70
    32
  0
VERTEX
  8
0
  5
108E9
 10
28.6355
 20
14.2791
 30
0.000000
  70
    32
  0
VERTEX
  8
0
  5
108EA
 10
28.6051
 20
14.3141
 30
0.000000
  70
    32
  0
VERTEX
  8
0
  5
108EB
 10
28.5748
 20
14.3491
 30
0.000000
  70
    32
  0
VERTEX
  8
0
  5
108EC
 10
28.5445
 20
14.3842
 30
0.000000
  70
    32
  0
VERTEX
  8
0
  5
108ED
 10
28.5144
 20
14.4194
 30
0.000000
  70
    32
  0
VERTEX
  8
0
  5
108EE
 10
28.4843
 20
14.4546
 30
0.000000
  70
    32
  0
VERTEX
  8
0
  5
108EF
 10
28.4543
 20
14.4899
 30
0.000000
  70
    32
  0
VERTEX
  8
0
  5
108F0
 10
28.4244
 20
14.5253
 30
0.000000
  70
    32
  0
VERTEX
  8
0
  5
108F1
 10
28.3945
 20
14.5607
 30
0.000000
  70
    32
  0
VERTEX
  8
0
  5
108F2
 10
28.3648
 20
14.5962
 30
0.000000
  70
    32
  0
VERTEX
  8
0
  5
108F3
 10
28.3351
 20
14.6318
 30
0.000000
  70
    32
  0
VERTEX
  8
0
  5
108F4
 10
28.3055
 20
14.6675
 30
0.000000
  70
    32
  0
VERTEX
  8
0
  5
108F5
 10
28.2760
 20
14.7032
 30
0.000000
  70
    32
  0
VERTEX
  8
0
  5
108F6
 10
28.2466
 20
14.7390
 30
0.000000
  70
    32
  0
VERTEX
  8
0
  5
108F7
 10
28.2172
 20
14.7748
 30
0.000000
  70
    32
  0
VERTEX
  8
0
  5
108F8
 10
28.1880
 20
14.8108
 30
0.000000
  70
    32
  0
VERTEX
  8
0
  5
108F9
 10
28.1588
 20
14.8468
 30
0.000000
  70
    32
  0
VERTEX
  8
0
  5
108FA
 10
28.1297
 20
14.8828
 30
0.000000
  70
    32
  0
VERTEX
  8
0
  5
108FB
 10
28.1007
 20
14.9189
 30
0.000000
  70
    32
  0
VERTEX
  8
0
  5
108FC
 10
28.0717
 20
14.9551
 30
0.000000
  70
    32
  0
VERTEX
  8
0
  5
108FD
 10
28.0429
 20
14.9914
 30
0.000000
  70
    32
  0
VERTEX
  8
0
  5
108FE
 10
28.0141
 20
15.0277
 30
0.000000
  70
    32
  0
VERTEX
  8
0
  5
108FF
 10
27.9855
 20
15.0641
 30
0.000000
  70
    32
  0
VERTEX
  8
0
  5
10900
 10
27.9569
 20
15.1006
 30
0.000000
  70
    32
  0
VERTEX
  8
0
  5
10901
 10
27.9284
 20
15.1371
 30
0.000000
  70
    32
  0
VERTEX
  8
0
  5
10902
 10
27.8999
 20
15.1737
 30
0.000000
  70
    32
  0
VERTEX
  8
0
  5
10903
 10
27.8716
 20
15.2103
 30
0.000000
  70
    32
  0
VERTEX
  8
0
  5
10904
 10
27.8433
 20
15.2470
 30
0.000000
  70
    32
  0
VERTEX
  8
0
  5
10905
 10
27.8152
 20
15.2838
 30
0.000000
  70
    32
  0
VERTEX
  8
0
  5
10906
 10
27.7871
 20
15.3207
 30
0.000000
  70
    32
  0
VERTEX
  8
0
  5
10907
 10
27.7591
 20
15.3576
 30
0.000000
  70
    32
  0
VERTEX
  8
0
  5
10908
 10
27.7311
 20
15.3945
 30
0.000000
  70
    32
  0
VERTEX
  8
0
  5
10909
 10
27.7033
 20
15.4316
 30
0.000000
  70
    32
  0
VERTEX
  8
0
  5
1090A
 10
27.6756
 20
15.4687
 30
0.000000
  70
    32
  0
VERTEX
  8
0
  5
1090B
 10
27.6479
 20
15.5058
 30
0.000000
  70
    32
  0
VERTEX
  8
0
  5
1090C
 10
27.6203
 20
15.5431
 30
0.000000
  70
    32
  0
VERTEX
  8
0
  5
1090D
 10
27.5928
 20
15.5803
 30
0.000000
  70
    32
  0
VERTEX
  8
0
  5
1090E
 10
27.5654
 20
15.6177
 30
0.000000
  70
    32
  0
VERTEX
  8
0
  5
1090F
 10
27.5380
 20
15.6551
 30
0.000000
  70
    32
  0
VERTEX
  8
0
  5
10910
 10
27.5108
 20
15.6926
 30
0.000000
  70
    32
  0
VERTEX
  8
0
  5
10911
 10
27.4836
 20
15.7301
 30
0.000000
  70
    32
  0
VERTEX
  8
0
  5
10912
 10
27.4565
 20
15.7677
 30
0.000000
  70
    32
  0
VERTEX
  8
0
  5
10913
 10
27.4295
 20
15.8053
 30
0.000000
  70
    32
  0
VERTEX
  8
0
  5
10914
 10
27.4026
 20
15.8430
 30
0.000000
  70
    32
  0
VERTEX
  8
0
  5
10915
 10
27.3758
 20
15.8808
 30
0.000000
  70
    32
  0
VERTEX
  8
0
  5
10916
 10
27.3490
 20
15.9186
 30
0.000000
  70
    32
  0
VERTEX
  8
0
  5
10917
 10
27.3224
 20
15.9565
 30
0.000000
  70
    32
  0
VERTEX
  8
0
  5
10918
 10
27.2958
 20
15.9945
 30
0.000000
  70
    32
  0
VERTEX
  8
0
  5
10919
 10
27.2693
 20
16.0325
 30
0.000000
  70
    32
  0
VERTEX
  8
0
  5
1091A
 10
27.2428
 20
16.0705
 30
0.000000
  70
    32
  0
VERTEX
  8
0
  5
1091B
 10
27.2165
 20
16.1086
 30
0.000000
  70
    32
  0
VERTEX
  8
0
  5
1091C
 10
27.1903
 20
16.1468
 30
0.000000
  70
    32
  0
VERTEX
  8
0
  5
1091D
 10
27.1641
 20
16.1851
 30
0.000000
  70
    32
  0
VERTEX
  8
0
  5
1091E
 10
27.1380
 20
16.2233
 30
0.000000
  70
    32
  0
VERTEX
  8
0
  5
1091F
 10
27.1120
 20
16.2617
 30
0.000000
  70
    32
  0
VERTEX
  8
0
  5
10920
 10
27.0861
 20
16.3001
 30
0.000000
  70
    32
  0
VERTEX
  8
0
  5
10921
 10
27.0603
 20
16.3386
 30
0.000000
  70
    32
  0
VERTEX
  8
0
  5
10922
 10
27.0345
 20
16.3771
 30
0.000000
  70
    32
  0
VERTEX
  8
0
  5
10923
 10
27.0089
 20
16.4157
 30
0.000000
  70
    32
  0
VERTEX
  8
0
  5
10924
 10
26.9833
 20
16.4543
 30
0.000000
  70
    32
  0
VERTEX
  8
0
  5
10925
 10
26.9578
 20
16.4930
 30
0.000000
  70
    32
  0
VERTEX
  8
0
  5
10926
 10
26.9324
 20
16.5317
 30
0.000000
  70
    32
  0
VERTEX
  8
0
  5
10927
 10
26.9070
 20
16.5705
 30
0.000000
  70
    32
  0
VERTEX
  8
0
  5
10928
 10
26.8818
 20
16.6093
 30
0.000000
  70
    32
  0
VERTEX
  8
0
  5
10929
 10
26.8566
 20
16.6482
 30
0.000000
  70
    32
  0
VERTEX
  8
0
  5
1092A
 10
26.8315
 20
16.6872
 30
0.000000
  70
    32
  0
VERTEX
  8
0
  5
1092B
 10
26.8065
 20
16.7262
 30
0.000000
  70
    32
  0
VERTEX
  8
0
  5
1092C
 10
26.7816
 20
16.7653
 30
0.000000
  70
    32
  0
VERTEX
  8
0
  5
1092D
 10
26.7568
 20
16.8044
 30
0.000000
  70
    32
  0
VERTEX
  8
0
  5
1092E
 10
26.7320
 20
16.8435
 30
0.000000
  70
    32
  0
VERTEX
  8
0
  5
1092F
 10
26.7074
 20
16.8828
 30
0.000000
  70
    32
  0
VERTEX
  8
0
  5
10930
 10
26.6828
 20
16.9220
 30
0.000000
  70
    32
  0
VERTEX
  8
0
  5
10931
 10
26.6583
 20
16.9613
 30
0.000000
  70
    32
  0
VERTEX
  8
0
  5
10932
 10
26.6339
 20
17.0007
 30
0.000000
  70
    32
  0
VERTEX
  8
0
  5
10933
 10
26.6096
 20
17.0401
 30
0.000000
  70
    32
  0
VERTEX
  8
0
  5
10934
 10
26.5853
 20
17.0796
 30
0.000000
  70
    32
  0
VERTEX
  8
0
  5
10935
 10
26.5612
 20
17.1191
 30
0.000000
  70
    32
  0
VERTEX
  8
0
  5
10936
 10
26.5371
 20
17.1587
 30
0.000000
  70
    32
  0
VERTEX
  8
0
  5
10937
 10
26.5131
 20
17.1984
 30
0.000000
  70
    32
  0
VERTEX
  8
0
  5
10938
 10
26.4892
 20
17.2380
 30
0.000000
  70
    32
  0
VERTEX
  8
0
  5
10939
 10
26.4654
 20
17.2778
 30
0.000000
  70
    32
  0
VERTEX
  8
0
  5
1093A
 10
26.4416
 20
17.3175
 30
0.000000
  70
    32
  0
VERTEX
  8
0
  5
1093B
 10
26.4180
 20
17.3574
 30
0.000000
  70
    32
  0
VERTEX
  8
0
  5
1093C
 10
26.3944
 20
17.3973
 30
0.000000
  70
    32
  0
VERTEX
  8
0
  5
1093D
 10
26.3709
 20
17.4372
 30
0.000000
  70
    32
  0
VERTEX
  8
0
  5
1093E
 10
26.3475
 20
17.4772
 30
0.000000
  70
    32
  0
VERTEX
  8
0
  5
1093F
 10
26.3242
 20
17.5172
 30
0.000000
  70
    32
  0
VERTEX
  8
0
  5
10940
 10
26.3009
 20
17.5573
 30
0.000000
  70
    32
  0
VERTEX
  8
0
  5
10941
 10
26.2778
 20
17.5974
 30
0.000000
  70
    32
  0
VERTEX
  8
0
  5
10942
 10
26.2547
 20
17.6376
 30
0.000000
  70
    32
  0
VERTEX
  8
0
  5
10943
 10
26.2317
 20
17.6778
 30
0.000000
  70
    32
  0
VERTEX
  8
0
  5
10944
 10
26.2088
 20
17.7181
 30
0.000000
  70
    32
  0
VERTEX
  8
0
  5
10945
 10
26.1860
 20
17.7584
 30
0.000000
  70
    32
  0
VERTEX
  8
0
  5
10946
 10
26.1632
 20
17.7987
 30
0.000000
  70
    32
  0
VERTEX
  8
0
  5
10947
 10
26.1406
 20
17.8391
 30
0.000000
  70
    32
  0
VERTEX
  8
0
  5
10948
 10
26.1180
 20
17.8796
 30
0.000000
  70
    32
  0
VERTEX
  8
0
  5
10949
 10
26.0955
 20
17.9201
 30
0.000000
  70
    32
  0
VERTEX
  8
0
  5
1094A
 10
26.0731
 20
17.9607
 30
0.000000
  70
    32
  0
VERTEX
  8
0
  5
1094B
 10
26.0508
 20
18.0013
 30
0.000000
  70
    32
  0
VERTEX
  8
0
  5
1094C
 10
26.0286
 20
18.0419
 30
0.000000
  70
    32
  0
VERTEX
  8
0
  5
1094D
 10
26.0065
 20
18.0826
 30
0.000000
  70
    32
  0
VERTEX
  8
0
  5
1094E
 10
25.9844
 20
18.1233
 30
0.000000
  70
    32
  0
VERTEX
  8
0
  5
1094F
 10
25.9624
 20
18.1641
 30
0.000000
  70
    32
  0
VERTEX
  8
0
  5
10950
 10
25.9405
 20
18.2050
 30
0.000000
  70
    32
  0
VERTEX
  8
0
  5
10951
 10
25.9187
 20
18.2458
 30
0.000000
  70
    32
  0
VERTEX
  8
0
  5
10952
 10
25.8970
 20
18.2868
 30
0.000000
  70
    32
  0
VERTEX
  8
0
  5
10953
 10
25.8753
 20
18.3277
 30
0.000000
  70
    32
  0
VERTEX
  8
0
  5
10954
 10
25.8538
 20
18.3687
 30
0.000000
  70
    32
  0
VERTEX
  8
0
  5
10955
 10
25.8323
 20
18.4098
 30
0.000000
  70
    32
  0
VERTEX
  8
0
  5
10956
 10
25.8109
 20
18.4509
 30
0.000000
  70
    32
  0
VERTEX
  8
0
  5
10957
 10
25.7896
 20
18.4920
 30
0.000000
  70
    32
  0
VERTEX
  8
0
  5
10958
 10
25.7684
 20
18.5332
 30
0.000000
  70
    32
  0
VERTEX
  8
0
  5
10959
 10
25.7473
 20
18.5744
 30
0.000000
  70
    32
  0
VERTEX
  8
0
  5
1095A
 10
25.7262
 20
18.6157
 30
0.000000
  70
    32
  0
VERTEX
  8
0
  5
1095B
 10
25.7053
 20
18.6570
 30
0.000000
  70
    32
  0
VERTEX
  8
0
  5
1095C
 10
25.6844
 20
18.6984
 30
0.000000
  70
    32
  0
VERTEX
  8
0
  5
1095D
 10
25.6636
 20
18.7398
 30
0.000000
  70
    32
  0
VERTEX
  8
0
  5
1095E
 10
25.6429
 20
18.7812
 30
0.000000
  70
    32
  0
VERTEX
  8
0
  5
1095F
 10
25.6222
 20
18.8227
 30
0.000000
  70
    32
  0
VERTEX
  8
0
  5
10960
 10
25.6017
 20
18.8643
 30
0.000000
  70
    32
  0
VERTEX
  8
0
  5
10961
 10
25.5812
 20
18.9058
 30
0.000000
  70
    32
  0
VERTEX
  8
0
  5
10962
 10
25.5609
 20
18.9474
 30
0.000000
  70
    32
  0
VERTEX
  8
0
  5
10963
 10
25.5406
 20
18.9891
 30
0.000000
  70
    32
  0
VERTEX
  8
0
  5
10964
 10
25.5204
 20
19.0308
 30
0.000000
  70
    32
  0
VERTEX
  8
0
  5
10965
 10
25.5003
 20
19.0725
 30
0.000000
  70
    32
  0
VERTEX
  8
0
  5
10966
 10
25.4802
 20
19.1143
 30
0.000000
  70
    32
  0
VERTEX
  8
0
  5
10967
 10
25.4603
 20
19.1561
 30
0.000000
  70
    32
  0
VERTEX
  8
0
  5
10968
 10
25.4404
 20
19.1980
 30
0.000000
  70
    32
  0
VERTEX
  8
0
  5
10969
 10
25.4207
 20
19.2399
 30
0.000000
  70
    32
  0
VERTEX
  8
0
  5
1096A
 10
25.4010
 20
19.2818
 30
0.000000
  70
    32
  0
VERTEX
  8
0
  5
1096B
 10
25.3814
 20
19.3238
 30
0.000000
  70
    32
  0
VERTEX
  8
0
  5
1096C
 10
25.3618
 20
19.3658
 30
0.000000
  70
    32
  0
VERTEX
  8
0
  5
1096D
 10
25.3424
 20
19.4079
 30
0.000000
  70
    32
  0
VERTEX
  8
0
  5
1096E
 10
25.3231
 20
19.4500
 30
0.000000
  70
    32
  0
VERTEX
  8
0
  5
1096F
 10
25.3038
 20
19.4921
 30
0.000000
  70
    32
  0
VERTEX
  8
0
  5
10970
 10
25.2846
 20
19.5343
 30
0.000000
  70
    32
  0
VERTEX
  8
0
  5
10971
 10
25.2655
 20
19.5765
 30
0.000000
  70
    32
  0
VERTEX
  8
0
  5
10972
 10
25.2465
 20
19.6188
 30
0.000000
  70
    32
  0
VERTEX
  8
0
  5
10973
 10
25.2276
 20
19.6611
 30
0.000000
  70
    32
  0
VERTEX
  8
0
  5
10974
 10
25.2087
 20
19.7034
 30
0.000000
  70
    32
  0
VERTEX
  8
0
  5
10975
 10
25.1900
 20
19.7458
 30
0.000000
  70
    32
  0
VERTEX
  8
0
  5
10976
 10
25.1713
 20
19.7882
 30
0.000000
  70
    32
  0
VERTEX
  8
0
  5
10977
 10
25.1528
 20
19.8306
 30
0.000000
  70
    32
  0
VERTEX
  8
0
  5
10978
 10
25.1343
 20
19.8731
 30
0.000000
  70
    32
  0
VERTEX
  8
0
  5
10979
 10
25.1159
 20
19.9156
 30
0.000000
  70
    32
  0
VERTEX
  8
0
  5
1097A
 10
25.0975
 20
19.9581
 30
0.000000
  70
    32
  0
VERTEX
  8
0
  5
1097B
 10
25.0793
 20
20.0007
 30
0.000000
  70
    32
  0
VERTEX
  8
0
  5
1097C
 10
25.0612
 20
20.0434
 30
0.000000
  70
    32
  0
VERTEX
  8
0
  5
1097D
 10
25.0431
 20
20.0860
 30
0.000000
  70
    32
  0
VERTEX
  8
0
  5
1097E
 10
25.0251
 20
20.1287
 30
0.000000
  70
    32
  0
VERTEX
  8
0
  5
1097F
 10
25.0072
 20
20.1714
 30
0.000000
  70
    32
  0
VERTEX
  8
0
  5
10980
 10
24.9894
 20
20.2142
 30
0.000000
  70
    32
  0
VERTEX
  8
0
  5
10981
 10
24.9717
 20
20.2570
 30
0.000000
  70
    32
  0
VERTEX
  8
0
  5
10982
 10
24.9541
 20
20.2998
 30
0.000000
  70
    32
  0
VERTEX
  8
0
  5
10983
 10
24.9365
 20
20.3427
 30
0.000000
  70
    32
  0
VERTEX
  8
0
  5
10984
 10
24.9191
 20
20.3856
 30
0.000000
  70
    32
  0
VERTEX
  8
0
  5
10985
 10
24.9017
 20
20.4285
 30
0.000000
  70
    32
  0
VERTEX
  8
0
  5
10986
 10
24.8844
 20
20.4715
 30
0.000000
  70
    32
  0
VERTEX
  8
0
  5
10987
 10
24.8672
 20
20.5145
 30
0.000000
  70
    32
  0
VERTEX
  8
0
  5
10988
 10
24.8501
 20
20.5575
 30
0.000000
  70
    32
  0
VERTEX
  8
0
  5
10989
 10
24.8331
 20
20.6006
 30
0.000000
  70
    32
  0
VERTEX
  8
0
  5
1098A
 10
24.8161
 20
20.6437
 30
0.000000
  70
    32
  0
VERTEX
  8
0
  5
1098B
 10
24.7993
 20
20.6868
 30
0.000000
  70
    32
  0
SEQEND
  8
0
  5
1098C
  0
LINE
  5
F8B9
  8
0
 10
25.387658000000101
 20
98.912154045915273
 30
0.0
 11
34.981285000000298
 21
98.912154045915273
 31
0.0
  0
LINE
  5
F8BA
  8
0
 10
25.387658000000101
 20
94.412154045915258
 30
0.0
 11
34.981285000000298
 21
94.412154045915258
 31
0.0
  0
LINE
  5
F8BB
  8
0
 10
45.018715000000157
 20
94.412154045915258
 30
0.0
 11
54.612343000000237
 21
94.412154045915258
 31
0.0
  0
LINE
  5
F8BC
  8
0
 10
45.018715000000157
 20
98.912154045915273
 30
0.0
 11
54.612343000000237
 21
98.912154045915273
 31
0.0
  0
ARC
  5
F8BD
  8
0
 10
40.0
 20
96.662154045915244
 30
0.0
 40
7.0000037999999991
 50
18.749331999995789
 51
161.25067000000399
  0
ARC
  5
F8BE
  8
0
 10
40.0
 20
96.662154045915244
 30
0.0
 40
7.0000037999999991
 50
198.74932999999589
 51
341.25067000000399
  0
POLYLINE
  5
F8BF
  8
0
 10
33.646107272318503
 20
94.229647646148436
 30
0.0
 66
     1
 70
     8
  0
VERTEX
  8
0
  5
1098D
 10
33.6461
 20
94.2296
 30
0.000000
  70
    32
  0
VERTEX
  8
0
  5
1098E
 10
33.6713
 20
94.2600
 30
0.000000
  70
    32
  0
VERTEX
  8
0
  5
1098F
 10
33.6962
 20
94.2908
 30
0.000000
  70
    32
  0
VERTEX
  8
0
  5
10990
 10
33.7207
 20
94.3219
 30
0.000000
  70
    32
  0
VERTEX
  8
0
  5
10991
 10
33.7450
 20
94.3533
 30
0.000000
  70
    32
  0
VERTEX
  8
0
  5
10992
 10
33.7689
 20
94.3850
 30
0.000000
  70
    32
  0
VERTEX
  8
0
  5
10993
 10
33.7925
 20
94.4171
 30
0.000000
  70
    32
  0
VERTEX
  8
0
  5
10994
 10
33.8157
 20
94.4495
 30
0.000000
  70
    32
  0
VERTEX
  8
0
  5
10995
 10
33.8386
 20
94.4822
 30
0.000000
  70
    32
  0
VERTEX
  8
0
  5
10996
 10
33.8611
 20
94.5152
 30
0.000000
  70
    32
  0
VERTEX
  8
0
  5
10997
 10
33.8833
 20
94.5486
 30
0.000000
  70
    32
  0
VERTEX
  8
0
  5
10998
 10
33.9052
 20
94.5822
 30
0.000000
  70
    32
  0
VERTEX
  8
0
  5
10999
 10
33.9267
 20
94.6162
 30
0.000000
  70
    32
  0
VERTEX
  8
0
  5
1099A
 10
33.9479
 20
94.6504
 30
0.000000
  70
    32
  0
VERTEX
  8
0
  5
1099B
 10
33.9687
 20
94.6850
 30
0.000000
  70
    32
  0
VERTEX
  8
0
  5
1099C
 10
33.9891
 20
94.7198
 30
0.000000
  70
    32
  0
VERTEX
  8
0
  5
1099D
 10
34.0092
 20
94.7549
 30
0.000000
  70
    32
  0
VERTEX
  8
0
  5
1099E
 10
34.0288
 20
94.7902
 30
0.000000
  70
    32
  0
VERTEX
  8
0
  5
1099F
 10
34.0482
 20
94.8259
 30
0.000000
  70
    32
  0
VERTEX
  8
0
  5
109A0
 10
34.0671
 20
94.8618
 30
0.000000
  70
    32
  0
VERTEX
  8
0
  5
109A1
 10
34.0857
 20
94.8980
 30
0.000000
  70
    32
  0
VERTEX
  8
0
  5
109A2
 10
34.1039
 20
94.9344
 30
0.000000
  70
    32
  0
VERTEX
  8
0
  5
109A3
 10
34.1217
 20
94.9710
 30
0.000000
  70
    32
  0
VERTEX
  8
0
  5
109A4
 10
34.1392
 20
95.0080
 30
0.000000
  70
    32
  0
VERTEX
  8
0
  5
109A5
 10
34.1562
 20
95.0451
 30
0.000000
  70
    32
  0
VERTEX
  8
0
  5
109A6
 10
34.1729
 20
95.0825
 30
0.000000
  70
    32
  0
VERTEX
  8
0
  5
109A7
 10
34.1892
 20
95.1201
 30
0.000000
  70
    32
  0
VERTEX
  8
0
  5
109A8
 10
34.2050
 20
95.1579
 30
0.000000
  70
    32
  0
VERTEX
  8
0
  5
109A9
 10
34.2205
 20
95.1960
 30
0.000000
  70
    32
  0
VERTEX
  8
0
  5
109AA
 10
34.2356
 20
95.2343
 30
0.000000
  70
    32
  0
VERTEX
  8
0
  5
109AB
 10
34.2503
 20
95.2727
 30
0.000000
  70
    32
  0
VERTEX
  8
0
  5
109AC
 10
34.2646
 20
95.3114
 30
0.000000
  70
    32
  0
VERTEX
  8
0
  5
109AD
 10
34.2785
 20
95.3503
 30
0.000000
  70
    32
  0
VERTEX
  8
0
  5
109AE
 10
34.2919
 20
95.3893
 30
0.000000
  70
    32
  0
VERTEX
  8
0
  5
109AF
 10
34.3050
 20
95.4285
 30
0.000000
  70
    32
  0
VERTEX
  8
0
  5
109B0
 10
34.3176
 20
95.4680
 30
0.000000
  70
    32
  0
VERTEX
  8
0
  5
109B1
 10
34.3299
 20
95.5075
 30
0.000000
  70
    32
  0
VERTEX
  8
0
  5
109B2
 10
34.3417
 20
95.5473
 30
0.000000
  70
    32
  0
VERTEX
  8
0
  5
109B3
 10
34.3531
 20
95.5872
 30
0.000000
  70
    32
  0
VERTEX
  8
0
  5
109B4
 10
34.3641
 20
95.6273
 30
0.000000
  70
    32
  0
VERTEX
  8
0
  5
109B5
 10
34.3747
 20
95.6675
 30
0.000000
  70
    32
  0
VERTEX
  8
0
  5
109B6
 10
34.3849
 20
95.7079
 30
0.000000
  70
    32
  0
VERTEX
  8
0
  5
109B7
 10
34.3946
 20
95.7484
 30
0.000000
  70
    32
  0
VERTEX
  8
0
  5
109B8
 10
34.4039
 20
95.7890
 30
0.000000
  70
    32
  0
VERTEX
  8
0
  5
109B9
 10
34.4128
 20
95.8297
 30
0.000000
  70
    32
  0
VERTEX
  8
0
  5
109BA
 10
34.4213
 20
95.8706
 30
0.000000
  70
    32
  0
VERTEX
  8
0
  5
109BB
 10
34.4293
 20
95.9116
 30
0.000000
  70
    32
  0
VERTEX
  8
0
  5
109BC
 10
34.4369
 20
95.9527
 30
0.000000
  70
    32
  0
VERTEX
  8
0
  5
109BD
 10
34.4441
 20
95.9939
 30
0.000000
  70
    32
  0
VERTEX
  8
0
  5
109BE
 10
34.4508
 20
96.0352
 30
0.000000
  70
    32
  0
VERTEX
  8
0
  5
109BF
 10
34.4572
 20
96.0766
 30
0.000000
  70
    32
  0
VERTEX
  8
0
  5
109C0
 10
34.4631
 20
96.1181
 30
0.000000
  70
    32
  0
VERTEX
  8
0
  5
109C1
 10
34.4685
 20
96.1596
 30
0.000000
  70
    32
  0
VERTEX
  8
0
  5
109C2
 10
34.4735
 20
96.2012
 30
0.000000
  70
    32
  0
VERTEX
  8
0
  5
109C3
 10
34.4781
 20
96.2429
 30
0.000000
  70
    32
  0
VERTEX
  8
0
  5
109C4
 10
34.4823
 20
96.2847
 30
0.000000
  70
    32
  0
VERTEX
  8
0
  5
109C5
 10
34.4860
 20
96.3265
 30
0.000000
  70
    32
  0
VERTEX
  8
0
  5
109C6
 10
34.4893
 20
96.3683
 30
0.000000
  70
    32
  0
VERTEX
  8
0
  5
109C7
 10
34.4921
 20
96.4102
 30
0.000000
  70
    32
  0
VERTEX
  8
0
  5
109C8
 10
34.4945
 20
96.4522
 30
0.000000
  70
    32
  0
VERTEX
  8
0
  5
109C9
 10
34.4965
 20
96.4941
 30
0.000000
  70
    32
  0
VERTEX
  8
0
  5
109CA
 10
34.4980
 20
96.5361
 30
0.000000
  70
    32
  0
VERTEX
  8
0
  5
109CB
 10
34.4991
 20
96.5781
 30
0.000000
  70
    32
  0
VERTEX
  8
0
  5
109CC
 10
34.4998
 20
96.6201
 30
0.000000
  70
    32
  0
VERTEX
  8
0
  5
109CD
 10
34.5000
 20
96.6622
 30
0.000000
  70
    32
  0
VERTEX
  8
0
  5
109CE
 10
34.4998
 20
96.7042
 30
0.000000
  70
    32
  0
VERTEX
  8
0
  5
109CF
 10
34.4991
 20
96.7462
 30
0.000000
  70
    32
  0
VERTEX
  8
0
  5
109D0
 10
34.4980
 20
96.7882
 30
0.000000
  70
    32
  0
VERTEX
  8
0
  5
109D1
 10
34.4965
 20
96.8302
 30
0.000000
  70
    32
  0
VERTEX
  8
0
  5
109D2
 10
34.4945
 20
96.8721
 30
0.000000
  70
    32
  0
VERTEX
  8
0
  5
109D3
 10
34.4921
 20
96.9141
 30
0.000000
  70
    32
  0
VERTEX
  8
0
  5
109D4
 10
34.4893
 20
96.9560
 30
0.000000
  70
    32
  0
VERTEX
  8
0
  5
109D5
 10
34.4860
 20
96.9978
 30
0.000000
  70
    32
  0
VERTEX
  8
0
  5
109D6
 10
34.4823
 20
97.0396
 30
0.000000
  70
    32
  0
VERTEX
  8
0
  5
109D7
 10
34.4781
 20
97.0814
 30
0.000000
  70
    32
  0
VERTEX
  8
0
  5
109D8
 10
34.4735
 20
97.1231
 30
0.000000
  70
    32
  0
VERTEX
  8
0
  5
109D9
 10
34.4685
 20
97.1647
 30
0.000000
  70
    32
  0
VERTEX
  8
0
  5
109DA
 10
34.4631
 20
97.2062
 30
0.000000
  70
    32
  0
VERTEX
  8
0
  5
109DB
 10
34.4572
 20
97.2477
 30
0.000000
  70
    32
  0
VERTEX
  8
0
  5
109DC
 10
34.4508
 20
97.2891
 30
0.000000
  70
    32
  0
VERTEX
  8
0
  5
109DD
 10
34.4441
 20
97.3304
 30
0.000000
  70
    32
  0
VERTEX
  8
0
  5
109DE
 10
34.4369
 20
97.3716
 30
0.000000
  70
    32
  0
VERTEX
  8
0
  5
109DF
 10
34.4293
 20
97.4127
 30
0.000000
  70
    32
  0
VERTEX
  8
0
  5
109E0
 10
34.4213
 20
97.4537
 30
0.000000
  70
    32
  0
VERTEX
  8
0
  5
109E1
 10
34.4128
 20
97.4946
 30
0.000000
  70
    32
  0
VERTEX
  8
0
  5
109E2
 10
34.4039
 20
97.5353
 30
0.000000
  70
    32
  0
VERTEX
  8
0
  5
109E3
 10
34.3946
 20
97.5759
 30
0.000000
  70
    32
  0
VERTEX
  8
0
  5
109E4
 10
34.3849
 20
97.6164
 30
0.000000
  70
    32
  0
VERTEX
  8
0
  5
109E5
 10
34.3747
 20
97.6568
 30
0.000000
  70
    32
  0
VERTEX
  8
0
  5
109E6
 10
34.3641
 20
97.6970
 30
0.000000
  70
    32
  0
VERTEX
  8
0
  5
109E7
 10
34.3531
 20
97.7371
 30
0.000000
  70
    32
  0
VERTEX
  8
0
  5
109E8
 10
34.3417
 20
97.7770
 30
0.000000
  70
    32
  0
VERTEX
  8
0
  5
109E9
 10
34.3299
 20
97.8168
 30
0.000000
  70
    32
  0
VERTEX
  8
0
  5
109EA
 10
34.3176
 20
97.8563
 30
0.000000
  70
    32
  0
VERTEX
  8
0
  5
109EB
 10
34.3050
 20
97.8958
 30
0.000000
  70
    32
  0
VERTEX
  8
0
  5
109EC
 10
34.2919
 20
97.9350
 30
0.000000
  70
    32
  0
VERTEX
  8
0
  5
109ED
 10
34.2785
 20
97.9741
 30
0.000000
  70
    32
  0
VERTEX
  8
0
  5
109EE
 10
34.2646
 20
98.0129
 30
0.000000
  70
    32
  0
VERTEX
  8
0
  5
109EF
 10
34.2503
 20
98.0516
 30
0.000000
  70
    32
  0
VERTEX
  8
0
  5
109F0
 10
34.2356
 20
98.0901
 30
0.000000
  70
    32
  0
VERTEX
  8
0
  5
109F1
 10
34.2205
 20
98.1283
 30
0.000000
  70
    32
  0
VERTEX
  8
0
  5
109F2
 10
34.2050
 20
98.1664
 30
0.000000
  70
    32
  0
VERTEX
  8
0
  5
109F3
 10
34.1892
 20
98.2042
 30
0.000000
  70
    32
  0
VERTEX
  8
0
  5
109F4
 10
34.1729
 20
98.2418
 30
0.000000
  70
    32
  0
VERTEX
  8
0
  5
109F5
 10
34.1562
 20
98.2792
 30
0.000000
  70
    32
  0
VERTEX
  8
0
  5
109F6
 10
34.1392
 20
98.3164
 30
0.000000
  70
    32
  0
VERTEX
  8
0
  5
109F7
 10
34.1217
 20
98.3533
 30
0.000000
  70
    32
  0
VERTEX
  8
0
  5
109F8
 10
34.1039
 20
98.3899
 30
0.000000
  70
    32
  0
VERTEX
  8
0
  5
109F9
 10
34.0857
 20
98.4264
 30
0.000000
  70
    32
  0
VERTEX
  8
0
  5
109FA
 10
34.0671
 20
98.4625
 30
0.000000
  70
    32
  0
VERTEX
  8
0
  5
109FB
 10
34.0482
 20
98.4984
 30
0.000000
  70
    32
  0
VERTEX
  8
0
  5
109FC
 10
34.0288
 20
98.5341
 30
0.000000
  70
    32
  0
VERTEX
  8
0
  5
109FD
 10
34.0092
 20
98.5694
 30
0.000000
  70
    32
  0
VERTEX
  8
0
  5
109FE
 10
33.9891
 20
98.6045
 30
0.000000
  70
    32
  0
VERTEX
  8
0
  5
109FF
 10
33.9687
 20
98.6394
 30
0.000000
  70
    32
  0
VERTEX
  8
0
  5
10A00
 10
33.9479
 20
98.6739
 30
0.000000
  70
    32
  0
VERTEX
  8
0
  5
10A01
 10
33.9267
 20
98.7081
 30
0.000000
  70
    32
  0
VERTEX
  8
0
  5
10A02
 10
33.9052
 20
98.7421
 30
0.000000
  70
    32
  0
VERTEX
  8
0
  5
10A03
 10
33.8833
 20
98.7757
 30
0.000000
  70
    32
  0
VERTEX
  8
0
  5
10A04
 10
33.8611
 20
98.8091
 30
0.000000
  70
    32
  0
VERTEX
  8
0
  5
10A05
 10
33.8386
 20
98.8421
 30
0.000000
  70
    32
  0
VERTEX
  8
0
  5
10A06
 10
33.8157
 20
98.8748
 30
0.000000
  70
    32
  0
VERTEX
  8
0
  5
10A07
 10
33.7925
 20
98.9072
 30
0.000000
  70
    32
  0
VERTEX
  8
0
  5
10A08
 10
33.7689
 20
98.9393
 30
0.000000
  70
    32
  0
VERTEX
  8
0
  5
10A09
 10
33.7450
 20
98.9710
 30
0.000000
  70
    32
  0
VERTEX
  8
0
  5
10A0A
 10
33.7207
 20
99.0025
 30
0.000000
  70
    32
  0
VERTEX
  8
0
  5
10A0B
 10
33.6962
 20
99.0335
 30
0.000000
  70
    32
  0
VERTEX
  8
0
  5
10A0C
 10
33.6713
 20
99.0643
 30
0.000000
  70
    32
  0
VERTEX
  8
0
  5
10A0D
 10
33.6461
 20
99.0947
 30
0.000000
  70
    32
  0
SEQEND
  8
0
  5
10A0E
  0
POLYLINE
  5
F8C0
  8
0
 10
54.401915269674582
 20
94.13235856414515
 30
0.0
 66
     1
 70
     8
  0
VERTEX
  8
0
  5
10A0F
 10
54.4019
 20
94.1324
 30
0.000000
  70
    32
  0
VERTEX
  8
0
  5
10A10
 10
54.4274
 20
94.1631
 30
0.000000
  70
    32
  0
VERTEX
  8
0
  5
10A11
 10
54.4525
 20
94.1942
 30
0.000000
  70
    32
  0
VERTEX
  8
0
  5
10A12
 10
54.4774
 20
94.2257
 30
0.000000
  70
    32
  0
VERTEX
  8
0
  5
10A13
 10
54.5019
 20
94.2577
 30
0.000000
  70
    32
  0
VERTEX
  8
0
  5
10A14
 10
54.5261
 20
94.2899
 30
0.000000
  70
    32
  0
VERTEX
  8
0
  5
10A15
 10
54.5499
 20
94.3226
 30
0.000000
  70
    32
  0
VERTEX
  8
0
  5
10A16
 10
54.5735
 20
94.3557
 30
0.000000
  70
    32
  0
VERTEX
  8
0
  5
10A17
 10
54.5967
 20
94.3891
 30
0.000000
  70
    32
  0
VERTEX
  8
0
  5
10A18
 10
54.6195
 20
94.4228
 30
0.000000
  70
    32
  0
VERTEX
  8
0
  5
10A19
 10
54.6420
 20
94.4570
 30
0.000000
  70
    32
  0
VERTEX
  8
0
  5
10A1A
 10
54.6642
 20
94.4915
 30
0.000000
  70
    32
  0
VERTEX
  8
0
  5
10A1B
 10
54.6860
 20
94.5263
 30
0.000000
  70
    32
  0
VERTEX
  8
0
  5
10A1C
 10
54.7074
 20
94.5615
 30
0.000000
  70
    32
  0
VERTEX
  8
0
  5
10A1D
 10
54.7285
 20
94.5970
 30
0.000000
  70
    32
  0
VERTEX
  8
0
  5
10A1E
 10
54.7493
 20
94.6328
 30
0.000000
  70
    32
  0
VERTEX
  8
0
  5
10A1F
 10
54.7697
 20
94.6689
 30
0.000000
  70
    32
  0
VERTEX
  8
0
  5
10A20
 10
54.7897
 20
94.7054
 30
0.000000
  70
    32
  0
VERTEX
  8
0
  5
10A21
 10
54.8093
 20
94.7422
 30
0.000000
  70
    32
  0
VERTEX
  8
0
  5
10A22
 10
54.8285
 20
94.7793
 30
0.000000
  70
    32
  0
VERTEX
  8
0
  5
10A23
 10
54.8474
 20
94.8167
 30
0.000000
  70
    32
  0
VERTEX
  8
0
  5
10A24
 10
54.8659
 20
94.8544
 30
0.000000
  70
    32
  0
VERTEX
  8
0
  5
10A25
 10
54.8840
 20
94.8923
 30
0.000000
  70
    32
  0
VERTEX
  8
0
  5
10A26
 10
54.9018
 20
94.9306
 30
0.000000
  70
    32
  0
VERTEX
  8
0
  5
10A27
 10
54.9191
 20
94.9691
 30
0.000000
  70
    32
  0
VERTEX
  8
0
  5
10A28
 10
54.9361
 20
95.0079
 30
0.000000
  70
    32
  0
VERTEX
  8
0
  5
10A29
 10
54.9526
 20
95.0470
 30
0.000000
  70
    32
  0
VERTEX
  8
0
  5
10A2A
 10
54.9688
 20
95.0863
 30
0.000000
  70
    32
  0
VERTEX
  8
0
  5
10A2B
 10
54.9845
 20
95.1259
 30
0.000000
  70
    32
  0
VERTEX
  8
0
  5
10A2C
 10
54.9999
 20
95.1657
 30
0.000000
  70
    32
  0
VERTEX
  8
0
  5
10A2D
 10
55.0149
 20
95.2058
 30
0.000000
  70
    32
  0
VERTEX
  8
0
  5
10A2E
 10
55.0294
 20
95.2460
 30
0.000000
  70
    32
  0
VERTEX
  8
0
  5
10A2F
 10
55.0435
 20
95.2866
 30
0.000000
  70
    32
  0
VERTEX
  8
0
  5
10A30
 10
55.0573
 20
95.3273
 30
0.000000
  70
    32
  0
VERTEX
  8
0
  5
10A31
 10
55.0706
 20
95.3682
 30
0.000000
  70
    32
  0
VERTEX
  8
0
  5
10A32
 10
55.0835
 20
95.4094
 30
0.000000
  70
    32
  0
VERTEX
  8
0
  5
10A33
 10
55.0960
 20
95.4507
 30
0.000000
  70
    32
  0
VERTEX
  8
0
  5
10A34
 10
55.1080
 20
95.4923
 30
0.000000
  70
    32
  0
VERTEX
  8
0
  5
10A35
 10
55.1197
 20
95.5340
 30
0.000000
  70
    32
  0
VERTEX
  8
0
  5
10A36
 10
55.1309
 20
95.5759
 30
0.000000
  70
    32
  0
VERTEX
  8
0
  5
10A37
 10
55.1417
 20
95.6180
 30
0.000000
  70
    32
  0
VERTEX
  8
0
  5
10A38
 10
55.1520
 20
95.6603
 30
0.000000
  70
    32
  0
VERTEX
  8
0
  5
10A39
 10
55.1620
 20
95.7027
 30
0.000000
  70
    32
  0
VERTEX
  8
0
  5
10A3A
 10
55.1715
 20
95.7452
 30
0.000000
  70
    32
  0
VERTEX
  8
0
  5
10A3B
 10
55.1805
 20
95.7879
 30
0.000000
  70
    32
  0
VERTEX
  8
0
  5
10A3C
 10
55.1892
 20
95.8308
 30
0.000000
  70
    32
  0
VERTEX
  8
0
  5
10A3D
 10
55.1974
 20
95.8738
 30
0.000000
  70
    32
  0
VERTEX
  8
0
  5
10A3E
 10
55.2051
 20
95.9169
 30
0.000000
  70
    32
  0
VERTEX
  8
0
  5
10A3F
 10
55.2125
 20
95.9601
 30
0.000000
  70
    32
  0
VERTEX
  8
0
  5
10A40
 10
55.2194
 20
96.0034
 30
0.000000
  70
    32
  0
VERTEX
  8
0
  5
10A41
 10
55.2258
 20
96.0469
 30
0.000000
  70
    32
  0
VERTEX
  8
0
  5
10A42
 10
55.2318
 20
96.0904
 30
0.000000
  70
    32
  0
VERTEX
  8
0
  5
10A43
 10
55.2374
 20
96.1340
 30
0.000000
  70
    32
  0
VERTEX
  8
0
  5
10A44
 10
55.2425
 20
96.1777
 30
0.000000
  70
    32
  0
VERTEX
  8
0
  5
10A45
 10
55.2472
 20
96.2215
 30
0.000000
  70
    32
  0
VERTEX
  8
0
  5
10A46
 10
55.2514
 20
96.2654
 30
0.000000
  70
    32
  0
VERTEX
  8
0
  5
10A47
 10
55.2552
 20
96.3093
 30
0.000000
  70
    32
  0
VERTEX
  8
0
  5
10A48
 10
55.2586
 20
96.3533
 30
0.000000
  70
    32
  0
VERTEX
  8
0
  5
10A49
 10
55.2615
 20
96.3973
 30
0.000000
  70
    32
  0
VERTEX
  8
0
  5
10A4A
 10
55.2640
 20
96.4414
 30
0.000000
  70
    32
  0
VERTEX
  8
0
  5
10A4B
 10
55.2660
 20
96.4855
 30
0.000000
  70
    32
  0
VERTEX
  8
0
  5
10A4C
 10
55.2675
 20
96.5297
 30
0.000000
  70
    32
  0
VERTEX
  8
0
  5
10A4D
 10
55.2687
 20
96.5738
 30
0.000000
  70
    32
  0
VERTEX
  8
0
  5
10A4E
 10
55.2693
 20
96.6180
 30
0.000000
  70
    32
  0
VERTEX
  8
0
  5
10A4F
 10
55.2695
 20
96.6622
 30
0.000000
  70
    32
  0
VERTEX
  8
0
  5
10A50
 10
55.2693
 20
96.7063
 30
0.000000
  70
    32
  0
VERTEX
  8
0
  5
10A51
 10
55.2687
 20
96.7505
 30
0.000000
  70
    32
  0
VERTEX
  8
0
  5
10A52
 10
55.2675
 20
96.7947
 30
0.000000
  70
    32
  0
VERTEX
  8
0
  5
10A53
 10
55.2660
 20
96.8388
 30
0.000000
  70
    32
  0
VERTEX
  8
0
  5
10A54
 10
55.2640
 20
96.8829
 30
0.000000
  70
    32
  0
VERTEX
  8
0
  5
10A55
 10
55.2615
 20
96.9270
 30
0.000000
  70
    32
  0
VERTEX
  8
0
  5
10A56
 10
55.2586
 20
96.9710
 30
0.000000
  70
    32
  0
VERTEX
  8
0
  5
10A57
 10
55.2552
 20
97.0150
 30
0.000000
  70
    32
  0
VERTEX
  8
0
  5
10A58
 10
55.2514
 20
97.0589
 30
0.000000
  70
    32
  0
VERTEX
  8
0
  5
10A59
 10
55.2472
 20
97.1028
 30
0.000000
  70
    32
  0
VERTEX
  8
0
  5
10A5A
 10
55.2425
 20
97.1466
 30
0.000000
  70
    32
  0
VERTEX
  8
0
  5
10A5B
 10
55.2374
 20
97.1903
 30
0.000000
  70
    32
  0
VERTEX
  8
0
  5
10A5C
 10
55.2318
 20
97.2339
 30
0.000000
  70
    32
  0
VERTEX
  8
0
  5
10A5D
 10
55.2258
 20
97.2774
 30
0.000000
  70
    32
  0
VERTEX
  8
0
  5
10A5E
 10
55.2194
 20
97.3209
 30
0.000000
  70
    32
  0
VERTEX
  8
0
  5
10A5F
 10
55.2125
 20
97.3642
 30
0.000000
  70
    32
  0
VERTEX
  8
0
  5
10A60
 10
55.2051
 20
97.4074
 30
0.000000
  70
    32
  0
VERTEX
  8
0
  5
10A61
 10
55.1974
 20
97.4506
 30
0.000000
  70
    32
  0
VERTEX
  8
0
  5
10A62
 10
55.1892
 20
97.4935
 30
0.000000
  70
    32
  0
VERTEX
  8
0
  5
10A63
 10
55.1805
 20
97.5364
 30
0.000000
  70
    32
  0
VERTEX
  8
0
  5
10A64
 10
55.1715
 20
97.5791
 30
0.000000
  70
    32
  0
VERTEX
  8
0
  5
10A65
 10
55.1620
 20
97.6216
 30
0.000000
  70
    32
  0
VERTEX
  8
0
  5
10A66
 10
55.1520
 20
97.6641
 30
0.000000
  70
    32
  0
VERTEX
  8
0
  5
10A67
 10
55.1417
 20
97.7063
 30
0.000000
  70
    32
  0
VERTEX
  8
0
  5
10A68
 10
55.1309
 20
97.7484
 30
0.000000
  70
    32
  0
VERTEX
  8
0
  5
10A69
 10
55.1197
 20
97.7903
 30
0.000000
  70
    32
  0
VERTEX
  8
0
  5
10A6A
 10
55.1080
 20
97.8320
 30
0.000000
  70
    32
  0
VERTEX
  8
0
  5
10A6B
 10
55.0960
 20
97.8736
 30
0.000000
  70
    32
  0
VERTEX
  8
0
  5
10A6C
 10
55.0835
 20
97.9149
 30
0.000000
  70
    32
  0
VERTEX
  8
0
  5
10A6D
 10
55.0706
 20
97.9561
 30
0.000000
  70
    32
  0
VERTEX
  8
0
  5
10A6E
 10
55.0573
 20
97.9970
 30
0.000000
  70
    32
  0
VERTEX
  8
0
  5
10A6F
 10
55.0435
 20
98.0378
 30
0.000000
  70
    32
  0
VERTEX
  8
0
  5
10A70
 10
55.0294
 20
98.0783
 30
0.000000
  70
    32
  0
VERTEX
  8
0
  5
10A71
 10
55.0149
 20
98.1186
 30
0.000000
  70
    32
  0
VERTEX
  8
0
  5
10A72
 10
54.9999
 20
98.1586
 30
0.000000
  70
    32
  0
VERTEX
  8
0
  5
10A73
 10
54.9845
 20
98.1984
 30
0.000000
  70
    32
  0
VERTEX
  8
0
  5
10A74
 10
54.9688
 20
98.2380
 30
0.000000
  70
    32
  0
VERTEX
  8
0
  5
10A75
 10
54.9526
 20
98.2773
 30
0.000000
  70
    32
  0
VERTEX
  8
0
  5
10A76
 10
54.9361
 20
98.3164
 30
0.000000
  70
    32
  0
VERTEX
  8
0
  5
10A77
 10
54.9191
 20
98.3552
 30
0.000000
  70
    32
  0
VERTEX
  8
0
  5
10A78
 10
54.9018
 20
98.3937
 30
0.000000
  70
    32
  0
VERTEX
  8
0
  5
10A79
 10
54.8840
 20
98.4320
 30
0.000000
  70
    32
  0
VERTEX
  8
0
  5
10A7A
 10
54.8659
 20
98.4699
 30
0.000000
  70
    32
  0
VERTEX
  8
0
  5
10A7B
 10
54.8474
 20
98.5076
 30
0.000000
  70
    32
  0
VERTEX
  8
0
  5
10A7C
 10
54.8285
 20
98.5450
 30
0.000000
  70
    32
  0
VERTEX
  8
0
  5
10A7D
 10
54.8093
 20
98.5821
 30
0.000000
  70
    32
  0
VERTEX
  8
0
  5
10A7E
 10
54.7897
 20
98.6189
 30
0.000000
  70
    32
  0
VERTEX
  8
0
  5
10A7F
 10
54.7696
 20
98.6554
 30
0.000000
  70
    32
  0
VERTEX
  8
0
  5
10A80
 10
54.7493
 20
98.6915
 30
0.000000
  70
    32
  0
VERTEX
  8
0
  5
10A81
 10
54.7285
 20
98.7274
 30
0.000000
  70
    32
  0
VERTEX
  8
0
  5
10A82
 10
54.7074
 20
98.7629
 30
0.000000
  70
    32
  0
VERTEX
  8
0
  5
10A83
 10
54.6860
 20
98.7980
 30
0.000000
  70
    32
  0
VERTEX
  8
0
  5
10A84
 10
54.6642
 20
98.8329
 30
0.000000
  70
    32
  0
VERTEX
  8
0
  5
10A85
 10
54.6420
 20
98.8673
 30
0.000000
  70
    32
  0
VERTEX
  8
0
  5
10A86
 10
54.6195
 20
98.9015
 30
0.000000
  70
    32
  0
VERTEX
  8
0
  5
10A87
 10
54.5967
 20
98.9352
 30
0.000000
  70
    32
  0
VERTEX
  8
0
  5
10A88
 10
54.5735
 20
98.9686
 30
0.000000
  70
    32
  0
VERTEX
  8
0
  5
10A89
 10
54.5499
 20
99.0017
 30
0.000000
  70
    32
  0
VERTEX
  8
0
  5
10A8A
 10
54.5261
 20
99.0344
 30
0.000000
  70
    32
  0
VERTEX
  8
0
  5
10A8B
 10
54.5019
 20
99.0667
 30
0.000000
  70
    32
  0
VERTEX
  8
0
  5
10A8C
 10
54.4774
 20
99.0986
 30
0.000000
  70
    32
  0
VERTEX
  8
0
  5
10A8D
 10
54.4525
 20
99.1301
 30
0.000000
  70
    32
  0
VERTEX
  8
0
  5
10A8E
 10
54.4274
 20
99.1612
 30
0.000000
  70
    32
  0
VERTEX
  8
0
  5
10A8F
 10
54.4019
 20
99.1920
 30
0.000000
  70
    32
  0
SEQEND
  8
0
  5
10A90
  0
POLYLINE
  5
F8C1
  8
0
 10
46.353891105778892
 20
99.094660896197553
 30
0.0
 66
     1
 70
     8
  0
VERTEX
  8
0
  5
10A91
 10
46.3539
 20
99.0947
 30
0.000000
  70
    32
  0
VERTEX
  8
0
  5
10A92
 10
46.3287
 20
99.0643
 30
0.000000
  70
    32
  0
VERTEX
  8
0
  5
10A93
 10
46.3038
 20
99.0335
 30
0.000000
  70
    32
  0
VERTEX
  8
0
  5
10A94
 10
46.2793
 20
99.0025
 30
0.000000
  70
    32
  0
VERTEX
  8
0
  5
10A95
 10
46.2550
 20
98.9710
 30
0.000000
  70
    32
  0
VERTEX
  8
0
  5
10A96
 10
46.2311
 20
98.9393
 30
0.000000
  70
    32
  0
VERTEX
  8
0
  5
10A97
 10
46.2075
 20
98.9072
 30
0.000000
  70
    32
  0
VERTEX
  8
0
  5
10A98
 10
46.1843
 20
98.8748
 30
0.000000
  70
    32
  0
VERTEX
  8
0
  5
10A99
 10
46.1614
 20
98.8421
 30
0.000000
  70
    32
  0
VERTEX
  8
0
  5
10A9A
 10
46.1389
 20
98.8091
 30
0.000000
  70
    32
  0
VERTEX
  8
0
  5
10A9B
 10
46.1166
 20
98.7757
 30
0.000000
  70
    32
  0
VERTEX
  8
0
  5
10A9C
 10
46.0948
 20
98.7421
 30
0.000000
  70
    32
  0
VERTEX
  8
0
  5
10A9D
 10
46.0733
 20
98.7081
 30
0.000000
  70
    32
  0
VERTEX
  8
0
  5
10A9E
 10
46.0521
 20
98.6739
 30
0.000000
  70
    32
  0
VERTEX
  8
0
  5
10A9F
 10
46.0313
 20
98.6394
 30
0.000000
  70
    32
  0
VERTEX
  8
0
  5
10AA0
 10
46.0109
 20
98.6045
 30
0.000000
  70
    32
  0
VERTEX
  8
0
  5
10AA1
 10
45.9908
 20
98.5694
 30
0.000000
  70
    32
  0
VERTEX
  8
0
  5
10AA2
 10
45.9711
 20
98.5341
 30
0.000000
  70
    32
  0
VERTEX
  8
0
  5
10AA3
 10
45.9518
 20
98.4984
 30
0.000000
  70
    32
  0
VERTEX
  8
0
  5
10AA4
 10
45.9329
 20
98.4625
 30
0.000000
  70
    32
  0
VERTEX
  8
0
  5
10AA5
 10
45.9143
 20
98.4264
 30
0.000000
  70
    32
  0
VERTEX
  8
0
  5
10AA6
 10
45.8961
 20
98.3899
 30
0.000000
  70
    32
  0
VERTEX
  8
0
  5
10AA7
 10
45.8783
 20
98.3533
 30
0.000000
  70
    32
  0
VERTEX
  8
0
  5
10AA8
 10
45.8608
 20
98.3164
 30
0.000000
  70
    32
  0
VERTEX
  8
0
  5
10AA9
 10
45.8438
 20
98.2792
 30
0.000000
  70
    32
  0
VERTEX
  8
0
  5
10AAA
 10
45.8271
 20
98.2418
 30
0.000000
  70
    32
  0
VERTEX
  8
0
  5
10AAB
 10
45.8108
 20
98.2042
 30
0.000000
  70
    32
  0
VERTEX
  8
0
  5
10AAC
 10
45.7950
 20
98.1664
 30
0.000000
  70
    32
  0
VERTEX
  8
0
  5
10AAD
 10
45.7795
 20
98.1283
 30
0.000000
  70
    32
  0
VERTEX
  8
0
  5
10AAE
 10
45.7644
 20
98.0901
 30
0.000000
  70
    32
  0
VERTEX
  8
0
  5
10AAF
 10
45.7497
 20
98.0516
 30
0.000000
  70
    32
  0
VERTEX
  8
0
  5
10AB0
 10
45.7354
 20
98.0129
 30
0.000000
  70
    32
  0
VERTEX
  8
0
  5
10AB1
 10
45.7215
 20
97.9741
 30
0.000000
  70
    32
  0
VERTEX
  8
0
  5
10AB2
 10
45.7081
 20
97.9350
 30
0.000000
  70
    32
  0
VERTEX
  8
0
  5
10AB3
 10
45.6950
 20
97.8958
 30
0.000000
  70
    32
  0
VERTEX
  8
0
  5
10AB4
 10
45.6824
 20
97.8563
 30
0.000000
  70
    32
  0
VERTEX
  8
0
  5
10AB5
 10
45.6701
 20
97.8168
 30
0.000000
  70
    32
  0
VERTEX
  8
0
  5
10AB6
 10
45.6583
 20
97.7770
 30
0.000000
  70
    32
  0
VERTEX
  8
0
  5
10AB7
 10
45.6469
 20
97.7371
 30
0.000000
  70
    32
  0
VERTEX
  8
0
  5
10AB8
 10
45.6359
 20
97.6970
 30
0.000000
  70
    32
  0
VERTEX
  8
0
  5
10AB9
 10
45.6253
 20
97.6568
 30
0.000000
  70
    32
  0
VERTEX
  8
0
  5
10ABA
 10
45.6151
 20
97.6164
 30
0.000000
  70
    32
  0
VERTEX
  8
0
  5
10ABB
 10
45.6054
 20
97.5759
 30
0.000000
  70
    32
  0
VERTEX
  8
0
  5
10ABC
 10
45.5961
 20
97.5353
 30
0.000000
  70
    32
  0
VERTEX
  8
0
  5
10ABD
 10
45.5872
 20
97.4946
 30
0.000000
  70
    32
  0
VERTEX
  8
0
  5
10ABE
 10
45.5787
 20
97.4537
 30
0.000000
  70
    32
  0
VERTEX
  8
0
  5
10ABF
 10
45.5707
 20
97.4127
 30
0.000000
  70
    32
  0
VERTEX
  8
0
  5
10AC0
 10
45.5631
 20
97.3716
 30
0.000000
  70
    32
  0
VERTEX
  8
0
  5
10AC1
 10
45.5559
 20
97.3304
 30
0.000000
  70
    32
  0
VERTEX
  8
0
  5
10AC2
 10
45.5491
 20
97.2891
 30
0.000000
  70
    32
  0
VERTEX
  8
0
  5
10AC3
 10
45.5428
 20
97.2477
 30
0.000000
  70
    32
  0
VERTEX
  8
0
  5
10AC4
 10
45.5369
 20
97.2062
 30
0.000000
  70
    32
  0
VERTEX
  8
0
  5
10AC5
 10
45.5315
 20
97.1647
 30
0.000000
  70
    32
  0
VERTEX
  8
0
  5
10AC6
 10
45.5265
 20
97.1231
 30
0.000000
  70
    32
  0
VERTEX
  8
0
  5
10AC7
 10
45.5219
 20
97.0814
 30
0.000000
  70
    32
  0
VERTEX
  8
0
  5
10AC8
 10
45.5177
 20
97.0396
 30
0.000000
  70
    32
  0
VERTEX
  8
0
  5
10AC9
 10
45.5140
 20
96.9978
 30
0.000000
  70
    32
  0
VERTEX
  8
0
  5
10ACA
 10
45.5107
 20
96.9560
 30
0.000000
  70
    32
  0
VERTEX
  8
0
  5
10ACB
 10
45.5079
 20
96.9141
 30
0.000000
  70
    32
  0
VERTEX
  8
0
  5
10ACC
 10
45.5055
 20
96.8721
 30
0.000000
  70
    32
  0
VERTEX
  8
0
  5
10ACD
 10
45.5035
 20
96.8302
 30
0.000000
  70
    32
  0
VERTEX
  8
0
  5
10ACE
 10
45.5020
 20
96.7882
 30
0.000000
  70
    32
  0
VERTEX
  8
0
  5
10ACF
 10
45.5009
 20
96.7462
 30
0.000000
  70
    32
  0
VERTEX
  8
0
  5
10AD0
 10
45.5002
 20
96.7042
 30
0.000000
  70
    32
  0
VERTEX
  8
0
  5
10AD1
 10
45.5000
 20
96.6622
 30
0.000000
  70
    32
  0
VERTEX
  8
0
  5
10AD2
 10
45.5002
 20
96.6201
 30
0.000000
  70
    32
  0
VERTEX
  8
0
  5
10AD3
 10
45.5009
 20
96.5781
 30
0.000000
  70
    32
  0
VERTEX
  8
0
  5
10AD4
 10
45.5020
 20
96.5361
 30
0.000000
  70
    32
  0
VERTEX
  8
0
  5
10AD5
 10
45.5035
 20
96.4941
 30
0.000000
  70
    32
  0
VERTEX
  8
0
  5
10AD6
 10
45.5055
 20
96.4522
 30
0.000000
  70
    32
  0
VERTEX
  8
0
  5
10AD7
 10
45.5079
 20
96.4102
 30
0.000000
  70
    32
  0
VERTEX
  8
0
  5
10AD8
 10
45.5107
 20
96.3683
 30
0.000000
  70
    32
  0
VERTEX
  8
0
  5
10AD9
 10
45.5140
 20
96.3265
 30
0.000000
  70
    32
  0
VERTEX
  8
0
  5
10ADA
 10
45.5177
 20
96.2847
 30
0.000000
  70
    32
  0
VERTEX
  8
0
  5
10ADB
 10
45.5219
 20
96.2429
 30
0.000000
  70
    32
  0
VERTEX
  8
0
  5
10ADC
 10
45.5265
 20
96.2012
 30
0.000000
  70
    32
  0
VERTEX
  8
0
  5
10ADD
 10
45.5315
 20
96.1596
 30
0.000000
  70
    32
  0
VERTEX
  8
0
  5
10ADE
 10
45.5369
 20
96.1181
 30
0.000000
  70
    32
  0
VERTEX
  8
0
  5
10ADF
 10
45.5428
 20
96.0766
 30
0.000000
  70
    32
  0
VERTEX
  8
0
  5
10AE0
 10
45.5491
 20
96.0352
 30
0.000000
  70
    32
  0
VERTEX
  8
0
  5
10AE1
 10
45.5559
 20
95.9939
 30
0.000000
  70
    32
  0
VERTEX
  8
0
  5
10AE2
 10
45.5631
 20
95.9527
 30
0.000000
  70
    32
  0
VERTEX
  8
0
  5
10AE3
 10
45.5707
 20
95.9116
 30
0.000000
  70
    32
  0
VERTEX
  8
0
  5
10AE4
 10
45.5787
 20
95.8706
 30
0.000000
  70
    32
  0
VERTEX
  8
0
  5
10AE5
 10
45.5872
 20
95.8297
 30
0.000000
  70
    32
  0
VERTEX
  8
0
  5
10AE6
 10
45.5961
 20
95.7890
 30
0.000000
  70
    32
  0
VERTEX
  8
0
  5
10AE7
 10
45.6054
 20
95.7484
 30
0.000000
  70
    32
  0
VERTEX
  8
0
  5
10AE8
 10
45.6151
 20
95.7079
 30
0.000000
  70
    32
  0
VERTEX
  8
0
  5
10AE9
 10
45.6253
 20
95.6675
 30
0.000000
  70
    32
  0
VERTEX
  8
0
  5
10AEA
 10
45.6359
 20
95.6273
 30
0.000000
  70
    32
  0
VERTEX
  8
0
  5
10AEB
 10
45.6469
 20
95.5872
 30
0.000000
  70
    32
  0
VERTEX
  8
0
  5
10AEC
 10
45.6583
 20
95.5473
 30
0.000000
  70
    32
  0
VERTEX
  8
0
  5
10AED
 10
45.6701
 20
95.5075
 30
0.000000
  70
    32
  0
VERTEX
  8
0
  5
10AEE
 10
45.6824
 20
95.4680
 30
0.000000
  70
    32
  0
VERTEX
  8
0
  5
10AEF
 10
45.6950
 20
95.4285
 30
0.000000
  70
    32
  0
VERTEX
  8
0
  5
10AF0
 10
45.7081
 20
95.3893
 30
0.000000
  70
    32
  0
VERTEX
  8
0
  5
10AF1
 10
45.7215
 20
95.3503
 30
0.000000
  70
    32
  0
VERTEX
  8
0
  5
10AF2
 10
45.7354
 20
95.3114
 30
0.000000
  70
    32
  0
VERTEX
  8
0
  5
10AF3
 10
45.7497
 20
95.2727
 30
0.000000
  70
    32
  0
VERTEX
  8
0
  5
10AF4
 10
45.7644
 20
95.2343
 30
0.000000
  70
    32
  0
VERTEX
  8
0
  5
10AF5
 10
45.7795
 20
95.1960
 30
0.000000
  70
    32
  0
VERTEX
  8
0
  5
10AF6
 10
45.7950
 20
95.1579
 30
0.000000
  70
    32
  0
VERTEX
  8
0
  5
10AF7
 10
45.8108
 20
95.1201
 30
0.000000
  70
    32
  0
VERTEX
  8
0
  5
10AF8
 10
45.8271
 20
95.0825
 30
0.000000
  70
    32
  0
VERTEX
  8
0
  5
10AF9
 10
45.8438
 20
95.0451
 30
0.000000
  70
    32
  0
VERTEX
  8
0
  5
10AFA
 10
45.8608
 20
95.0080
 30
0.000000
  70
    32
  0
VERTEX
  8
0
  5
10AFB
 10
45.8783
 20
94.9710
 30
0.000000
  70
    32
  0
VERTEX
  8
0
  5
10AFC
 10
45.8961
 20
94.9344
 30
0.000000
  70
    32
  0
VERTEX
  8
0
  5
10AFD
 10
45.9143
 20
94.8980
 30
0.000000
  70
    32
  0
VERTEX
  8
0
  5
10AFE
 10
45.9329
 20
94.8618
 30
0.000000
  70
    32
  0
VERTEX
  8
0
  5
10AFF
 10
45.9518
 20
94.8259
 30
0.000000
  70
    32
  0
VERTEX
  8
0
  5
10B00
 10
45.9711
 20
94.7902
 30
0.000000
  70
    32
  0
VERTEX
  8
0
  5
10B01
 10
45.9908
 20
94.7549
 30
0.000000
  70
    32
  0
VERTEX
  8
0
  5
10B02
 10
46.0109
 20
94.7198
 30
0.000000
  70
    32
  0
VERTEX
  8
0
  5
10B03
 10
46.0313
 20
94.6850
 30
0.000000
  70
    32
  0
VERTEX
  8
0
  5
10B04
 10
46.0521
 20
94.6504
 30
0.000000
  70
    32
  0
VERTEX
  8
0
  5
10B05
 10
46.0733
 20
94.6162
 30
0.000000
  70
    32
  0
VERTEX
  8
0
  5
10B06
 10
46.0948
 20
94.5822
 30
0.000000
  70
    32
  0
VERTEX
  8
0
  5
10B07
 10
46.1166
 20
94.5486
 30
0.000000
  70
    32
  0
VERTEX
  8
0
  5
10B08
 10
46.1389
 20
94.5152
 30
0.000000
  70
    32
  0
VERTEX
  8
0
  5
10B09
 10
46.1614
 20
94.4822
 30
0.000000
  70
    32
  0
VERTEX
  8
0
  5
10B0A
 10
46.1843
 20
94.4495
 30
0.000000
  70
    32
  0
VERTEX
  8
0
  5
10B0B
 10
46.2075
 20
94.4171
 30
0.000000
  70
    32
  0
VERTEX
  8
0
  5
10B0C
 10
46.2311
 20
94.3850
 30
0.000000
  70
    32
  0
VERTEX
  8
0
  5
10B0D
 10
46.2550
 20
94.3533
 30
0.000000
  70
    32
  0
VERTEX
  8
0
  5
10B0E
 10
46.2793
 20
94.3219
 30
0.000000
  70
    32
  0
VERTEX
  8
0
  5
10B0F
 10
46.3038
 20
94.2908
 30
0.000000
  70
    32
  0
VERTEX
  8
0
  5
10B10
 10
46.3287
 20
94.2600
 30
0.000000
  70
    32
  0
VERTEX
  8
0
  5
10B11
 10
46.3539
 20
94.2296
 30
0.000000
  70
    32
  0
SEQEND
  8
0
  5
10B12
  0
POLYLINE
  5
F8C2
  8
0
 10
25.59808696152356
 20
99.191952186233252
 30
0.0
 66
     1
 70
     8
  0
VERTEX
  8
0
  5
10B13
 10
25.5981
 20
99.1920
 30
0.000000
  70
    32
  0
VERTEX
  8
0
  5
10B14
 10
25.5726
 20
99.1612
 30
0.000000
  70
    32
  0
VERTEX
  8
0
  5
10B15
 10
25.5475
 20
99.1301
 30
0.000000
  70
    32
  0
VERTEX
  8
0
  5
10B16
 10
25.5226
 20
99.0986
 30
0.000000
  70
    32
  0
VERTEX
  8
0
  5
10B17
 10
25.4981
 20
99.0667
 30
0.000000
  70
    32
  0
VERTEX
  8
0
  5
10B18
 10
25.4739
 20
99.0344
 30
0.000000
  70
    32
  0
VERTEX
  8
0
  5
10B19
 10
25.4501
 20
99.0017
 30
0.000000
  70
    32
  0
VERTEX
  8
0
  5
10B1A
 10
25.4265
 20
98.9686
 30
0.000000
  70
    32
  0
VERTEX
  8
0
  5
10B1B
 10
25.4033
 20
98.9352
 30
0.000000
  70
    32
  0
VERTEX
  8
0
  5
10B1C
 10
25.3805
 20
98.9015
 30
0.000000
  70
    32
  0
VERTEX
  8
0
  5
10B1D
 10
25.3580
 20
98.8673
 30
0.000000
  70
    32
  0
VERTEX
  8
0
  5
10B1E
 10
25.3358
 20
98.8329
 30
0.000000
  70
    32
  0
VERTEX
  8
0
  5
10B1F
 10
25.3140
 20
98.7980
 30
0.000000
  70
    32
  0
VERTEX
  8
0
  5
10B20
 10
25.2926
 20
98.7629
 30
0.000000
  70
    32
  0
VERTEX
  8
0
  5
10B21
 10
25.2715
 20
98.7274
 30
0.000000
  70
    32
  0
VERTEX
  8
0
  5
10B22
 10
25.2507
 20
98.6915
 30
0.000000
  70
    32
  0
VERTEX
  8
0
  5
10B23
 10
25.2304
 20
98.6554
 30
0.000000
  70
    32
  0
VERTEX
  8
0
  5
10B24
 10
25.2103
 20
98.6189
 30
0.000000
  70
    32
  0
VERTEX
  8
0
  5
10B25
 10
25.1907
 20
98.5821
 30
0.000000
  70
    32
  0
VERTEX
  8
0
  5
10B26
 10
25.1715
 20
98.5450
 30
0.000000
  70
    32
  0
VERTEX
  8
0
  5
10B27
 10
25.1526
 20
98.5076
 30
0.000000
  70
    32
  0
VERTEX
  8
0
  5
10B28
 10
25.1341
 20
98.4699
 30
0.000000
  70
    32
  0
VERTEX
  8
0
  5
10B29
 10
25.1160
 20
98.4320
 30
0.000000
  70
    32
  0
VERTEX
  8
0
  5
10B2A
 10
25.0982
 20
98.3937
 30
0.000000
  70
    32
  0
VERTEX
  8
0
  5
10B2B
 10
25.0809
 20
98.3552
 30
0.000000
  70
    32
  0
VERTEX
  8
0
  5
10B2C
 10
25.0639
 20
98.3164
 30
0.000000
  70
    32
  0
VERTEX
  8
0
  5
10B2D
 10
25.0474
 20
98.2773
 30
0.000000
  70
    32
  0
VERTEX
  8
0
  5
10B2E
 10
25.0312
 20
98.2380
 30
0.000000
  70
    32
  0
VERTEX
  8
0
  5
10B2F
 10
25.0155
 20
98.1984
 30
0.000000
  70
    32
  0
VERTEX
  8
0
  5
10B30
 10
25.0001
 20
98.1586
 30
0.000000
  70
    32
  0
VERTEX
  8
0
  5
10B31
 10
24.9851
 20
98.1186
 30
0.000000
  70
    32
  0
VERTEX
  8
0
  5
10B32
 10
24.9706
 20
98.0783
 30
0.000000
  70
    32
  0
VERTEX
  8
0
  5
10B33
 10
24.9565
 20
98.0378
 30
0.000000
  70
    32
  0
VERTEX
  8
0
  5
10B34
 10
24.9427
 20
97.9970
 30
0.000000
  70
    32
  0
VERTEX
  8
0
  5
10B35
 10
24.9294
 20
97.9561
 30
0.000000
  70
    32
  0
VERTEX
  8
0
  5
10B36
 10
24.9165
 20
97.9149
 30
0.000000
  70
    32
  0
VERTEX
  8
0
  5
10B37
 10
24.9040
 20
97.8736
 30
0.000000
  70
    32
  0
VERTEX
  8
0
  5
10B38
 10
24.8920
 20
97.8320
 30
0.000000
  70
    32
  0
VERTEX
  8
0
  5
10B39
 10
24.8803
 20
97.7903
 30
0.000000
  70
    32
  0
VERTEX
  8
0
  5
10B3A
 10
24.8691
 20
97.7484
 30
0.000000
  70
    32
  0
VERTEX
  8
0
  5
10B3B
 10
24.8583
 20
97.7063
 30
0.000000
  70
    32
  0
VERTEX
  8
0
  5
10B3C
 10
24.8480
 20
97.6641
 30
0.000000
  70
    32
  0
VERTEX
  8
0
  5
10B3D
 10
24.8380
 20
97.6216
 30
0.000000
  70
    32
  0
VERTEX
  8
0
  5
10B3E
 10
24.8285
 20
97.5791
 30
0.000000
  70
    32
  0
VERTEX
  8
0
  5
10B3F
 10
24.8195
 20
97.5364
 30
0.000000
  70
    32
  0
VERTEX
  8
0
  5
10B40
 10
24.8108
 20
97.4935
 30
0.000000
  70
    32
  0
VERTEX
  8
0
  5
10B41
 10
24.8026
 20
97.4506
 30
0.000000
  70
    32
  0
VERTEX
  8
0
  5
10B42
 10
24.7949
 20
97.4074
 30
0.000000
  70
    32
  0
VERTEX
  8
0
  5
10B43
 10
24.7875
 20
97.3642
 30
0.000000
  70
    32
  0
VERTEX
  8
0
  5
10B44
 10
24.7806
 20
97.3209
 30
0.000000
  70
    32
  0
VERTEX
  8
0
  5
10B45
 10
24.7742
 20
97.2774
 30
0.000000
  70
    32
  0
VERTEX
  8
0
  5
10B46
 10
24.7682
 20
97.2339
 30
0.000000
  70
    32
  0
VERTEX
  8
0
  5
10B47
 10
24.7626
 20
97.1903
 30
0.000000
  70
    32
  0
VERTEX
  8
0
  5
10B48
 10
24.7575
 20
97.1466
 30
0.000000
  70
    32
  0
VERTEX
  8
0
  5
10B49
 10
24.7528
 20
97.1028
 30
0.000000
  70
    32
  0
VERTEX
  8
0
  5
10B4A
 10
24.7486
 20
97.0589
 30
0.000000
  70
    32
  0
VERTEX
  8
0
  5
10B4B
 10
24.7448
 20
97.0150
 30
0.000000
  70
    32
  0
VERTEX
  8
0
  5
10B4C
 10
24.7414
 20
96.9710
 30
0.000000
  70
    32
  0
VERTEX
  8
0
  5
10B4D
 10
24.7385
 20
96.9270
 30
0.000000
  70
    32
  0
VERTEX
  8
0
  5
10B4E
 10
24.7360
 20
96.8829
 30
0.000000
  70
    32
  0
VERTEX
  8
0
  5
10B4F
 10
24.7340
 20
96.8388
 30
0.000000
  70
    32
  0
VERTEX
  8
0
  5
10B50
 10
24.7325
 20
96.7947
 30
0.000000
  70
    32
  0
VERTEX
  8
0
  5
10B51
 10
24.7313
 20
96.7505
 30
0.000000
  70
    32
  0
VERTEX
  8
0
  5
10B52
 10
24.7307
 20
96.7063
 30
0.000000
  70
    32
  0
VERTEX
  8
0
  5
10B53
 10
24.7305
 20
96.6622
 30
0.000000
  70
    32
  0
VERTEX
  8
0
  5
10B54
 10
24.7307
 20
96.6180
 30
0.000000
  70
    32
  0
VERTEX
  8
0
  5
10B55
 10
24.7313
 20
96.5738
 30
0.000000
  70
    32
  0
VERTEX
  8
0
  5
10B56
 10
24.7325
 20
96.5297
 30
0.000000
  70
    32
  0
VERTEX
  8
0
  5
10B57
 10
24.7340
 20
96.4855
 30
0.000000
  70
    32
  0
VERTEX
  8
0
  5
10B58
 10
24.7360
 20
96.4414
 30
0.000000
  70
    32
  0
VERTEX
  8
0
  5
10B59
 10
24.7385
 20
96.3973
 30
0.000000
  70
    32
  0
VERTEX
  8
0
  5
10B5A
 10
24.7414
 20
96.3533
 30
0.000000
  70
    32
  0
VERTEX
  8
0
  5
10B5B
 10
24.7448
 20
96.3093
 30
0.000000
  70
    32
  0
VERTEX
  8
0
  5
10B5C
 10
24.7486
 20
96.2654
 30
0.000000
  70
    32
  0
VERTEX
  8
0
  5
10B5D
 10
24.7528
 20
96.2215
 30
0.000000
  70
    32
  0
VERTEX
  8
0
  5
10B5E
 10
24.7575
 20
96.1777
 30
0.000000
  70
    32
  0
VERTEX
  8
0
  5
10B5F
 10
24.7626
 20
96.1340
 30
0.000000
  70
    32
  0
VERTEX
  8
0
  5
10B60
 10
24.7682
 20
96.0904
 30
0.000000
  70
    32
  0
VERTEX
  8
0
  5
10B61
 10
24.7742
 20
96.0469
 30
0.000000
  70
    32
  0
VERTEX
  8
0
  5
10B62
 10
24.7806
 20
96.0034
 30
0.000000
  70
    32
  0
VERTEX
  8
0
  5
10B63
 10
24.7875
 20
95.9601
 30
0.000000
  70
    32
  0
VERTEX
  8
0
  5
10B64
 10
24.7949
 20
95.9169
 30
0.000000
  70
    32
  0
VERTEX
  8
0
  5
10B65
 10
24.8026
 20
95.8738
 30
0.000000
  70
    32
  0
VERTEX
  8
0
  5
10B66
 10
24.8108
 20
95.8308
 30
0.000000
  70
    32
  0
VERTEX
  8
0
  5
10B67
 10
24.8195
 20
95.7879
 30
0.000000
  70
    32
  0
VERTEX
  8
0
  5
10B68
 10
24.8285
 20
95.7452
 30
0.000000
  70
    32
  0
VERTEX
  8
0
  5
10B69
 10
24.8380
 20
95.7027
 30
0.000000
  70
    32
  0
VERTEX
  8
0
  5
10B6A
 10
24.8480
 20
95.6603
 30
0.000000
  70
    32
  0
VERTEX
  8
0
  5
10B6B
 10
24.8583
 20
95.6180
 30
0.000000
  70
    32
  0
VERTEX
  8
0
  5
10B6C
 10
24.8691
 20
95.5759
 30
0.000000
  70
    32
  0
VERTEX
  8
0
  5
10B6D
 10
24.8803
 20
95.5340
 30
0.000000
  70
    32
  0
VERTEX
  8
0
  5
10B6E
 10
24.8920
 20
95.4923
 30
0.000000
  70
    32
  0
VERTEX
  8
0
  5
10B6F
 10
24.9040
 20
95.4507
 30
0.000000
  70
    32
  0
VERTEX
  8
0
  5
10B70
 10
24.9165
 20
95.4094
 30
0.000000
  70
    32
  0
VERTEX
  8
0
  5
10B71
 10
24.9294
 20
95.3682
 30
0.000000
  70
    32
  0
VERTEX
  8
0
  5
10B72
 10
24.9427
 20
95.3273
 30
0.000000
  70
    32
  0
VERTEX
  8
0
  5
10B73
 10
24.9565
 20
95.2866
 30
0.000000
  70
    32
  0
VERTEX
  8
0
  5
10B74
 10
24.9706
 20
95.2460
 30
0.000000
  70
    32
  0
VERTEX
  8
0
  5
10B75
 10
24.9851
 20
95.2058
 30
0.000000
  70
    32
  0
VERTEX
  8
0
  5
10B76
 10
25.0001
 20
95.1657
 30
0.000000
  70
    32
  0
VERTEX
  8
0
  5
10B77
 10
25.0155
 20
95.1259
 30
0.000000
  70
    32
  0
VERTEX
  8
0
  5
10B78
 10
25.0312
 20
95.0863
 30
0.000000
  70
    32
  0
VERTEX
  8
0
  5
10B79
 10
25.0474
 20
95.0470
 30
0.000000
  70
    32
  0
VERTEX
  8
0
  5
10B7A
 10
25.0639
 20
95.0079
 30
0.000000
  70
    32
  0
VERTEX
  8
0
  5
10B7B
 10
25.0809
 20
94.9691
 30
0.000000
  70
    32
  0
VERTEX
  8
0
  5
10B7C
 10
25.0982
 20
94.9306
 30
0.000000
  70
    32
  0
VERTEX
  8
0
  5
10B7D
 10
25.1160
 20
94.8923
 30
0.000000
  70
    32
  0
VERTEX
  8
0
  5
10B7E
 10
25.1341
 20
94.8544
 30
0.000000
  70
    32
  0
VERTEX
  8
0
  5
10B7F
 10
25.1526
 20
94.8167
 30
0.000000
  70
    32
  0
VERTEX
  8
0
  5
10B80
 10
25.1715
 20
94.7793
 30
0.000000
  70
    32
  0
VERTEX
  8
0
  5
10B81
 10
25.1907
 20
94.7422
 30
0.000000
  70
    32
  0
VERTEX
  8
0
  5
10B82
 10
25.2103
 20
94.7054
 30
0.000000
  70
    32
  0
VERTEX
  8
0
  5
10B83
 10
25.2303
 20
94.6689
 30
0.000000
  70
    32
  0
VERTEX
  8
0
  5
10B84
 10
25.2507
 20
94.6328
 30
0.000000
  70
    32
  0
VERTEX
  8
0
  5
10B85
 10
25.2715
 20
94.5970
 30
0.000000
  70
    32
  0
VERTEX
  8
0
  5
10B86
 10
25.2926
 20
94.5615
 30
0.000000
  70
    32
  0
VERTEX
  8
0
  5
10B87
 10
25.3140
 20
94.5263
 30
0.000000
  70
    32
  0
VERTEX
  8
0
  5
10B88
 10
25.3358
 20
94.4915
 30
0.000000
  70
    32
  0
VERTEX
  8
0
  5
10B89
 10
25.3580
 20
94.4570
 30
0.000000
  70
    32
  0
VERTEX
  8
0
  5
10B8A
 10
25.3805
 20
94.4228
 30
0.000000
  70
    32
  0
VERTEX
  8
0
  5
10B8B
 10
25.4033
 20
94.3891
 30
0.000000
  70
    32
  0
VERTEX
  8
0
  5
10B8C
 10
25.4265
 20
94.3557
 30
0.000000
  70
    32
  0
VERTEX
  8
0
  5
10B8D
 10
25.4501
 20
94.3226
 30
0.000000
  70
    32
  0
VERTEX
  8
0
  5
10B8E
 10
25.4739
 20
94.2899
 30
0.000000
  70
    32
  0
VERTEX
  8
0
  5
10B8F
 10
25.4981
 20
94.2577
 30
0.000000
  70
    32
  0
VERTEX
  8
0
  5
10B90
 10
25.5226
 20
94.2257
 30
0.000000
  70
    32
  0
VERTEX
  8
0
  5
10B91
 10
25.5475
 20
94.1942
 30
0.000000
  70
    32
  0
VERTEX
  8
0
  5
10B92
 10
25.5726
 20
94.1631
 30
0.000000
  70
    32
  0
VERTEX
  8
0
  5
10B93
 10
25.5981
 20
94.1324
 30
0.000000
  70
    32
  0
SEQEND
  8
0
  5
10B94
  0
LINE
  5
F8CD
  8
0
 10
26.348529999999752
 20
94.412154045915258
 30
0.0
 11
26.348530000000199
 21
91.141584045915124
 31
0.0
  0
LINE
  5
F8CE
  8
0
 10
42.598086449680522
 20
90.162154045915244
 30
0.0
 11
49.0
 21
90.162154045915244
 31
0.0
  0
LINE
  5
F8CF
  8
0
 10
42.598086449680522
 20
103.1621540459152
 30
0.0
 11
49.0
 21
103.1621540459152
 31
0.0
  0
LINE
  5
FBAF
  8
0
 10
88.240840113352988
 20
9.0
 30
0.0
 11
94.740840113352974
 21
9.0
 31
0.0
  0
LINE
  5
FBB0
  8
0
 10
94.240836313352688
 20
10.5
 30
0.0
 11
108.2408439133528
 21
10.5
 31
0.0
  0
LINE
  5
FBB1
  8
0
 10
88.240840113352988
 20
27.0
 30
0.0
 11
88.240840113352988
 21
7.5
 31
0.0
  0
LINE
  5
FBB2
  8
0
 10
107.7408401133529
 20
-7.5
 30
0.0
 11
107.7408401133529
 21
-25.612496949731391
 31
0.0
  0
LINE
  5
FBB3
  8
0
 10
107.7408401133579
 20
28.5
 30
0.0
 11
107.7408401133538
 21
12.500015333332151
 31
0.0
  0
LINE
  5
FBB4
  8
0
 10
110.240840113353
 20
5.9999999999997717
 30
0.0
 11
111.7408401133529
 21
6.0
 31
0.0
  0
LINE
  5
FBB5
  8
0
 10
94.740840113347076
 20
28.5
 30
0.0
 11
94.740840113352064
 21
12.50001533333193
 31
0.0
  0
LINE
  5
FBB6
  8
0
 10
95.740840113352533
 20
16.5
 30
0.0
 11
98.990840113352533
 21
16.5
 31
0.0
  0
LINE
  5
FBB7
  8
0
 10
105.2408401133525
 20
25.725447999999911
 30
0.0
 11
105.2408401133525
 21
16.5
 31
0.0
  0
LINE
  5
FBB8
  8
0
 10
98.240840113352533
 20
26.725447999999911
 30
0.0
 11
104.2408401133525
 21
26.725447999999911
 31
0.0
  0
LINE
  5
FBBA
  8
0
 10
94.740840113352974
 20
-9.0
 30
0.0
 11
107.7408401133529
 21
-9.0
 31
0.0
  0
LINE
  5
FBBB
  8
0
 10
90.740840113352988
 20
-7.5
 30
0.0
 11
94.740840113352974
 21
-7.5
 31
0.0
  0
LINE
  5
FBBC
  8
0
 10
110.240840113353
 20
5.9999999999997717
 30
0.0
 11
110.240840113353
 21
-6.0
 31
0.0
  0
LINE
  5
FBBD
  8
0
 10
99.990840113352533
 20
25.157554000000118
 30
0.0
 11
102.4908401133525
 21
25.157554000000118
 31
0.0
  0
LINE
  5
FBBE
  8
0
 10
99.990840113352533
 20
21.499999999999989
 30
0.0
 11
102.4908401133525
 21
21.499999999999989
 31
0.0
  0
LINE
  5
FBBF
  8
0
 10
97.240840113353002
 20
10.5
 30
0.0
 11
97.240840113353002
 21
-4.1241161249206471
 31
0.0
  0
LINE
  5
FBC1
  8
0
 10
95.740837213352734
 20
16.500003999999979
 30
0.0
 11
94.240836313352688
 21
10.5
 31
0.0
  0
LINE
  5
FBC2
  8
0
 10
92.240840113352974
 20
5.9999999999997717
 30
0.0
 11
92.240840113352974
 21
-6.0
 31
0.0
  0
LINE
  5
FBC3
  8
0
 10
94.740840113352974
 20
-7.5
 30
0.0
 11
94.740840113352974
 21
-25.612496949731391
 31
0.0
  0
LINE
  5
FBC5
  8
0
 10
104.2408406133527
 20
26.725447999999911
 30
0.0
 11
105.24084151335271
 21
25.725447999999911
 31
0.0
  0
LINE
  5
FBC7
  8
0
 10
105.2408401133529
 20
10.5
 30
0.0
 11
105.2408401133525
 21
-4.1241161249213292
 31
0.0
  0
LINE
  5
FBC8
  8
0
 10
103.4908401133525
 20
24.157554000000118
 30
0.0
 11
103.4908401133525
 21
10.5
 31
0.0
  0
LINE
  5
FBCA
  8
0
 10
90.740840113352988
 20
6.0
 30
0.0
 11
90.740840113352988
 21
-7.5
 31
0.0
  0
LINE
  5
FBCB
  8
0
 10
111.7408401133529
 20
6.0
 30
0.0
 11
111.7408401133529
 21
-7.5
 31
0.0
  0
LINE
  5
FBCC
  8
0
 10
98.990840113352533
 20
24.157554000000118
 30
0.0
 11
98.990840113352533
 21
10.5
 31
0.0
  0
LINE
  5
FBCD
  8
0
 10
106.7408430133527
 20
16.500003999999979
 30
0.0
 11
108.2408439133528
 21
10.5
 31
0.0
  0
LINE
  5
FBCE
  8
0
 10
90.740840113352988
 20
6.0
 30
0.0
 11
92.240840113352974
 21
5.9999999999997717
 31
0.0
  0
LINE
  5
FBCF
  8
0
 10
103.4908401133525
 20
16.5
 30
0.0
 11
106.7408401133525
 21
16.5
 31
0.0
  0
LINE
  5
FBD0
  8
0
 10
92.240840113352974
 20
2.5
 30
0.0
 11
97.240840113353002
 21
2.5
 31
0.0
  0
LINE
  5
FBD1
  8
0
 10
105.2408401133525
 20
2.5
 30
0.0
 11
110.240840113353
 21
2.5
 31
0.0
  0
LINE
  5
FBD2
  8
0
 10
92.240840113352974
 20
-2.5
 30
0.0
 11
97.240840113353002
 21
-2.5
 31
0.0
  0
LINE
  5
FBD3
  8
0
 10
105.2408401133525
 20
-2.5
 30
0.0
 11
110.240840113353
 21
-2.5
 31
0.0
  0
LINE
  5
FBD4
  8
0
 10
92.240840113352974
 20
-6.0
 30
0.0
 11
96.240840113352974
 21
-6.0
 31
0.0
  0
LINE
  5
FBD5
  8
0
 10
98.240839613352833
 20
26.725447999999911
 30
0.0
 11
97.240838713352787
 21
25.725447999999911
 31
0.0
  0
LINE
  5
FBD6
  8
0
 10
97.240840113352533
 20
25.725447999999911
 30
0.0
 11
97.240840113352533
 21
16.5
 31
0.0
  0
LINE
  5
FBD7
  8
0
 10
114.2408401133529
 20
27.0
 30
0.0
 11
114.2408401133525
 21
7.5
 31
0.0
  0
ARC
  5
FBD8
  8
0
 10
102.4908401133525
 20
22.5
 30
0.0
 40
1.0
 50
270.0
 51
0.0
  0
ARC
  5
FBD9
  8
0
 10
99.990840113352533
 20
24.157554000000118
 30
0.0
 40
1.0
 50
90.0
 51
180.0
  0
ARC
  5
FBDA
  8
0
 10
99.990840113352533
 20
22.5
 30
0.0
 40
1.0
 50
180.0
 51
270.0
  0
ARC
  5
FBDB
  8
0
 10
102.4908401133525
 20
24.157554000000118
 30
0.0
 40
1.0
 50
0.0
 51
90.0
  0
POLYLINE
  5
FBDC
  8
0
 10
90.740840113352988
 20
2.9999999000000002
 30
0.0
 66
     1
 70
     8
  0
VERTEX
  8
0
  5
10B95
 10
90.7408
 20
3.00000
 30
0.000000
  70
    32
  0
VERTEX
  8
0
  5
10B96
 10
90.7040
 20
2.99910
 30
0.000000
  70
    32
  0
VERTEX
  8
0
  5
10B97
 10
90.6672
 20
2.99639
 30
0.000000
  70
    32
  0
VERTEX
  8
0
  5
10B98
 10
90.6305
 20
2.99187
 30
0.000000
  70
    32
  0
VERTEX
  8
0
  5
10B99
 10
90.5938
 20
2.98555
 30
0.000000
  70
    32
  0
VERTEX
  8
0
  5
10B9A
 10
90.5572
 20
2.97744
 30
0.000000
  70
    32
  0
VERTEX
  8
0
  5
10B9B
 10
90.5207
 20
2.96753
 30
0.000000
  70
    32
  0
VERTEX
  8
0
  5
10B9C
 10
90.4844
 20
2.95583
 30
0.000000
  70
    32
  0
VERTEX
  8
0
  5
10B9D
 10
90.4482
 20
2.94236
 30
0.000000
  70
    32
  0
VERTEX
  8
0
  5
10B9E
 10
90.4122
 20
2.92711
 30
0.000000
  70
    32
  0
VERTEX
  8
0
  5
10B9F
 10
90.3764
 20
2.91009
 30
0.000000
  70
    32
  0
VERTEX
  8
0
  5
10BA0
 10
90.3408
 20
2.89133
 30
0.000000
  70
    32
  0
VERTEX
  8
0
  5
10BA1
 10
90.3054
 20
2.87082
 30
0.000000
  70
    32
  0
VERTEX
  8
0
  5
10BA2
 10
90.2703
 20
2.84858
 30
0.000000
  70
    32
  0
VERTEX
  8
0
  5
10BA3
 10
90.2355
 20
2.82463
 30
0.000000
  70
    32
  0
VERTEX
  8
0
  5
10BA4
 10
90.2010
 20
2.79898
 30
0.000000
  70
    32
  0
VERTEX
  8
0
  5
10BA5
 10
90.1668
 20
2.77164
 30
0.000000
  70
    32
  0
VERTEX
  8
0
  5
10BA6
 10
90.1330
 20
2.74263
 30
0.000000
  70
    32
  0
VERTEX
  8
0
  5
10BA7
 10
90.0995
 20
2.71197
 30
0.000000
  70
    32
  0
VERTEX
  8
0
  5
10BA8
 10
90.0664
 20
2.67967
 30
0.000000
  70
    32
  0
VERTEX
  8
0
  5
10BA9
 10
90.0337
 20
2.64576
 30
0.000000
  70
    32
  0
VERTEX
  8
0
  5
10BAA
 10
90.0015
 20
2.61026
 30
0.000000
  70
    32
  0
VERTEX
  8
0
  5
10BAB
 10
89.9697
 20
2.57319
 30
0.000000
  70
    32
  0
VERTEX
  8
0
  5
10BAC
 10
89.9383
 20
2.53456
 30
0.000000
  70
    32
  0
VERTEX
  8
0
  5
10BAD
 10
89.9075
 20
2.49441
 30
0.000000
  70
    32
  0
VERTEX
  8
0
  5
10BAE
 10
89.8771
 20
2.45275
 30
0.000000
  70
    32
  0
VERTEX
  8
0
  5
10BAF
 10
89.8473
 20
2.40962
 30
0.000000
  70
    32
  0
VERTEX
  8
0
  5
10BB0
 10
89.8180
 20
2.36504
 30
0.000000
  70
    32
  0
VERTEX
  8
0
  5
10BB1
 10
89.7893
 20
2.31903
 30
0.000000
  70
    32
  0
VERTEX
  8
0
  5
10BB2
 10
89.7611
 20
2.27163
 30
0.000000
  70
    32
  0
VERTEX
  8
0
  5
10BB3
 10
89.7335
 20
2.22285
 30
0.000000
  70
    32
  0
VERTEX
  8
0
  5
10BB4
 10
89.7065
 20
2.17274
 30
0.000000
  70
    32
  0
VERTEX
  8
0
  5
10BB5
 10
89.6802
 20
2.12132
 30
0.000000
  70
    32
  0
VERTEX
  8
0
  5
10BB6
 10
89.6545
 20
2.06862
 30
0.000000
  70
    32
  0
VERTEX
  8
0
  5
10BB7
 10
89.6294
 20
2.01468
 30
0.000000
  70
    32
  0
VERTEX
  8
0
  5
10BB8
 10
89.6050
 20
1.95952
 30
0.000000
  70
    32
  0
VERTEX
  8
0
  5
10BB9
 10
89.5813
 20
1.90318
 30
0.000000
  70
    32
  0
VERTEX
  8
0
  5
10BBA
 10
89.5583
 20
1.84569
 30
0.000000
  70
    32
  0
VERTEX
  8
0
  5
10BBB
 10
89.5360
 20
1.78710
 30
0.000000
  70
    32
  0
VERTEX
  8
0
  5
10BBC
 10
89.5145
 20
1.72742
 30
0.000000
  70
    32
  0
VERTEX
  8
0
  5
10BBD
 10
89.4936
 20
1.66671
 30
0.000000
  70
    32
  0
VERTEX
  8
0
  5
10BBE
 10
89.4736
 20
1.60499
 30
0.000000
  70
    32
  0
VERTEX
  8
0
  5
10BBF
 10
89.4542
 20
1.54231
 30
0.000000
  70
    32
  0
VERTEX
  8
0
  5
10BC0
 10
89.4357
 20
1.47869
 30
0.000000
  70
    32
  0
VERTEX
  8
0
  5
10BC1
 10
89.4180
 20
1.41419
 30
0.000000
  70
    32
  0
VERTEX
  8
0
  5
10BC2
 10
89.4010
 20
1.34883
 30
0.000000
  70
    32
  0
VERTEX
  8
0
  5
10BC3
 10
89.3849
 20
1.28267
 30
0.000000
  70
    32
  0
VERTEX
  8
0
  5
10BC4
 10
89.3695
 20
1.21572
 30
0.000000
  70
    32
  0
VERTEX
  8
0
  5
10BC5
 10
89.3550
 20
1.14805
 30
0.000000
  70
    32
  0
VERTEX
  8
0
  5
10BC6
 10
89.3414
 20
1.07969
 30
0.000000
  70
    32
  0
VERTEX
  8
0
  5
10BC7
 10
89.3285
 20
1.01067
 30
0.000000
  70
    32
  0
VERTEX
  8
0
  5
10BC8
 10
89.3165
 20
0.941045
 30
0.000000
  70
    32
  0
VERTEX
  8
0
  5
10BC9
 10
89.3054
 20
0.870854
 30
0.000000
  70
    32
  0
VERTEX
  8
0
  5
10BCA
 10
89.2952
 20
0.800138
 30
0.000000
  70
    32
  0
VERTEX
  8
0
  5
10BCB
 10
89.2858
 20
0.728940
 30
0.000000
  70
    32
  0
VERTEX
  8
0
  5
10BCC
 10
89.2773
 20
0.657304
 30
0.000000
  70
    32
  0
VERTEX
  8
0
  5
10BCD
 10
89.2697
 20
0.585271
 30
0.000000
  70
    32
  0
VERTEX
  8
0
  5
10BCE
 10
89.2629
 20
0.512886
 30
0.000000
  70
    32
  0
VERTEX
  8
0
  5
10BCF
 10
89.2571
 20
0.440191
 30
0.000000
  70
    32
  0
VERTEX
  8
0
  5
10BD0
 10
89.2521
 20
0.367232
 30
0.000000
  70
    32
  0
VERTEX
  8
0
  5
10BD1
 10
89.2481
 20
0.294051
 30
0.000000
  70
    32
  0
VERTEX
  8
0
  5
10BD2
 10
89.2449
 20
0.220694
 30
0.000000
  70
    32
  0
VERTEX
  8
0
  5
10BD3
 10
89.2426
 20
0.147203
 30
0.000000
  70
    32
  0
VERTEX
  8
0
  5
10BD4
 10
89.2413
 20
0.0736236
 30
0.000000
  70
    32
  0
VERTEX
  8
0
  5
10BD5
 10
89.2408
 20
-3.48077e-008
 30
0.000000
  70
    32
  0
VERTEX
  8
0
  5
10BD6
 10
89.2413
 20
-0.0736237
 30
0.000000
  70
    32
  0
VERTEX
  8
0
  5
10BD7
 10
89.2426
 20
-0.147203
 30
0.000000
  70
    32
  0
VERTEX
  8
0
  5
10BD8
 10
89.2449
 20
-0.220694
 30
0.000000
  70
    32
  0
VERTEX
  8
0
  5
10BD9
 10
89.2481
 20
-0.294051
 30
0.000000
  70
    32
  0
VERTEX
  8
0
  5
10BDA
 10
89.2521
 20
-0.367232
 30
0.000000
  70
    32
  0
VERTEX
  8
0
  5
10BDB
 10
89.2571
 20
-0.440191
 30
0.000000
  70
    32
  0
VERTEX
  8
0
  5
10BDC
 10
89.2629
 20
-0.512886
 30
0.000000
  70
    32
  0
VERTEX
  8
0
  5
10BDD
 10
89.2697
 20
-0.585271
 30
0.000000
  70
    32
  0
VERTEX
  8
0
  5
10BDE
 10
89.2773
 20
-0.657304
 30
0.000000
  70
    32
  0
VERTEX
  8
0
  5
10BDF
 10
89.2858
 20
-0.728941
 30
0.000000
  70
    32
  0
VERTEX
  8
0
  5
10BE0
 10
89.2952
 20
-0.800138
 30
0.000000
  70
    32
  0
VERTEX
  8
0
  5
10BE1
 10
89.3054
 20
-0.870854
 30
0.000000
  70
    32
  0
VERTEX
  8
0
  5
10BE2
 10
89.3165
 20
-0.941045
 30
0.000000
  70
    32
  0
VERTEX
  8
0
  5
10BE3
 10
89.3285
 20
-1.01067
 30
0.000000
  70
    32
  0
VERTEX
  8
0
  5
10BE4
 10
89.3414
 20
-1.07969
 30
0.000000
  70
    32
  0
VERTEX
  8
0
  5
10BE5
 10
89.3550
 20
-1.14805
 30
0.000000
  70
    32
  0
VERTEX
  8
0
  5
10BE6
 10
89.3695
 20
-1.21572
 30
0.000000
  70
    32
  0
VERTEX
  8
0
  5
10BE7
 10
89.3849
 20
-1.28267
 30
0.000000
  70
    32
  0
VERTEX
  8
0
  5
10BE8
 10
89.4010
 20
-1.34883
 30
0.000000
  70
    32
  0
VERTEX
  8
0
  5
10BE9
 10
89.4180
 20
-1.41419
 30
0.000000
  70
    32
  0
VERTEX
  8
0
  5
10BEA
 10
89.4357
 20
-1.47869
 30
0.000000
  70
    32
  0
VERTEX
  8
0
  5
10BEB
 10
89.4542
 20
-1.54231
 30
0.000000
  70
    32
  0
VERTEX
  8
0
  5
10BEC
 10
89.4736
 20
-1.60499
 30
0.000000
  70
    32
  0
VERTEX
  8
0
  5
10BED
 10
89.4936
 20
-1.66671
 30
0.000000
  70
    32
  0
VERTEX
  8
0
  5
10BEE
 10
89.5145
 20
-1.72742
 30
0.000000
  70
    32
  0
VERTEX
  8
0
  5
10BEF
 10
89.5360
 20
-1.78710
 30
0.000000
  70
    32
  0
VERTEX
  8
0
  5
10BF0
 10
89.5583
 20
-1.84569
 30
0.000000
  70
    32
  0
VERTEX
  8
0
  5
10BF1
 10
89.5813
 20
-1.90318
 30
0.000000
  70
    32
  0
VERTEX
  8
0
  5
10BF2
 10
89.6050
 20
-1.95952
 30
0.000000
  70
    32
  0
VERTEX
  8
0
  5
10BF3
 10
89.6294
 20
-2.01468
 30
0.000000
  70
    32
  0
VERTEX
  8
0
  5
10BF4
 10
89.6545
 20
-2.06862
 30
0.000000
  70
    32
  0
VERTEX
  8
0
  5
10BF5
 10
89.6802
 20
-2.12132
 30
0.000000
  70
    32
  0
VERTEX
  8
0
  5
10BF6
 10
89.7065
 20
-2.17274
 30
0.000000
  70
    32
  0
VERTEX
  8
0
  5
10BF7
 10
89.7335
 20
-2.22285
 30
0.000000
  70
    32
  0
VERTEX
  8
0
  5
10BF8
 10
89.7611
 20
-2.27163
 30
0.000000
  70
    32
  0
VERTEX
  8
0
  5
10BF9
 10
89.7893
 20
-2.31903
 30
0.000000
  70
    32
  0
VERTEX
  8
0
  5
10BFA
 10
89.8180
 20
-2.36504
 30
0.000000
  70
    32
  0
VERTEX
  8
0
  5
10BFB
 10
89.8473
 20
-2.40962
 30
0.000000
  70
    32
  0
VERTEX
  8
0
  5
10BFC
 10
89.8771
 20
-2.45275
 30
0.000000
  70
    32
  0
VERTEX
  8
0
  5
10BFD
 10
89.9075
 20
-2.49441
 30
0.000000
  70
    32
  0
VERTEX
  8
0
  5
10BFE
 10
89.9383
 20
-2.53456
 30
0.000000
  70
    32
  0
VERTEX
  8
0
  5
10BFF
 10
89.9697
 20
-2.57319
 30
0.000000
  70
    32
  0
VERTEX
  8
0
  5
10C00
 10
90.0015
 20
-2.61026
 30
0.000000
  70
    32
  0
VERTEX
  8
0
  5
10C01
 10
90.0337
 20
-2.64576
 30
0.000000
  70
    32
  0
VERTEX
  8
0
  5
10C02
 10
90.0664
 20
-2.67967
 30
0.000000
  70
    32
  0
VERTEX
  8
0
  5
10C03
 10
90.0995
 20
-2.71197
 30
0.000000
  70
    32
  0
VERTEX
  8
0
  5
10C04
 10
90.1330
 20
-2.74263
 30
0.000000
  70
    32
  0
VERTEX
  8
0
  5
10C05
 10
90.1668
 20
-2.77164
 30
0.000000
  70
    32
  0
VERTEX
  8
0
  5
10C06
 10
90.2010
 20
-2.79898
 30
0.000000
  70
    32
  0
VERTEX
  8
0
  5
10C07
 10
90.2355
 20
-2.82463
 30
0.000000
  70
    32
  0
VERTEX
  8
0
  5
10C08
 10
90.2703
 20
-2.84858
 30
0.000000
  70
    32
  0
VERTEX
  8
0
  5
10C09
 10
90.3054
 20
-2.87082
 30
0.000000
  70
    32
  0
VERTEX
  8
0
  5
10C0A
 10
90.3408
 20
-2.89133
 30
0.000000
  70
    32
  0
VERTEX
  8
0
  5
10C0B
 10
90.3764
 20
-2.91009
 30
0.000000
  70
    32
  0
VERTEX
  8
0
  5
10C0C
 10
90.4122
 20
-2.92711
 30
0.000000
  70
    32
  0
VERTEX
  8
0
  5
10C0D
 10
90.4482
 20
-2.94236
 30
0.000000
  70
    32
  0
VERTEX
  8
0
  5
10C0E
 10
90.4844
 20
-2.95583
 30
0.000000
  70
    32
  0
VERTEX
  8
0
  5
10C0F
 10
90.5207
 20
-2.96753
 30
0.000000
  70
    32
  0
VERTEX
  8
0
  5
10C10
 10
90.5572
 20
-2.97744
 30
0.000000
  70
    32
  0
VERTEX
  8
0
  5
10C11
 10
90.5938
 20
-2.98555
 30
0.000000
  70
    32
  0
VERTEX
  8
0
  5
10C12
 10
90.6305
 20
-2.99187
 30
0.000000
  70
    32
  0
VERTEX
  8
0
  5
10C13
 10
90.6672
 20
-2.99639
 30
0.000000
  70
    32
  0
VERTEX
  8
0
  5
10C14
 10
90.7040
 20
-2.99910
 30
0.000000
  70
    32
  0
VERTEX
  8
0
  5
10C15
 10
90.7408
 20
-3.00000
 30
0.000000
  70
    32
  0
SEQEND
  8
0
  5
10C16
  0
POLYLINE
  5
FBDD
  8
0
 10
111.74084014816056
 20
-2.9999998999999997
 30
0.0
 66
     1
 70
     8
  0
VERTEX
  8
0
  5
10C17
 10
111.741
 20
-3.00000
 30
0.000000
  70
    32
  0
VERTEX
  8
0
  5
10C18
 10
111.778
 20
-2.99910
 30
0.000000
  70
    32
  0
VERTEX
  8
0
  5
10C19
 10
111.814
 20
-2.99639
 30
0.000000
  70
    32
  0
VERTEX
  8
0
  5
10C1A
 10
111.851
 20
-2.99187
 30
0.000000
  70
    32
  0
VERTEX
  8
0
  5
10C1B
 10
111.888
 20
-2.98555
 30
0.000000
  70
    32
  0
VERTEX
  8
0
  5
10C1C
 10
111.924
 20
-2.97744
 30
0.000000
  70
    32
  0
VERTEX
  8
0
  5
10C1D
 10
111.961
 20
-2.96753
 30
0.000000
  70
    32
  0
VERTEX
  8
0
  5
10C1E
 10
111.997
 20
-2.95583
 30
0.000000
  70
    32
  0
VERTEX
  8
0
  5
10C1F
 10
112.033
 20
-2.94236
 30
0.000000
  70
    32
  0
VERTEX
  8
0
  5
10C20
 10
112.069
 20
-2.92711
 30
0.000000
  70
    32
  0
VERTEX
  8
0
  5
10C21
 10
112.105
 20
-2.91009
 30
0.000000
  70
    32
  0
VERTEX
  8
0
  5
10C22
 10
112.141
 20
-2.89133
 30
0.000000
  70
    32
  0
VERTEX
  8
0
  5
10C23
 10
112.176
 20
-2.87082
 30
0.000000
  70
    32
  0
VERTEX
  8
0
  5
10C24
 10
112.211
 20
-2.84858
 30
0.000000
  70
    32
  0
VERTEX
  8
0
  5
10C25
 10
112.246
 20
-2.82463
 30
0.000000
  70
    32
  0
VERTEX
  8
0
  5
10C26
 10
112.281
 20
-2.79898
 30
0.000000
  70
    32
  0
VERTEX
  8
0
  5
10C27
 10
112.315
 20
-2.77164
 30
0.000000
  70
    32
  0
VERTEX
  8
0
  5
10C28
 10
112.349
 20
-2.74263
 30
0.000000
  70
    32
  0
VERTEX
  8
0
  5
10C29
 10
112.382
 20
-2.71197
 30
0.000000
  70
    32
  0
VERTEX
  8
0
  5
10C2A
 10
112.415
 20
-2.67967
 30
0.000000
  70
    32
  0
VERTEX
  8
0
  5
10C2B
 10
112.448
 20
-2.64576
 30
0.000000
  70
    32
  0
VERTEX
  8
0
  5
10C2C
 10
112.480
 20
-2.61026
 30
0.000000
  70
    32
  0
VERTEX
  8
0
  5
10C2D
 10
112.512
 20
-2.57319
 30
0.000000
  70
    32
  0
VERTEX
  8
0
  5
10C2E
 10
112.543
 20
-2.53456
 30
0.000000
  70
    32
  0
VERTEX
  8
0
  5
10C2F
 10
112.574
 20
-2.49441
 30
0.000000
  70
    32
  0
VERTEX
  8
0
  5
10C30
 10
112.605
 20
-2.45275
 30
0.000000
  70
    32
  0
VERTEX
  8
0
  5
10C31
 10
112.634
 20
-2.40962
 30
0.000000
  70
    32
  0
VERTEX
  8
0
  5
10C32
 10
112.664
 20
-2.36504
 30
0.000000
  70
    32
  0
VERTEX
  8
0
  5
10C33
 10
112.692
 20
-2.31903
 30
0.000000
  70
    32
  0
VERTEX
  8
0
  5
10C34
 10
112.721
 20
-2.27163
 30
0.000000
  70
    32
  0
VERTEX
  8
0
  5
10C35
 10
112.748
 20
-2.22285
 30
0.000000
  70
    32
  0
VERTEX
  8
0
  5
10C36
 10
112.775
 20
-2.17274
 30
0.000000
  70
    32
  0
VERTEX
  8
0
  5
10C37
 10
112.802
 20
-2.12132
 30
0.000000
  70
    32
  0
VERTEX
  8
0
  5
10C38
 10
112.827
 20
-2.06862
 30
0.000000
  70
    32
  0
VERTEX
  8
0
  5
10C39
 10
112.852
 20
-2.01468
 30
0.000000
  70
    32
  0
VERTEX
  8
0
  5
10C3A
 10
112.877
 20
-1.95952
 30
0.000000
  70
    32
  0
VERTEX
  8
0
  5
10C3B
 10
112.900
 20
-1.90318
 30
0.000000
  70
    32
  0
VERTEX
  8
0
  5
10C3C
 10
112.923
 20
-1.84569
 30
0.000000
  70
    32
  0
VERTEX
  8
0
  5
10C3D
 10
112.946
 20
-1.78710
 30
0.000000
  70
    32
  0
VERTEX
  8
0
  5
10C3E
 10
112.967
 20
-1.72742
 30
0.000000
  70
    32
  0
VERTEX
  8
0
  5
10C3F
 10
112.988
 20
-1.66671
 30
0.000000
  70
    32
  0
VERTEX
  8
0
  5
10C40
 10
113.008
 20
-1.60499
 30
0.000000
  70
    32
  0
VERTEX
  8
0
  5
10C41
 10
113.027
 20
-1.54231
 30
0.000000
  70
    32
  0
VERTEX
  8
0
  5
10C42
 10
113.046
 20
-1.47869
 30
0.000000
  70
    32
  0
VERTEX
  8
0
  5
10C43
 10
113.064
 20
-1.41419
 30
0.000000
  70
    32
  0
VERTEX
  8
0
  5
10C44
 10
113.081
 20
-1.34883
 30
0.000000
  70
    32
  0
VERTEX
  8
0
  5
10C45
 10
113.097
 20
-1.28267
 30
0.000000
  70
    32
  0
VERTEX
  8
0
  5
10C46
 10
113.112
 20
-1.21572
 30
0.000000
  70
    32
  0
VERTEX
  8
0
  5
10C47
 10
113.127
 20
-1.14805
 30
0.000000
  70
    32
  0
VERTEX
  8
0
  5
10C48
 10
113.140
 20
-1.07969
 30
0.000000
  70
    32
  0
VERTEX
  8
0
  5
10C49
 10
113.153
 20
-1.01067
 30
0.000000
  70
    32
  0
VERTEX
  8
0
  5
10C4A
 10
113.165
 20
-0.941045
 30
0.000000
  70
    32
  0
VERTEX
  8
0
  5
10C4B
 10
113.176
 20
-0.870854
 30
0.000000
  70
    32
  0
VERTEX
  8
0
  5
10C4C
 10
113.187
 20
-0.800138
 30
0.000000
  70
    32
  0
VERTEX
  8
0
  5
10C4D
 10
113.196
 20
-0.728940
 30
0.000000
  70
    32
  0
VERTEX
  8
0
  5
10C4E
 10
113.204
 20
-0.657304
 30
0.000000
  70
    32
  0
VERTEX
  8
0
  5
10C4F
 10
113.212
 20
-0.585271
 30
0.000000
  70
    32
  0
VERTEX
  8
0
  5
10C50
 10
113.219
 20
-0.512886
 30
0.000000
  70
    32
  0
VERTEX
  8
0
  5
10C51
 10
113.225
 20
-0.440191
 30
0.000000
  70
    32
  0
VERTEX
  8
0
  5
10C52
 10
113.230
 20
-0.367232
 30
0.000000
  70
    32
  0
VERTEX
  8
0
  5
10C53
 10
113.234
 20
-0.294051
 30
0.000000
  70
    32
  0
VERTEX
  8
0
  5
10C54
 10
113.237
 20
-0.220694
 30
0.000000
  70
    32
  0
VERTEX
  8
0
  5
10C55
 10
113.239
 20
-0.147203
 30
0.000000
  70
    32
  0
VERTEX
  8
0
  5
10C56
 10
113.240
 20
-0.0736236
 30
0.000000
  70
    32
  0
VERTEX
  8
0
  5
10C57
 10
113.241
 20
3.48077e-008
 30
0.000000
  70
    32
  0
VERTEX
  8
0
  5
10C58
 10
113.240
 20
0.0736237
 30
0.000000
  70
    32
  0
VERTEX
  8
0
  5
10C59
 10
113.239
 20
0.147203
 30
0.000000
  70
    32
  0
VERTEX
  8
0
  5
10C5A
 10
113.237
 20
0.220694
 30
0.000000
  70
    32
  0
VERTEX
  8
0
  5
10C5B
 10
113.234
 20
0.294051
 30
0.000000
  70
    32
  0
VERTEX
  8
0
  5
10C5C
 10
113.230
 20
0.367232
 30
0.000000
  70
    32
  0
VERTEX
  8
0
  5
10C5D
 10
113.225
 20
0.440191
 30
0.000000
  70
    32
  0
VERTEX
  8
0
  5
10C5E
 10
113.219
 20
0.512886
 30
0.000000
  70
    32
  0
VERTEX
  8
0
  5
10C5F
 10
113.212
 20
0.585271
 30
0.000000
  70
    32
  0
VERTEX
  8
0
  5
10C60
 10
113.204
 20
0.657304
 30
0.000000
  70
    32
  0
VERTEX
  8
0
  5
10C61
 10
113.196
 20
0.728941
 30
0.000000
  70
    32
  0
VERTEX
  8
0
  5
10C62
 10
113.187
 20
0.800138
 30
0.000000
  70
    32
  0
VERTEX
  8
0
  5
10C63
 10
113.176
 20
0.870854
 30
0.000000
  70
    32
  0
VERTEX
  8
0
  5
10C64
 10
113.165
 20
0.941045
 30
0.000000
  70
    32
  0
VERTEX
  8
0
  5
10C65
 10
113.153
 20
1.01067
 30
0.000000
  70
    32
  0
VERTEX
  8
0
  5
10C66
 10
113.140
 20
1.07969
 30
0.000000
  70
    32
  0
VERTEX
  8
0
  5
10C67
 10
113.127
 20
1.14805
 30
0.000000
  70
    32
  0
VERTEX
  8
0
  5
10C68
 10
113.112
 20
1.21572
 30
0.000000
  70
    32
  0
VERTEX
  8
0
  5
10C69
 10
113.097
 20
1.28267
 30
0.000000
  70
    32
  0
VERTEX
  8
0
  5
10C6A
 10
113.081
 20
1.34883
 30
0.000000
  70
    32
  0
VERTEX
  8
0
  5
10C6B
 10
113.064
 20
1.41419
 30
0.000000
  70
    32
  0
VERTEX
  8
0
  5
10C6C
 10
113.046
 20
1.47869
 30
0.000000
  70
    32
  0
VERTEX
  8
0
  5
10C6D
 10
113.027
 20
1.54231
 30
0.000000
  70
    32
  0
VERTEX
  8
0
  5
10C6E
 10
113.008
 20
1.60499
 30
0.000000
  70
    32
  0
VERTEX
  8
0
  5
10C6F
 10
112.988
 20
1.66671
 30
0.000000
  70
    32
  0
VERTEX
  8
0
  5
10C70
 10
112.967
 20
1.72742
 30
0.000000
  70
    32
  0
VERTEX
  8
0
  5
10C71
 10
112.946
 20
1.78710
 30
0.000000
  70
    32
  0
VERTEX
  8
0
  5
10C72
 10
112.923
 20
1.84569
 30
0.000000
  70
    32
  0
VERTEX
  8
0
  5
10C73
 10
112.900
 20
1.90318
 30
0.000000
  70
    32
  0
VERTEX
  8
0
  5
10C74
 10
112.877
 20
1.95952
 30
0.000000
  70
    32
  0
VERTEX
  8
0
  5
10C75
 10
112.852
 20
2.01468
 30
0.000000
  70
    32
  0
VERTEX
  8
0
  5
10C76
 10
112.827
 20
2.06862
 30
0.000000
  70
    32
  0
VERTEX
  8
0
  5
10C77
 10
112.802
 20
2.12132
 30
0.000000
  70
    32
  0
VERTEX
  8
0
  5
10C78
 10
112.775
 20
2.17274
 30
0.000000
  70
    32
  0
VERTEX
  8
0
  5
10C79
 10
112.748
 20
2.22285
 30
0.000000
  70
    32
  0
VERTEX
  8
0
  5
10C7A
 10
112.721
 20
2.27163
 30
0.000000
  70
    32
  0
VERTEX
  8
0
  5
10C7B
 10
112.692
 20
2.31903
 30
0.000000
  70
    32
  0
VERTEX
  8
0
  5
10C7C
 10
112.664
 20
2.36504
 30
0.000000
  70
    32
  0
VERTEX
  8
0
  5
10C7D
 10
112.634
 20
2.40962
 30
0.000000
  70
    32
  0
VERTEX
  8
0
  5
10C7E
 10
112.605
 20
2.45275
 30
0.000000
  70
    32
  0
VERTEX
  8
0
  5
10C7F
 10
112.574
 20
2.49441
 30
0.000000
  70
    32
  0
VERTEX
  8
0
  5
10C80
 10
112.543
 20
2.53456
 30
0.000000
  70
    32
  0
VERTEX
  8
0
  5
10C81
 10
112.512
 20
2.57319
 30
0.000000
  70
    32
  0
VERTEX
  8
0
  5
10C82
 10
112.480
 20
2.61026
 30
0.000000
  70
    32
  0
VERTEX
  8
0
  5
10C83
 10
112.448
 20
2.64576
 30
0.000000
  70
    32
  0
VERTEX
  8
0
  5
10C84
 10
112.415
 20
2.67967
 30
0.000000
  70
    32
  0
VERTEX
  8
0
  5
10C85
 10
112.382
 20
2.71197
 30
0.000000
  70
    32
  0
VERTEX
  8
0
  5
10C86
 10
112.349
 20
2.74263
 30
0.000000
  70
    32
  0
VERTEX
  8
0
  5
10C87
 10
112.315
 20
2.77164
 30
0.000000
  70
    32
  0
VERTEX
  8
0
  5
10C88
 10
112.281
 20
2.79898
 30
0.000000
  70
    32
  0
VERTEX
  8
0
  5
10C89
 10
112.246
 20
2.82463
 30
0.000000
  70
    32
  0
VERTEX
  8
0
  5
10C8A
 10
112.211
 20
2.84858
 30
0.000000
  70
    32
  0
VERTEX
  8
0
  5
10C8B
 10
112.176
 20
2.87082
 30
0.000000
  70
    32
  0
VERTEX
  8
0
  5
10C8C
 10
112.141
 20
2.89133
 30
0.000000
  70
    32
  0
VERTEX
  8
0
  5
10C8D
 10
112.105
 20
2.91009
 30
0.000000
  70
    32
  0
VERTEX
  8
0
  5
10C8E
 10
112.069
 20
2.92711
 30
0.000000
  70
    32
  0
VERTEX
  8
0
  5
10C8F
 10
112.033
 20
2.94236
 30
0.000000
  70
    32
  0
VERTEX
  8
0
  5
10C90
 10
111.997
 20
2.95583
 30
0.000000
  70
    32
  0
VERTEX
  8
0
  5
10C91
 10
111.961
 20
2.96753
 30
0.000000
  70
    32
  0
VERTEX
  8
0
  5
10C92
 10
111.924
 20
2.97744
 30
0.000000
  70
    32
  0
VERTEX
  8
0
  5
10C93
 10
111.888
 20
2.98555
 30
0.000000
  70
    32
  0
VERTEX
  8
0
  5
10C94
 10
111.851
 20
2.99187
 30
0.000000
  70
    32
  0
VERTEX
  8
0
  5
10C95
 10
111.814
 20
2.99639
 30
0.000000
  70
    32
  0
VERTEX
  8
0
  5
10C96
 10
111.778
 20
2.99910
 30
0.000000
  70
    32
  0
VERTEX
  8
0
  5
10C97
 10
111.741
 20
3.00000
 30
0.000000
  70
    32
  0
SEQEND
  8
0
  5
10C98
  0
ARC
  5
FBDE
  8
0
 10
101.2408401133534
 20
2.8040871053544829
 30
0.0
 40
8.0
 50
239.99999999999619
 51
299.99999999999721
  0
LINE
  5
FBE5
  8
0
  6
CENTER
 10
101.2408401133529
 20
-56.785491892155051
 30
0.0
 11
101.2408401133529
 21
32.684819983015807
 31
0.0
  0
LINE
  5
FBE6
  8
0
 10
112.2408401133529
 20
-28.800003000000061
 30
0.0
 11
112.2408401133529
 21
-49.800003000000061
 31
0.0
  0
LINE
  5
FBE7
  8
0
 10
90.240840113352988
 20
-28.800003000000061
 30
0.0
 11
90.240840113352988
 21
-49.800003000000061
 31
0.0
  0
LINE
  5
FBEB
  8
0
 10
83.990840113352988
 20
-11.203390481806309
 30
0.0
 11
90.740840113352988
 21
-7.5
 31
0.0
  0
LINE
  5
FBED
  8
0
 10
89.740840113352974
 20
-28.800003000000061
 30
0.0
 11
112.7408401133529
 21
-28.800003000000061
 31
0.0
  0
LINE
  5
FC4F
  8
0
 10
94.740840113347076
 20
28.5
 30
0.0
 11
107.7408401133579
 21
28.5
 31
0.0
  0
LINE
  5
FC50
  8
0
 10
88.240840113352988
 20
27.0
 30
0.0
 11
94.740840113352974
 21
27.0
 31
0.0
  0
LINE
  5
FC51
  8
0
 10
107.7408401133529
 20
27.0
 30
0.0
 11
114.2408401133529
 21
27.0
 31
0.0
  0
LINE
  5
FC53
  8
0
 10
88.240840113352988
 20
7.5
 30
0.0
 11
96.240840113352974
 21
7.5
 31
0.0
  0
LINE
  5
FC59
  8
0
 10
96.240840113352974
 20
-6.0
 30
0.0
 11
96.240840113352533
 21
-7.5
 31
0.0
  0
LINE
  5
FC5A
  8
0
 10
106.2408401133529
 20
-6.0
 30
0.0
 11
106.2408401133529
 21
-7.5
 31
0.0
  0
LINE
  5
FC5B
  8
0
 10
106.2408401133529
 20
-6.0
 30
0.0
 11
110.240840113353
 21
-6.0
 31
0.0
  0
LINE
  5
FC5C
  8
0
 10
96.240840113352533
 20
-7.5
 30
0.0
 11
106.2408401133529
 21
-7.5
 31
0.0
  0
LINE
  5
FC5D
  8
0
 10
107.7408401133529
 20
-7.5
 30
0.0
 11
111.7408401133529
 21
-7.5
 31
0.0
  0
LINE
  5
FC5E
  8
0
 10
83.990840113352988
 20
-23.932197999999971
 30
0.0
 11
94.740840113352533
 21
-23.932197999999861
 31
0.0
  0
LINE
  5
FC5F
  8
0
 10
94.740840113352974
 20
-25.612496949731391
 30
0.0
 11
107.7408401133529
 21
-25.612496949731391
 31
0.0
  0
LINE
  5
FC61
  8
0
 10
107.7408401133525
 20
-23.932197999999861
 30
0.0
 11
118.4908401133529
 21
-23.932197999999971
 31
0.0
  0
LINE
  5
FC62
  8
0
 10
88.740840113352974
 20
-23.932197999999971
 30
0.0
 11
88.740840113352974
 21
-27.800003000000061
 31
0.0
  0
LINE
  5
FC63
  8
0
 10
113.7408401133529
 20
-23.932197999999971
 30
0.0
 11
113.7408401133529
 21
-27.800003000000061
 31
0.0
  0
ARC
  5
FC64
  8
0
 10
89.740840113352974
 20
-27.800003000000061
 30
0.0
 40
1.0
 50
179.99998999999889
 51
270.0
  0
ARC
  5
FC65
  8
0
 10
112.7408401133529
 20
-27.800003000000061
 30
0.0
 40
1.0
 50
270.0
 51
0.0
  0
LINE
  5
FC66
  8
0
 10
90.240840113352988
 20
-49.800003000000061
 30
0.0
 11
112.2408401133529
 21
-49.800003000000061
 31
0.0
  0
LINE
  5
FEDA
  8
0
 10
83.990840113352988
 20
-23.932197999999971
 30
0.0
 11
83.990840113352988
 21
-11.203390481806309
 31
0.0
  0
LINE
  5
FEDB
  8
0
 10
118.4908401133529
 20
-11.203390481806309
 30
0.0
 11
118.4908401133529
 21
-23.932197999999971
 31
0.0
  0
LINE
  5
FEDE
  8
0
 10
118.4908401133529
 20
-11.203390481806309
 30
0.0
 11
111.7408401133529
 21
-7.5
 31
0.0
  0
LINE
  5
FEE3
  8
0
 10
96.240840113352974
 20
9.0
 30
0.0
 11
96.240840113353443
 21
7.5
 31
0.0
  0
LINE
  5
FEE4
  8
0
 10
106.2408401133529
 20
9.0
 30
0.0
 11
106.2408401133534
 21
7.5
 31
0.0
  0
LINE
  5
FEE5
  8
0
 10
106.2408401133534
 20
7.5
 30
0.0
 11
114.2408401133525
 21
7.5
 31
0.0
  0
LINE
  5
FEE6
  8
0
 10
96.240840113352974
 20
9.0
 30
0.0
 11
96.990840113352533
 21
9.0
 31
0.0
  0
LINE
  5
FEE7
  8
0
 10
107.7408401133525
 20
9.0
 30
0.0
 11
114.2408401133525
 21
9.0
 31
0.0
  0
LINE
  5
FEE8
  8
0
 10
94.740840113352974
 20
10.5
 30
0.0
 11
94.740840113352974
 21
9.0
 31
0.0
  0
LINE
  5
FEE9
  8
0
 10
107.7408401133529
 20
10.5
 30
0.0
 11
107.7408401133525
 21
9.0
 31
0.0
  0
LINE
  5
FEFF
  8
0
 10
96.990840113352533
 20
10.5
 30
0.0
 11
96.990840113352533
 21
9.0
 31
0.0
  0
LINE
  5
FF00
  8
0
 10
105.4908401133525
 20
10.5
 30
0.0
 11
105.4908401133525
 21
9.0
 31
0.0
  0
LINE
  5
FF01
  8
0
 10
105.4908401133525
 20
9.0
 30
0.0
 11
106.2408401133529
 21
9.0
 31
0.0
  0
LINE
  5
10076
  8
0
  6
CENTER
 10
85.52149289705676
 20
0.0000000000002274
 30
0.0
 11
116.9601873296496
 21
0.0000000000002274
 31
0.0
  0
LINE
  5
1007C
  8
0
  6
CENTER
 10
40.0
 20
105.4437353498397
 30
0.0
 11
40.0
 21
87.880572803673203
 31
0.0
  0
CIRCLE
  5
1009A
  8
0
 10
40.0
 20
96.662154045915244
 30
0.0
 40
4.0
  0
CIRCLE
  5
1009B
  8
0
 10
40.0
 20
96.662154045915244
 30
0.0
 40
5.5
  0
CIRCLE
  5
1009C
  8
0
 10
40.0
 20
96.662154045915244
 30
0.0
 40
3.0
  0
CIRCLE
  5
100A9
  8
0
 10
40.0
 20
0.0
 30
0.0
 40
2.9999998999996929
  0
CIRCLE
  5
100AA
  8
0
 10
-38.0
 20
0.0000000000002274
 30
0.0
 40
2.9999998999996929
  0
TEXT
  5
10262
  8
0
 10
-152.997803163752
 20
185.54815638559279
 30
0.0
 40
30.0
  1
P-HANGER(S) 2S
 72
     4
 11
41.002196836247997
 21
198.40529924273571
 31
0.0
  0
ENDSEC
  0
EOF
