  0
SECTION
  2
HEADER
  9
$ACADVER
  1
AC1015
  9
$ACADMAINTVER
 70
    14
  9
$DWGCODEPAGE
  3
ANSI_932
  9
$INSBASE
 10
0.0
 20
0.0
 30
0.0
  9
$EXTMIN
 10
821.9998164024927
 20
663.7870046177668
 30
-0.0000000000112498
  9
$EXTMAX
 10
2300.286688872759
 20
2037.659430079486
 30
0.0000000000002956
  9
$LIMMIN
 10
0.0
 20
0.0
  9
$LIMMAX
 10
12.0
 20
9.0
  9
$ORTHOMODE
 70
     0
  9
$REGENMODE
 70
     1
  9
$FILLMODE
 70
     1
  9
$QTEXTMODE
 70
     0
  9
$MIRRTEXT
 70
     1
  9
$LTSCALE
 40
1.0
  9
$ATTMODE
 70
     1
  9
$TEXTSIZE
 40
0.2
  9
$TRACEWID
 40
0.05
  9
$TEXTSTYLE
  7
STANDARD
  9
$CLAYER
  8
0
  9
$CELTYPE
  6
CONTINUOUS
  9
$CECOLOR
 62
   256
  9
$CELTSCALE
 40
1.0
  9
$DISPSILH
 70
     0
  9
$DIMSCALE
 40
1.0
  9
$DIMASZ
 40
0.18
  9
$DIMEXO
 40
0.0625
  9
$DIMDLI
 40
0.38
  9
$DIMRND
 40
0.0
  9
$DIMDLE
 40
0.0
  9
$DIMEXE
 40
0.18
  9
$DIMTP
 40
0.0
  9
$DIMTM
 40
0.0
  9
$DIMTXT
 40
0.18
  9
$DIMCEN
 40
0.09
  9
$DIMTSZ
 40
0.0
  9
$DIMTOL
 70
     0
  9
$DIMLIM
 70
     0
  9
$DIMTIH
 70
     1
  9
$DIMTOH
 70
     1
  9
$DIMSE1
 70
     0
  9
$DIMSE2
 70
     0
  9
$DIMTAD
 70
     0
  9
$DIMZIN
 70
     0
  9
$DIMBLK
  1

  9
$DIMASO
 70
     1
  9
$DIMSHO
 70
     0
  9
$DIMPOST
  1

  9
$DIMAPOST
  1

  9
$DIMALT
 70
     0
  9
$DIMALTD
 70
     2
  9
$DIMALTF
 40
25.4
  9
$DIMLFAC
 40
1.0
  9
$DIMTOFL
 70
     0
  9
$DIMTVP
 40
0.0
  9
$DIMTIX
 70
     0
  9
$DIMSOXD
 70
     0
  9
$DIMSAH
 70
     0
  9
$DIMBLK1
  1

  9
$DIMBLK2
  1

  9
$DIMSTYLE
  2
STANDARD
  9
$DIMCLRD
 70
     0
  9
$DIMCLRE
 70
     0
  9
$DIMCLRT
 70
     0
  9
$DIMTFAC
 40
1.0
  9
$DIMGAP
 40
0.09
  9
$DIMJUST
 70
     0
  9
$DIMSD1
 70
     0
  9
$DIMSD2
 70
     0
  9
$DIMTOLJ
 70
     1
  9
$DIMTZIN
 70
     0
  9
$DIMALTZ
 70
     0
  9
$DIMALTTZ
 70
     0
  9
$DIMUPT
 70
     0
  9
$DIMDEC
 70
     4
  9
$DIMTDEC
 70
     4
  9
$DIMALTU
 70
     2
  9
$DIMALTTD
 70
     2
  9
$DIMTXSTY
  7
STANDARD
  9
$DIMAUNIT
 70
     0
  9
$DIMADEC
 70
     0
  9
$DIMALTRND
 40
0.0
  9
$DIMAZIN
 70
     0
  9
$DIMDSEP
 70
    46
  9
$DIMATFIT
 70
     3
  9
$DIMFRAC
 70
     0
  9
$DIMLDRBLK
  1

  9
$DIMLUNIT
 70
     2
  9
$DIMLWD
 70
    -2
  9
$DIMLWE
 70
    -2
  9
$DIMTMOVE
 70
     2
  9
$LUNITS
 70
     2
  9
$LUPREC
 70
     4
  9
$SKETCHINC
 40
0.1
  9
$FILLETRAD
 40
0.0
  9
$AUNITS
 70
     0
  9
$AUPREC
 70
     0
  9
$MENU
  1
.
  9
$ELEVATION
 40
0.0
  9
$PELEVATION
 40
0.0
  9
$THICKNESS
 40
0.0
  9
$LIMCHECK
 70
     0
  9
$CHAMFERA
 40
0.0
  9
$CHAMFERB
 40
0.0
  9
$CHAMFERC
 40
0.0
  9
$CHAMFERD
 40
0.0
  9
$SKPOLY
 70
     0
  9
$TDCREATE
 40
2452488.423138738
  9
$TDUCREATE
 40
2452488.048138738
  9
$TDUPDATE
 40
2456906.718993310
  9
$TDUUPDATE
 40
2456906.343993310
  9
$TDINDWG
 40
0.2820197338
  9
$TDUSRTIMER
 40
0.2820195486
  9
$USRTIMER
 70
     1
  9
$ANGBASE
 50
0.0
  9
$ANGDIR
 70
     0
  9
$PDMODE
 70
     3
  9
$PDSIZE
 40
0.0
  9
$PLINEWID
 40
0.0
  9
$SPLFRAME
 70
     0
  9
$SPLINETYPE
 70
     6
  9
$SPLINESEGS
 70
     8
  9
$HANDSEED
  5
24C4
  9
$SURFTAB1
 70
     6
  9
$SURFTAB2
 70
     6
  9
$SURFTYPE
 70
     6
  9
$SURFU
 70
     6
  9
$SURFV
 70
     6
  9
$UCSBASE
  2

  9
$UCSNAME
  2

  9
$UCSORG
 10
0.0
 20
0.0
 30
0.0
  9
$UCSXDIR
 10
1.0
 20
0.0
 30
0.0
  9
$UCSYDIR
 10
0.0
 20
1.0
 30
0.0
  9
$UCSORTHOREF
  2

  9
$UCSORTHOVIEW
 70
     0
  9
$UCSORGTOP
 10
0.0
 20
0.0
 30
0.0
  9
$UCSORGBOTTOM
 10
0.0
 20
0.0
 30
0.0
  9
$UCSORGLEFT
 10
0.0
 20
0.0
 30
0.0
  9
$UCSORGRIGHT
 10
0.0
 20
0.0
 30
0.0
  9
$UCSORGFRONT
 10
0.0
 20
0.0
 30
0.0
  9
$UCSORGBACK
 10
0.0
 20
0.0
 30
0.0
  9
$PUCSBASE
  2

  9
$PUCSNAME
  2

  9
$PUCSORG
 10
0.0
 20
0.0
 30
0.0
  9
$PUCSXDIR
 10
1.0
 20
0.0
 30
0.0
  9
$PUCSYDIR
 10
0.0
 20
1.0
 30
0.0
  9
$PUCSORTHOREF
  2

  9
$PUCSORTHOVIEW
 70
     0
  9
$PUCSORGTOP
 10
0.0
 20
0.0
 30
0.0
  9
$PUCSORGBOTTOM
 10
0.0
 20
0.0
 30
0.0
  9
$PUCSORGLEFT
 10
0.0
 20
0.0
 30
0.0
  9
$PUCSORGRIGHT
 10
0.0
 20
0.0
 30
0.0
  9
$PUCSORGFRONT
 10
0.0
 20
0.0
 30
0.0
  9
$PUCSORGBACK
 10
0.0
 20
0.0
 30
0.0
  9
$USERI1
 70
     0
  9
$USERI2
 70
     0
  9
$USERI3
 70
     0
  9
$USERI4
 70
     0
  9
$USERI5
 70
     0
  9
$USERR1
 40
0.0
  9
$USERR2
 40
0.0
  9
$USERR3
 40
0.0
  9
$USERR4
 40
0.0
  9
$USERR5
 40
0.0
  9
$WORLDVIEW
 70
     1
  9
$SHADEDGE
 70
     3
  9
$SHADEDIF
 70
    70
  9
$TILEMODE
 70
     1
  9
$MAXACTVP
 70
    48
  9
$PINSBASE
 10
0.0
 20
0.0
 30
0.0
  9
$PLIMCHECK
 70
     0
  9
$PEXTMIN
 10
1.000000000000000E+20
 20
1.000000000000000E+20
 30
1.000000000000000E+20
  9
$PEXTMAX
 10
-1.000000000000000E+20
 20
-1.000000000000000E+20
 30
-1.000000000000000E+20
  9
$PLIMMIN
 10
0.0
 20
0.0
  9
$PLIMMAX
 10
12.0
 20
9.0
  9
$UNITMODE
 70
     0
  9
$VISRETAIN
 70
     1
  9
$PLINEGEN
 70
     0
  9
$PSLTSCALE
 70
     1
  9
$TREEDEPTH
 70
  3020
  9
$CMLSTYLE
  2
Standard
  9
$CMLJUST
 70
     0
  9
$CMLSCALE
 40
1.0
  9
$PROXYGRAPHICS
 70
     1
  9
$MEASUREMENT
 70
     0
  9
$CELWEIGHT
370
    -1
  9
$ENDCAPS
280
     0
  9
$JOINSTYLE
280
     0
  9
$LWDISPLAY
290
     0
  9
$INSUNITS
 70
     0
  9
$HYPERLINKBASE
  1

  9
$STYLESHEET
  1

  9
$XEDIT
290
     1
  9
$CEPSNTYPE
380
     0
  9
$PSTYLEMODE
290
     1
  9
$FINGERPRINTGUID
  2
{FFE95C04-33D2-4560-80D0-1E2918E4EC86}
  9
$VERSIONGUID
  2
{646BD9F6-12B1-44FA-9203-67E163F42389}
  9
$EXTNAMES
290
     1
  9
$PSVPSCALE
 40
0.0
  9
$OLESTARTUP
290
     0
  0
ENDSEC
  0
SECTION
  2
CLASSES
  0
CLASS
  1
ACDBDICTIONARYWDFLT
  2
AcDbDictionaryWithDefault
  3
AutoCAD 2000
 90
        0
280
     0
281
     0
  0
CLASS
  1
ACDBPLACEHOLDER
  2
AcDbPlaceHolder
  3
AutoCAD 2000
 90
        0
280
     0
281
     0
  0
CLASS
  1
LAYOUT
  2
AcDbLayout
  3
AutoCAD 2000
 90
        0
280
     0
281
     0
  0
CLASS
  1
DICTIONARYVAR
  2
AcDbDictionaryVar
  3
AutoCAD 2000
 90
        0
280
     0
281
     0
  0
CLASS
  1
LONG_TRANSACTION
  2
AcDbLongTransaction
  3
AutoCAD 2000
 90
    32768
280
     0
281
     0
  0
CLASS
  1
LWPOLYLINE
  2
AcDbPolyline
  3
AutoCAD 2000
 90
    32768
280
     0
281
     1
  0
CLASS
  1
HATCH
  2
AcDbHatch
  3
AutoCAD 2000
 90
    32768
280
     0
281
     1
  0
CLASS
  1
XRECORD
  2
AcDbXrecord
  3
AutoCAD 2000
 90
    32768
280
     0
281
     0
  0
ENDSEC
  0
SECTION
  2
TABLES
  0
TABLE
  2
VPORT
  5
21B6
330
0
100
AcDbSymbolTable
 70
     2
  0
VPORT
  5
24C3
330
21B6
100
AcDbSymbolTableRecord
100
AcDbViewportTableRecord
  2
*Active
 70
     0
 10
0.0
 20
0.0
 11
1.0
 21
1.0
 12
1561.143252637626
 22
1350.723217348626
 13
0.0
 23
0.0
 14
1.0
 24
1.0
 15
0.0
 25
0.0
 16
0.0
 26
0.0
 36
1.0
 17
0.0
 27
0.0
 37
0.0
 40
1382.595424988461
 41
1.953389830508474
 42
50.0
 43
0.0
 44
0.0
 50
0.0
 51
0.0
 71
     0
 72
   100
 73
     1
 74
     3
 75
     0
 76
     0
 77
     0
 78
     0
281
     0
 65
     1
110
0.0
120
0.0
130
0.0
111
1.0
121
0.0
131
0.0
112
0.0
122
1.0
132
0.0
 79
     0
146
0.0
  0
ENDTAB
  0
TABLE
  2
LTYPE
  5
21B3
330
0
100
AcDbSymbolTable
 70
     2
  0
LTYPE
  5
21C1
330
21B3
100
AcDbSymbolTableRecord
100
AcDbLinetypeTableRecord
  2
ByBlock
 70
     0
  3

 72
    65
 73
     0
 40
0.0
  0
LTYPE
  5
21C2
330
21B3
100
AcDbSymbolTableRecord
100
AcDbLinetypeTableRecord
  2
ByLayer
 70
     0
  3

 72
    65
 73
     0
 40
0.0
  0
LTYPE
  5
21C3
330
21B3
100
AcDbSymbolTableRecord
100
AcDbLinetypeTableRecord
  2
CONTINUOUS
 70
     0
  3
Solid line
 72
    65
 73
     0
 40
0.0
  0
LTYPE
  5
2268
330
21B3
100
AcDbSymbolTableRecord
100
AcDbLinetypeTableRecord
  2
CENTER
 70
     0
  3
Center ____ _ ____ _ ____ _ ____ _ ____ _ ____
 72
    65
 73
     4
 40
2.0
 49
1.25
 74
     0
 49
-0.25
 74
     0
 49
0.25
 74
     0
 49
-0.25
 74
     0
  0
ENDTAB
  0
TABLE
  2
LAYER
  5
21B0
102
{ACAD_XDICTIONARY
360
2244
102
}
330
0
100
AcDbSymbolTable
 70
     1
  0
LAYER
  5
21BE
330
21B0
100
AcDbSymbolTableRecord
100
AcDbLayerTableRecord
  2
0
 70
     0
 62
     7
  6
CONTINUOUS
370
    -3
390
21BD
  0
ENDTAB
  0
TABLE
  2
STYLE
  5
21B1
330
0
100
AcDbSymbolTable
 70
     1
  0
STYLE
  5
21BF
330
21B1
100
AcDbSymbolTableRecord
100
AcDbTextStyleTableRecord
  2
STANDARD
 70
     0
 40
0.0
 41
1.0
 50
0.0
 71
     0
 42
0.2
  3
txt
  4
BIGFONT
  0
ENDTAB
  0
TABLE
  2
VIEW
  5
21B4
330
0
100
AcDbSymbolTable
 70
     1
  0
VIEW
  5
21DE
330
21B4
100
AcDbSymbolTableRecord
100
AcDbViewTableRecord
  2
OLE1
 70
     0
 40
3692.141019219747
 10
1914.591370701856
 20
1272.206200738182
 41
4595.022665841169
 11
0.0
 21
0.0
 31
1.0
 12
0.0
 22
0.0
 32
0.0
 42
50.0
 43
0.0
 44
0.0
 50
0.0
 71
     0
281
     0
 72
     1
110
0.0
120
0.0
130
0.0
111
1.0
121
0.0
131
0.0
112
0.0
122
1.0
132
0.0
 79
     0
146
0.0
  0
ENDTAB
  0
TABLE
  2
UCS
  5
21B5
330
0
100
AcDbSymbolTable
 70
     0
  0
ENDTAB
  0
TABLE
  2
APPID
  5
21B7
330
0
100
AcDbSymbolTable
 70
    13
  0
APPID
  5
21C0
330
21B7
100
AcDbSymbolTableRecord
100
AcDbRegAppTableRecord
  2
ACAD
 70
     0
  0
APPID
  5
21DF
330
21B7
100
AcDbSymbolTableRecord
100
AcDbRegAppTableRecord
  2
MCAD_NO_VIS
 70
     0
  0
APPID
  5
21E0
330
21B7
100
AcDbSymbolTableRecord
100
AcDbRegAppTableRecord
  2
ACAD_TEMP_GRAPHIC
 70
     0
  0
APPID
  5
21E1
330
21B7
100
AcDbSymbolTableRecord
100
AcDbRegAppTableRecord
  2
ACATTRIBSERVICES
 70
     0
  0
APPID
  5
21E2
330
21B7
100
AcDbSymbolTableRecord
100
AcDbRegAppTableRecord
  2
CONTENTBLOCKICON
 70
     0
  0
APPID
  5
2241
330
21B7
100
AcDbSymbolTableRecord
100
AcDbRegAppTableRecord
  2
ACAD_DSTYLE_DIMJAG
 70
     0
  0
APPID
  5
2242
330
21B7
100
AcDbSymbolTableRecord
100
AcDbRegAppTableRecord
  2
ACAD_DSTYLE_DIMTALN
 70
     0
  0
APPID
  5
2243
330
21B7
100
AcDbSymbolTableRecord
100
AcDbRegAppTableRecord
  2
ACAD_PSEXT
 70
     0
  0
APPID
  5
226A
330
21B7
100
AcDbSymbolTableRecord
100
AcDbRegAppTableRecord
  2
ACAD_DSTYLE_DIMBREAK
 70
     0
  0
APPID
  5
226B
330
21B7
100
AcDbSymbolTableRecord
100
AcDbRegAppTableRecord
  2
ACAD_DSTYLE_DIMARC_LENGTH_SYMBOL
 70
     0
  0
APPID
  5
226C
330
21B7
100
AcDbSymbolTableRecord
100
AcDbRegAppTableRecord
  2
ACAD_DSTYLE_DIM_LINETYPE
 70
     0
  0
APPID
  5
226D
330
21B7
100
AcDbSymbolTableRecord
100
AcDbRegAppTableRecord
  2
ACAD_DSTYLE_DIM_EXT1_LINETYPE
 70
     0
  0
APPID
  5
226E
330
21B7
100
AcDbSymbolTableRecord
100
AcDbRegAppTableRecord
  2
ACAD_DSTYLE_DIM_EXT2_LINETYPE
 70
     0
  0
ENDTAB
  0
TABLE
  2
DIMSTYLE
  5
21B8
330
0
100
AcDbSymbolTable
 70
     1
100
AcDbDimStyleTable
 71
     1
340
21E3
  0
DIMSTYLE
105
21E3
330
21B8
100
AcDbSymbolTableRecord
100
AcDbDimStyleTableRecord
  2
STANDARD
 70
     0
279
     2
340
21BF
  0
ENDTAB
  0
TABLE
  2
BLOCK_RECORD
  5
21AF
330
0
100
AcDbSymbolTable
 70
     0
  0
BLOCK_RECORD
  5
21CC
102
{ACAD_XDICTIONARY
360
21F8
102
}
330
21AF
100
AcDbSymbolTableRecord
100
AcDbBlockTableRecord
  2
*Model_Space
340
21CF
  0
BLOCK_RECORD
  5
21C8
102
{ACAD_XDICTIONARY
360
21FA
102
}
330
21AF
100
AcDbSymbolTableRecord
100
AcDbBlockTableRecord
  2
*Paper_Space
340
21CB
  0
ENDTAB
  0
ENDSEC
  0
SECTION
  2
BLOCKS
  0
BLOCK
  5
21CD
330
21CC
100
AcDbEntity
  8
0
100
AcDbBlockBegin
  2
*Model_Space
 70
     0
 10
0.0
 20
0.0
 30
0.0
  3
*Model_Space
  1

  0
ENDBLK
  5
21CE
330
21CC
100
AcDbEntity
  8
0
100
AcDbBlockEnd
  0
BLOCK
  5
21C9
330
21C8
100
AcDbEntity
 67
     1
  8
0
100
AcDbBlockBegin
  2
*Paper_Space
 70
     0
 10
0.0
 20
0.0
 30
0.0
  3
*Paper_Space
  1

  0
ENDBLK
  5
21CA
330
21C8
100
AcDbEntity
 67
     1
  8
0
100
AcDbBlockEnd
  0
ENDSEC
  0
SECTION
  2
ENTITIES
  0
LINE
  5
2391
330
21CC
100
AcDbEntity
  8
0
  6
CENTER
 48
10.0
100
AcDbLine
 10
1724.031057608906
 20
1593.285982343906
 30
0.0
 11
822.0367060382159
 21
1593.285982343905
 31
0.0
  0
LINE
  5
2392
330
21CC
100
AcDbEntity
  8
0
  6
CENTER
 48
10.0
100
AcDbLine
 10
2210.136303574662
 20
1044.135780756968
 30
0.0
 11
2210.136303574662
 21
1291.556424268471
 31
0.0
  0
LINE
  5
2393
330
21CC
100
AcDbEntity
  8
0
  6
CENTER
 48
10.0
100
AcDbLine
 10
2104.636303574662
 20
1166.520031101487
 30
0.0
 11
2104.636303574662
 21
758.2426976058315
 31
0.0
  0
LINE
  5
2394
330
21CC
100
AcDbEntity
  8
0
  6
CENTER
 48
10.0
100
AcDbLine
 10
2300.251578036513
 20
953.8579720676825
 30
0.0
 11
1909.021029112811
 21
953.8579720676821
 31
0.0
  0
LINE
  5
2395
330
21CC
100
AcDbEntity
  8
0
  6
CENTER
 48
10.0
100
AcDbLine
 10
1531.885296494583
 20
1044.135780756968
 30
0.0
 11
1531.885296494583
 21
1291.556424268471
 31
0.0
  0
LINE
  5
2396
330
21CC
100
AcDbEntity
  8
0
  6
CENTER
 48
10.0
100
AcDbLine
 10
1724.031057608906
 20
953.8579720676821
 30
0.0
 11
822.0367060382159
 21
953.8579720676821
 31
0.0
  0
LINE
  5
2397
330
21CC
100
AcDbEntity
  8
0
  6
CENTER
 48
10.0
100
AcDbLine
 10
1531.885296494583
 20
1631.119212609062
 30
0.0
 11
1531.885296494583
 21
1766.452752078749
 31
0.0
  0
LINE
  5
2398
330
21CC
100
AcDbEntity
  8
0
  6
CENTER
 48
10.0
100
AcDbLine
 10
1456.533717156694
 20
1698.785982343905
 30
0.0
 11
1607.236875832471
 21
1698.785982343905
 31
0.0
  0
TEXT
  5
2399
330
21CC
100
AcDbEntity
  8
0
  6
Continuous
100
AcDbText
 10
917.2920106005092
 20
1989.628325901258
 30
0.0
 40
48.000002
  1
EZB2__110___　4SX4S
 41
0.8449620000000001
100
AcDbText
  0
LINE
  5
239A
330
21CC
100
AcDbEntity
  8
0
100
AcDbLine
 10
1577.785290391067
 20
1660.925177277154
 30
0.0
 11
1577.785290391067
 21
1433.285982343906
 31
0.0
  0
CIRCLE
  5
239B
330
21CC
100
AcDbEntity
  8
0
100
AcDbCircle
 10
1531.885296494583
 20
1698.785982343905
 30
0.0
 40
50.79998779296958
  0
CIRCLE
  5
239C
330
21CC
100
AcDbEntity
  8
0
100
AcDbCircle
 10
1531.885296494583
 20
1698.785982343905
 30
0.0
 40
59.5
  0
LINE
  5
239D
330
21CC
100
AcDbEntity
  8
0
100
AcDbLine
 10
2176.38630357466
 20
1123.857956808893
 30
0.0
 11
2243.88630357466
 21
1123.857956808893
 31
0.0
  0
LINE
  5
239E
330
21CC
100
AcDbEntity
  8
0
100
AcDbLine
 10
2269.636303574662
 20
1246.007946294902
 30
0.0
 11
2260.93629136763
 21
1242.841400700401
 31
0.0
  0
LINE
  5
239F
330
21CC
100
AcDbEntity
  8
0
100
AcDbLine
 10
2269.636303574662
 20
1248.857956808893
 30
0.0
 11
2269.636303574662
 21
1246.007946294902
 31
0.0
  0
LINE
  5
23A0
330
21CC
100
AcDbEntity
  8
0
100
AcDbLine
 10
2150.63630357466
 20
1246.007964640305
 30
0.0
 11
2159.336315781692
 21
1242.841419045805
 31
0.0
  0
LINE
  5
23A1
330
21CC
100
AcDbEntity
  8
0
100
AcDbLine
 10
2150.63630357466
 20
1248.857956808893
 30
0.0
 11
2150.63630357466
 21
1246.007964640305
 31
0.0
  0
LINE
  5
23A2
330
21CC
100
AcDbEntity
  8
0
100
AcDbLine
 10
2159.336315781692
 20
1242.841419045805
 30
0.0
 11
2260.93629136763
 21
1242.841400700401
 31
0.0
  0
LINE
  5
23A3
330
21CC
100
AcDbEntity
  8
0
100
AcDbLine
 10
2150.63630357466
 20
1248.857956808893
 30
0.0
 11
2269.636303574662
 21
1248.857956808893
 31
0.0
  0
LINE
  5
23A4
330
21CC
100
AcDbEntity
  8
0
100
AcDbLine
 10
2159.336315781692
 20
1228.857956808893
 30
0.0
 11
2260.93629136763
 21
1228.857956808893
 31
0.0
  0
LINE
  5
23A5
330
21CC
100
AcDbEntity
  8
0
100
AcDbLine
 10
2159.336315781692
 20
1242.841419045805
 30
0.0
 11
2159.336315781692
 21
1228.857956808893
 31
0.0
  0
LINE
  5
23A6
330
21CC
100
AcDbEntity
  8
0
100
AcDbLine
 10
2260.93629136763
 20
1242.841400700401
 30
0.0
 11
2260.93629136763
 21
1228.857956808893
 31
0.0
  0
LINE
  5
23A7
330
21CC
100
AcDbEntity
  8
0
100
AcDbLine
 10
2159.336315781692
 20
1228.857956808893
 30
0.0
 11
2176.38630357466
 21
1123.857956808893
 31
0.0
  0
LINE
  5
23A8
330
21CC
100
AcDbEntity
  8
0
100
AcDbLine
 10
2243.88630357466
 20
1123.857956808893
 30
0.0
 11
2260.93629136763
 21
1228.857956808893
 31
0.0
  0
LINE
  5
23A9
330
21CC
100
AcDbEntity
  8
0
100
AcDbLine
 10
1565.635296494582
 20
1123.857956808893
 30
0.0
 11
1582.685284287552
 21
1228.857956808893
 31
0.0
  0
LINE
  5
23AA
330
21CC
100
AcDbEntity
  8
0
100
AcDbLine
 10
1481.085308701612
 20
1228.857956808893
 30
0.0
 11
1498.135296494583
 21
1123.857956808893
 31
0.0
  0
LINE
  5
23AB
330
21CC
100
AcDbEntity
  8
0
100
AcDbLine
 10
1565.635296494582
 20
1123.857956808893
 30
0.0
 11
1498.135296494583
 21
1123.857956808893
 31
0.0
  0
LINE
  5
23AC
330
21CC
100
AcDbEntity
  8
0
100
AcDbLine
 10
1498.135296494583
 20
1099.858004722149
 30
0.0
 11
1550.702491772002
 21
1099.858004722149
 31
0.0
  0
LINE
  5
23AD
330
21CC
100
AcDbEntity
  8
0
100
AcDbLine
 10
1591.385296494583
 20
1248.857956808893
 30
0.0
 11
1591.385296494583
 21
1246.007946294902
 31
0.0
  0
LINE
  5
23AE
330
21CC
100
AcDbEntity
  8
0
100
AcDbLine
 10
1591.385296494583
 20
1246.007946294902
 30
0.0
 11
1582.685284287552
 21
1242.841400700401
 31
0.0
  0
LINE
  5
23AF
330
21CC
100
AcDbEntity
  8
0
100
AcDbLine
 10
1582.685284287552
 20
1242.841400700401
 30
0.0
 11
1582.685284287552
 21
1228.857956808893
 31
0.0
  0
LINE
  5
23B0
330
21CC
100
AcDbEntity
  8
0
100
AcDbLine
 10
1481.085308701612
 20
1242.841419045805
 30
0.0
 11
1481.085308701612
 21
1228.857956808893
 31
0.0
  0
LINE
  5
23B1
330
21CC
100
AcDbEntity
  8
0
100
AcDbLine
 10
1472.385296494582
 20
1248.857956808893
 30
0.0
 11
1472.385296494582
 21
1246.007964640305
 31
0.0
  0
LINE
  5
23B2
330
21CC
100
AcDbEntity
  8
0
100
AcDbLine
 10
1472.385296494582
 20
1246.007964640305
 30
0.0
 11
1481.085308701612
 21
1242.841419045805
 31
0.0
  0
LINE
  5
23B3
330
21CC
100
AcDbEntity
  8
0
100
AcDbLine
 10
1472.385296494582
 20
1248.857956808893
 30
0.0
 11
1591.385296494583
 21
1248.857956808893
 31
0.0
  0
LINE
  5
23B4
330
21CC
100
AcDbEntity
  8
0
100
AcDbLine
 10
1481.085308701612
 20
1228.857956808893
 30
0.0
 11
1582.685284287552
 21
1228.857956808893
 31
0.0
  0
LINE
  5
23B5
330
21CC
100
AcDbEntity
  8
0
100
AcDbLine
 10
1481.085308701612
 20
1242.841419045805
 30
0.0
 11
1582.685284287552
 21
1242.841400700401
 31
0.0
  0
LINE
  5
23B6
330
21CC
100
AcDbEntity
  8
0
100
AcDbLine
 10
1612.000050217726
 20
1753.785982343906
 30
0.0
 11
1594.885311753372
 21
1753.785982343906
 31
0.0
  0
LINE
  5
23B7
330
21CC
100
AcDbEntity
  8
0
100
AcDbLine
 10
1612.000043848797
 20
1753.78597764975
 30
0.0
 11
1615.885311250953
 21
1768.285992874061
 31
0.0
  0
LINE
  5
23B8
330
21CC
100
AcDbEntity
  8
0
100
AcDbLine
 10
1622.885311753372
 20
1768.285982343906
 30
0.0
 11
1615.885311753372
 21
1768.285982343906
 31
0.0
  0
LINE
  5
23B9
330
21CC
100
AcDbEntity
  8
0
100
AcDbLine
 10
1612.000050217726
 20
1732.785982343906
 30
0.0
 11
1594.885311753372
 21
1732.785982343906
 31
0.0
  0
LINE
  5
23BA
330
21CC
100
AcDbEntity
  8
0
100
AcDbLine
 10
1615.885296881151
 20
1718.285976259334
 30
0.0
 11
1612.00003342826
 21
1732.785976744787
 31
0.0
  0
LINE
  5
23BB
330
21CC
100
AcDbEntity
  8
0
100
AcDbLine
 10
1622.885311753372
 20
1718.285982343906
 30
0.0
 11
1615.885311753372
 21
1718.285982343906
 31
0.0
  0
LINE
  5
23BC
330
21CC
100
AcDbEntity
  8
0
100
AcDbLine
 10
1622.885311753372
 20
1718.285982343906
 30
0.0
 11
1622.885311753372
 21
1768.285982343906
 31
0.0
  0
LINE
  5
23BD
330
21CC
100
AcDbEntity
  8
0
100
AcDbLine
 10
1558.145408023269
 20
1752.177522333879
 30
0.0
 11
1558.78537779622
 21
1753.285982343906
 31
0.0
  0
LINE
  5
23BE
330
21CC
100
AcDbEntity
  8
0
100
AcDbLine
 10
1558.78537779622
 20
1753.285982343906
 30
0.0
 11
1594.885311753372
 21
1753.285982343906
 31
0.0
  0
LINE
  5
23BF
330
21CC
100
AcDbEntity
  8
0
100
AcDbLine
 10
1660.468507852963
 20
1644.085970136874
 30
0.0
 11
1636.885052353958
 21
1644.085970136874
 31
0.0
  0
LINE
  5
23C0
330
21CC
100
AcDbEntity
  8
0
100
AcDbLine
 10
1629.604920060257
 20
1646.585878584142
 30
0.0
 11
1635.441742570023
 21
1646.585878584142
 31
0.0
  0
LINE
  5
23C1
330
21CC
100
AcDbEntity
  8
0
100
AcDbLine
 10
1636.885115795261
 20
1644.085993319526
 30
0.0
 11
1635.441756539861
 21
1646.585965159656
 31
0.0
  0
LINE
  5
23C2
330
21CC
100
AcDbEntity
  8
0
100
AcDbLine
 10
1666.485050828079
 20
1652.785982343905
 30
0.0
 11
1663.635053447466
 21
1652.785982343905
 31
0.0
  0
LINE
  5
23C3
330
21CC
100
AcDbEntity
  8
0
100
AcDbLine
 10
1663.635053447466
 20
1652.785982343905
 30
0.0
 11
1660.468507852963
 21
1644.085970136874
 31
0.0
  0
LINE
  5
23C4
330
21CC
100
AcDbEntity
  8
0
100
AcDbLine
 10
1660.468507852963
 20
1542.485994550938
 30
0.0
 11
1636.885052353958
 21
1542.485994550938
 31
0.0
  0
LINE
  5
23C5
330
21CC
100
AcDbEntity
  8
0
100
AcDbLine
 10
1636.885115795261
 20
1542.485971368289
 30
0.0
 11
1635.441756539861
 21
1539.985999528157
 31
0.0
  0
LINE
  5
23C6
330
21CC
100
AcDbEntity
  8
0
100
AcDbLine
 10
1629.604920060257
 20
1539.986086103673
 30
0.0
 11
1635.441742570023
 21
1539.986086103673
 31
0.0
  0
LINE
  5
23C7
330
21CC
100
AcDbEntity
  8
0
100
AcDbLine
 10
1663.635053447466
 20
1533.785982343906
 30
0.0
 11
1660.468507852963
 21
1542.485994550938
 31
0.0
  0
LINE
  5
23C8
330
21CC
100
AcDbEntity
  8
0
100
AcDbLine
 10
1666.485050828079
 20
1533.785982343906
 30
0.0
 11
1663.635053447466
 21
1533.785982343906
 31
0.0
  0
LINE
  5
23C9
330
21CC
100
AcDbEntity
  8
0
100
AcDbLine
 10
1629.604894893318
 20
1539.985980504159
 30
0.0
 11
1594.885307209594
 21
1490.401270988984
 31
0.0
  0
LINE
  5
23CA
330
21CC
100
AcDbEntity
  8
0
100
AcDbLine
 10
1660.468507852963
 20
1644.085970136874
 30
0.0
 11
1660.468507852963
 21
1542.485994550938
 31
0.0
  0
LINE
  5
23CB
330
21CC
100
AcDbEntity
  8
0
100
AcDbLine
 10
1636.885129179768
 20
1644.085970136874
 30
0.0
 11
1636.885129179768
 21
1542.485994550938
 31
0.0
  0
LINE
  5
23CC
330
21CC
100
AcDbEntity
  8
0
100
AcDbLine
 10
1666.485050828079
 20
1652.785982343905
 30
0.0
 11
1666.485050828079
 21
1533.785982343906
 31
0.0
  0
LINE
  5
23CD
330
21CC
100
AcDbEntity
  8
0
100
AcDbLine
 10
1629.604894893318
 20
1646.585984183652
 30
0.0
 11
1594.885307209594
 21
1696.170693698828
 31
0.0
  0
LINE
  5
23CE
330
21CC
100
AcDbEntity
  8
0
100
AcDbLine
 10
1459.485212461379
 20
1510.285984251256
 30
0.0
 11
1528.085297257523
 21
1510.285984251256
 31
0.0
  0
LINE
  5
23CF
330
21CC
100
AcDbEntity
  8
0
100
AcDbLine
 10
1459.485212461379
 20
1676.285980436559
 30
0.0
 11
1476.803539858021
 21
1676.285980436559
 31
0.0
  0
LINE
  5
23D0
330
21CC
100
AcDbEntity
  8
0
100
AcDbLine
 10
1459.48521246138
 20
1771.786043379066
 30
0.0
 11
888.4852124613805
 21
1771.786043379063
 31
0.0
  0
LINE
  5
23D1
330
21CC
100
AcDbEntity
  8
0
100
AcDbLine
 10
1459.48521246138
 20
1593.285982343908
 30
0.0
 11
888.4852124613805
 21
1593.285982343906
 31
0.0
  0
TEXT
  5
23D2
330
21CC
100
AcDbEntity
  8
0
  6
Continuous
100
AcDbText
 10
917.2920106005092
 20
1900.817656923776
 30
0.0
 40
48.000002
  1
EZB2__150___　4SX4S
 41
0.8449620000000001
100
AcDbText
  0
ARC
  5
23D3
330
21CC
100
AcDbEntity
  8
0
100
AcDbCircle
 10
2264.939164144781
 20
960.7831655949011
 30
0.0
 40
10.0
100
AcDbArc
 50
129.000001586172
 51
182.9999996737653
  0
LINE
  5
23D4
330
21CC
100
AcDbEntity
  8
0
100
AcDbLine
 10
2254.952884457844
 20
960.259778659517
 30
0.0
 11
2255.363791136774
 21
952.4192136800222
 31
0.0
  0
LINE
  5
23D5
330
21CC
100
AcDbEntity
  8
0
100
AcDbLine
 10
2264.108630463927
 20
972.9781248335953
 30
0.0
 11
2258.645942317903
 21
968.5545273952264
 31
0.0
  0
LINE
  5
23D6
330
21CC
100
AcDbEntity
  8
0
100
AcDbLine
 10
2257.641573386875
 20
1003.403235115301
 30
0.0
 11
2264.108630463927
 21
972.9781248335953
 31
0.0
  0
LINE
  5
23D7
330
21CC
100
AcDbEntity
  8
0
100
AcDbLine
 10
2254.636364609817
 20
811.8579720676828
 30
0.0
 11
2254.636364609817
 21
793.8579720676829
 31
0.0
  0
LINE
  5
23D8
330
21CC
100
AcDbEntity
  8
0
100
AcDbLine
 10
2243.886309881979
 20
1099.857989667405
 30
0.0
 11
2244.886289381497
 21
1098.858010167889
 31
0.0
  0
LINE
  5
23D9
330
21CC
100
AcDbEntity
  8
0
100
AcDbLine
 10
2175.386303574661
 20
1098.857911032526
 30
0.0
 11
2175.386303574661
 21
1097.365593816494
 31
0.0
  0
LINE
  5
23DA
330
21CC
100
AcDbEntity
  8
0
100
AcDbLine
 10
2176.386398913371
 20
1099.857946509031
 30
0.0
 11
2175.386365465887
 21
1098.857913061548
 31
0.0
  0
LINE
  5
23DB
330
21CC
100
AcDbEntity
  8
0
100
AcDbLine
 10
2243.88630357466
 20
1099.857972067682
 30
0.0
 11
2176.386364609816
 21
1099.857972067682
 31
0.0
  0
LINE
  5
23DC
330
21CC
100
AcDbEntity
  8
0
100
AcDbLine
 10
2247.937567489612
 20
951.2430154929004
 30
0.0
 11
2241.47050926883
 21
981.6681311554319
 31
0.0
  0
LINE
  5
23DD
330
21CC
100
AcDbEntity
  8
0
100
AcDbLine
 10
2241.47050926883
 20
981.6681311554319
 30
0.0
 11
2246.933067195624
 21
986.091623144348
 31
0.0
  0
ARC
  5
23DE
330
21CC
100
AcDbEntity
  8
0
100
AcDbCircle
 10
2240.639927676644
 20
993.8631170458776
 30
0.0
 40
10.0
100
AcDbArc
 50
308.9999999923079
 51
2.999994664802933
  0
LINE
  5
23DF
330
21CC
100
AcDbEntity
  8
0
100
AcDbLine
 10
2250.626231750821
 20
994.38650510387
 30
0.0
 11
2250.21532699825
 21
1002.227033326286
 31
0.0
  0
LINE
  5
23E0
330
21CC
100
AcDbEntity
  8
0
100
AcDbLine
 10
2244.886303574662
 20
1098.857972067682
 30
0.0
 11
2244.886303574662
 21
1030.864059489392
 31
0.0
  0
LINE
  5
23E1
330
21CC
100
AcDbEntity
  8
0
100
AcDbLine
 10
2151.405800930067
 20
1089.337506886166
 30
0.0
 11
2120.471365526348
 21
1092.588846819579
 31
0.0
  0
ARC
  5
23E2
330
21CC
100
AcDbEntity
  8
0
100
AcDbCircle
 10
2108.616580901913
 20
1095.567374670325
 30
0.0
 40
10.0
100
AcDbArc
 50
20.99999999230872
 51
74.99999466480719
  0
LINE
  5
23E3
330
21CC
100
AcDbEntity
  8
0
100
AcDbLine
 10
2120.471365526348
 20
1092.588846819579
 30
0.0
 11
2117.952397877647
 21
1099.15098233055
 31
0.0
  0
ARC
  5
23E4
330
21CC
100
AcDbEntity
  8
0
100
AcDbCircle
 10
2147.586361307081
 20
1108.455054682893
 30
0.0
 40
10.0
100
AcDbArc
 50
201.0000015861717
 51
254.9999996737654
  0
LINE
  5
23E5
330
21CC
100
AcDbEntity
  8
0
100
AcDbLine
 10
2144.998201728677
 20
1098.795802855421
 30
0.0
 11
2152.581999290751
 21
1096.763730505838
 31
0.0
  0
LINE
  5
23E6
330
21CC
100
AcDbEntity
  8
0
100
AcDbLine
 10
2151.405800930067
 20
1089.337506886166
 30
0.0
 11
2152.581999290751
 21
1096.763730505838
 31
0.0
  0
LINE
  5
23E7
330
21CC
100
AcDbEntity
  8
0
100
AcDbLine
 10
2135.73161683538
 20
1111.433619864182
 30
0.0
 11
2138.250644532516
 21
1104.871327921687
 31
0.0
  0
LINE
  5
23E8
330
21CC
100
AcDbEntity
  8
0
100
AcDbLine
 10
2103.620984939982
 20
1107.258712861443
 30
0.0
 11
2104.797186902565
 21
1114.684959222578
 31
0.0
  0
LINE
  5
23E9
330
21CC
100
AcDbEntity
  8
0
100
AcDbLine
 10
2104.797186902565
 20
1114.684959222578
 30
0.0
 11
2135.73161683538
 21
1111.433619864182
 31
0.0
  0
LINE
  5
23EA
330
21CC
100
AcDbEntity
  8
0
100
AcDbLine
 10
2111.204746948723
 20
1105.226650038348
 30
0.0
 11
2103.620984939982
 21
1107.258712861443
 31
0.0
  0
LINE
  5
23EB
330
21CC
100
AcDbEntity
  8
0
100
AcDbLine
 10
2173.369431565566
 20
832.3147208645576
 30
0.0
 11
2179.264445678538
 21
828.4864537516989
 31
0.0
  0
LINE
  5
23EC
330
21CC
100
AcDbEntity
  8
0
100
AcDbLine
 10
2195.624406734134
 20
830.3509551356654
 30
0.0
 11
2199.037877448553
 21
823.6516414577708
 31
0.0
  0
LINE
  5
23ED
330
21CC
100
AcDbEntity
  8
0
100
AcDbLine
 10
2188.29459782862
 20
827.5373050275536
 30
0.0
 11
2195.624406734134
 21
830.3509551356654
 31
0.0
  0
ARC
  5
23EE
330
21CC
100
AcDbEntity
  8
0
100
AcDbCircle
 10
2184.710888535599
 20
836.8731087864324
 30
0.0
 40
10.0
100
AcDbArc
 50
236.9999999923094
 51
290.9999946648055
  0
LINE
  5
23EF
330
21CC
100
AcDbEntity
  8
0
100
AcDbLine
 10
2172.100308596543
 20
808.0992285506075
 30
0.0
 11
2166.205153955222
 21
811.9275869236453
 31
0.0
  0
ARC
  5
23F0
330
21CC
100
AcDbEntity
  8
0
100
AcDbCircle
 10
2160.758862168412
 20
803.540894430964
 30
0.0
 40
10.0
100
AcDbArc
 50
57.00000158617013
 51
110.9999996737631
  0
LINE
  5
23F1
330
21CC
100
AcDbEntity
  8
0
100
AcDbLine
 10
2182.636729602049
 20
814.1585320561153
 30
0.0
 11
2194.636305800015
 21
799.857994680714
 31
0.0
  0
LINE
  5
23F2
330
21CC
100
AcDbEntity
  8
0
100
AcDbLine
 10
2194.636364609818
 20
799.8579720676829
 30
0.0
 11
2194.636364609818
 21
793.8579720676829
 31
0.0
  0
LINE
  5
23F3
330
21CC
100
AcDbEntity
  8
0
100
AcDbLine
 10
2199.037877448553
 20
823.6516414577708
 30
0.0
 11
2172.100308596543
 21
808.0992285506075
 31
0.0
  0
LINE
  5
23F4
330
21CC
100
AcDbEntity
  8
0
100
AcDbLine
 10
2146.431857949516
 20
816.762305206878
 30
0.0
 11
2149.845318210834
 21
810.0630120443545
 31
0.0
  0
LINE
  5
23F5
330
21CC
100
AcDbEntity
  8
0
100
AcDbLine
 10
2146.431857949516
 20
816.762305206878
 30
0.0
 11
2173.369431565566
 21
832.3147208645576
 31
0.0
  0
LINE
  5
23F6
330
21CC
100
AcDbEntity
  8
0
100
AcDbLine
 10
2157.175161479126
 20
812.8766753431019
 30
0.0
 11
2149.845318210834
 21
810.0630120443545
 31
0.0
  0
LINE
  5
23F7
330
21CC
100
AcDbEntity
  8
0
100
AcDbLine
 10
2283.136364609818
 20
793.8579720676829
 30
0.0
 11
2194.636364609818
 21
793.8579720676829
 31
0.0
  0
LINE
  5
23F8
330
21CC
100
AcDbEntity
  8
0
100
AcDbLine
 10
2230.029845596824
 20
854.4775936263812
 30
0.0
 11
2254.636300849496
 21
811.8579636995319
 31
0.0
  0
LINE
  5
23F9
330
21CC
100
AcDbEntity
  8
0
100
AcDbLine
 10
2247.937567489612
 20
951.2430154929004
 30
0.0
 11
2255.363791136774
 21
952.4192136800222
 31
0.0
  0
LINE
  5
23FA
330
21CC
100
AcDbEntity
  8
0
100
AcDbLine
 10
2250.21532699825
 20
1002.227033326286
 30
0.0
 11
2257.641573386875
 21
1003.403235115301
 31
0.0
  0
LINE
  5
23FB
330
21CC
100
AcDbEntity
  8
0
100
AcDbLine
 10
2283.136364609818
 20
1101.028926660041
 30
0.0
 11
2244.886303574662
 21
1111.277999710755
 31
0.0
  0
LINE
  5
23FC
330
21CC
100
AcDbEntity
  8
0
100
AcDbLine
 10
2176.38630357466
 20
1129.632519546125
 30
0.0
 11
2104.636322957079
 21
1148.857869070694
 31
0.0
  0
LINE
  5
23FD
330
21CC
100
AcDbEntity
  8
0
100
AcDbLine
 10
2176.38630357466
 20
1123.857956808893
 30
0.0
 11
2176.38630357466
 21
1099.857911032525
 31
0.0
  0
LINE
  5
23FE
330
21CC
100
AcDbEntity
  8
0
100
AcDbLine
 10
2243.88630357466
 20
1123.857956808893
 30
0.0
 11
2243.88630357466
 21
1099.857972067682
 31
0.0
  0
LINE
  5
23FF
330
21CC
100
AcDbEntity
  8
0
100
AcDbLine
 10
2284.136364609817
 20
753.8579720676828
 30
0.0
 11
2284.136364609817
 21
738.1881112278387
 31
0.0
  0
LINE
  5
2400
330
21CC
100
AcDbEntity
  8
0
100
AcDbLine
 10
2284.136364609817
 20
753.8579720676828
 30
0.0
 11
2283.136364609818
 21
753.8579720676828
 31
0.0
  0
LINE
  5
2401
330
21CC
100
AcDbEntity
  8
0
100
AcDbLine
 10
2276.636242539505
 20
728.8579720676828
 30
0.0
 11
2276.636242539505
 21
703.8582162083079
 31
0.0
  0
LINE
  5
2402
330
21CC
100
AcDbEntity
  8
0
100
AcDbLine
 10
2284.136313696426
 20
738.1880775422358
 30
0.0
 11
2281.636319448269
 21
728.8579720676828
 31
0.0
  0
LINE
  5
2403
330
21CC
100
AcDbEntity
  8
0
100
AcDbLine
 10
2289.13648668013
 20
669.857972067683
 30
0.0
 11
2289.13648668013
 21
663.857972067683
 31
0.0
  0
LINE
  5
2404
330
21CC
100
AcDbEntity
  8
0
100
AcDbLine
 10
2253.63648668013
 20
669.857972067683
 30
0.0
 11
2253.63648668013
 21
703.8582162083079
 31
0.0
  0
LINE
  5
2405
330
21CC
100
AcDbEntity
  8
0
100
AcDbLine
 10
2269.636242539505
 20
669.857972067683
 30
0.0
 11
2269.636242539505
 21
703.8582162083079
 31
0.0
  0
ARC
  5
2406
330
21CC
100
AcDbEntity
  8
0
100
AcDbCircle
 10
2224.136364609818
 20
738.8579720676829
 30
0.0
 40
15.0
100
AcDbArc
 50
357.6236438758513
 51
89.99999749552477
  0
LINE
  5
2407
330
21CC
100
AcDbEntity
  8
0
100
AcDbLine
 10
2246.63648668013
 20
728.8579720676828
 30
0.0
 11
2246.63648668013
 21
703.8582162083079
 31
0.0
  0
LINE
  5
2408
330
21CC
100
AcDbEntity
  8
0
100
AcDbLine
 10
2239.123464993526
 20
738.2360218376349
 30
0.0
 11
2241.636305877026
 21
728.8579720676835
 31
0.0
  0
LINE
  5
2409
330
21CC
100
AcDbEntity
  8
0
100
AcDbLine
 10
2224.136364609818
 20
753.8579720676828
 30
0.0
 11
2201.636364609818
 21
753.8579720676828
 31
0.0
  0
LINE
  5
240A
330
21CC
100
AcDbEntity
  8
0
100
AcDbLine
 10
2234.136364609818
 20
669.857972067683
 30
0.0
 11
2234.136364609818
 21
663.857972067683
 31
0.0
  0
LINE
  5
240B
330
21CC
100
AcDbEntity
  8
0
100
AcDbLine
 10
2246.636608750443
 20
703.8582162083079
 30
0.0
 11
2276.636242539505
 21
703.8582162083079
 31
0.0
  0
LINE
  5
240C
330
21CC
100
AcDbEntity
  8
0
100
AcDbLine
 10
2289.13648668013
 20
663.857972067683
 30
0.0
 11
2234.136364609818
 21
663.857972067683
 31
0.0
  0
LINE
  5
240D
330
21CC
100
AcDbEntity
  8
0
100
AcDbLine
 10
2241.636305877026
 20
728.8579720676835
 30
0.0
 11
2281.636319448269
 21
728.8579720676828
 31
0.0
  0
LINE
  5
240E
330
21CC
100
AcDbEntity
  8
0
100
AcDbLine
 10
2289.13648668013
 20
669.857972067683
 30
0.0
 11
2234.136364609818
 21
669.857972067683
 31
0.0
  0
LINE
  5
240F
330
21CC
100
AcDbEntity
  8
0
100
AcDbLine
 10
2283.136364609818
 20
1101.028926660041
 30
0.0
 11
2283.136364609818
 21
753.8579720676828
 31
0.0
  0
LINE
  5
2410
330
21CC
100
AcDbEntity
  8
0
100
AcDbLine
 10
2201.636364609818
 20
793.8579720676829
 30
0.0
 11
2201.636364609818
 21
753.8579720676828
 31
0.0
  0
LINE
  5
2411
330
21CC
100
AcDbEntity
  8
0
100
AcDbLine
 10
1990.240178662101
 20
1040.203885940313
 30
0.0
 11
1983.540885579355
 21
1043.617346358206
 31
0.0
  0
ARC
  5
2412
330
21CC
100
AcDbEntity
  8
0
100
AcDbCircle
 10
1970.878038501948
 20
1042.479030158242
 30
0.0
 40
10.0
100
AcDbArc
 50
273.0000015861668
 51
326.9999996737617
  0
LINE
  5
2413
330
21CC
100
AcDbEntity
  8
0
100
AcDbLine
 10
1964.381937171346
 20
1032.124925439288
 30
0.0
 11
1971.401470052803
 21
1032.492803413096
 31
0.0
  0
ARC
  5
2414
330
21CC
100
AcDbEntity
  8
0
100
AcDbCircle
 10
1971.092626145573
 20
1001.434054423363
 30
0.0
 40
10.0
100
AcDbArc
 50
92.99999999230889
 51
146.999994664805
  0
LINE
  5
2415
330
21CC
100
AcDbEntity
  8
0
100
AcDbLine
 10
1977.588704380596
 20
1011.788208865609
 30
0.0
 11
1970.569338830347
 21
1011.420339661257
 31
0.0
  0
LINE
  5
2416
330
21CC
100
AcDbEntity
  8
0
100
AcDbLine
 10
1990.240178662101
 20
1040.203885940313
 30
0.0
 11
1977.588704380596
 21
1011.788208865609
 31
0.0
  0
LINE
  5
2417
330
21CC
100
AcDbEntity
  8
0
100
AcDbLine
 10
1979.26474760112
 20
1037.032671158352
 30
0.0
 11
1983.540885579355
 21
1043.617346358206
 31
0.0
  0
LINE
  5
2418
330
21CC
100
AcDbEntity
  8
0
100
AcDbLine
 10
1958.429778725433
 20
1000.295782519035
 30
0.0
 11
1951.730465127316
 21
1003.709253390032
 31
0.0
  0
LINE
  5
2419
330
21CC
100
AcDbEntity
  8
0
100
AcDbLine
 10
1962.705896656852
 20
1006.880426849505
 30
0.0
 11
1958.429778725433
 21
1000.295782519035
 31
0.0
  0
LINE
  5
241A
330
21CC
100
AcDbEntity
  8
0
100
AcDbLine
 10
1951.730465127316
 20
1003.709253390032
 30
0.0
 11
1964.381937171346
 21
1032.124925439288
 31
0.0
  0
LINE
  5
241B
330
21CC
100
AcDbEntity
  8
0
100
AcDbLine
 10
1987.166112842015
 20
871.7431468121548
 30
0.0
 11
1981.849523655596
 21
866.4265577499934
 31
0.0
  0
LINE
  5
241C
330
21CC
100
AcDbEntity
  8
0
100
AcDbLine
 10
1986.790522606539
 20
860.3249323220254
 30
0.0
 11
1981.849523655596
 21
866.4265577499934
 31
0.0
  0
LINE
  5
241D
330
21CC
100
AcDbEntity
  8
0
100
AcDbLine
 10
2010.350044688289
 20
835.2589733191379
 30
0.0
 11
2015.291020475511
 21
829.157376495983
 31
0.0
  0
LINE
  5
241E
330
21CC
100
AcDbEntity
  8
0
100
AcDbLine
 10
2026.635877547271
 20
814.1585320561153
 30
0.0
 11
2014.636301349309
 21
799.857994680714
 31
0.0
  0
LINE
  5
241F
330
21CC
100
AcDbEntity
  8
0
100
AcDbLine
 10
2014.636242539505
 20
799.8579720676829
 30
0.0
 11
2014.636242539505
 21
793.8579720676829
 31
0.0
  0
LINE
  5
2420
330
21CC
100
AcDbEntity
  8
0
100
AcDbLine
 10
1986.859024806111
 20
844.6539616507395
 30
0.0
 11
1988.678307014866
 21
851.4436146847604
 31
0.0
  0
LINE
  5
2421
330
21CC
100
AcDbEntity
  8
0
100
AcDbLine
 10
2009.974415007998
 20
823.8407711527313
 30
0.0
 11
1986.859024806111
 21
844.6539616507395
 31
0.0
  0
LINE
  5
2422
330
21CC
100
AcDbEntity
  8
0
100
AcDbLine
 10
2015.291020475511
 20
829.157376495983
 30
0.0
 11
2009.974415007998
 21
823.8407711527313
 31
0.0
  0
ARC
  5
2423
330
21CC
100
AcDbEntity
  8
0
100
AcDbCircle
 10
2018.121494613581
 20
841.5522054124185
 30
0.0
 40
10.0
100
AcDbArc
 50
164.9999999923107
 51
218.9999946648055
  0
LINE
  5
2424
330
21CC
100
AcDbEntity
  8
0
100
AcDbLine
 10
2010.281507131968
 20
850.929952633237
 30
0.0
 11
2008.462268291154
 21
844.14046145056
 31
0.0
  0
LINE
  5
2425
330
21CC
100
AcDbEntity
  8
0
100
AcDbLine
 10
1987.166112842015
 20
871.7431468121548
 30
0.0
 11
2010.281507131968
 21
850.929952633237
 31
0.0
  0
ARC
  5
2426
330
21CC
100
AcDbEntity
  8
0
100
AcDbCircle
 10
1979.019091751088
 20
854.0317154714166
 30
0.0
 40
10.0
100
AcDbArc
 50
345.0000015861713
 51
38.99999967376216
  0
LINE
  5
2427
330
21CC
100
AcDbEntity
  8
0
100
AcDbLine
 10
1954.636242539504
 20
811.8579720676828
 30
0.0
 11
1954.636242539504
 21
793.8579720676829
 31
0.0
  0
LINE
  5
2428
330
21CC
100
AcDbEntity
  8
0
100
AcDbLine
 10
1926.136242539504
 20
793.8579720676829
 30
0.0
 11
2014.636242539505
 21
793.8579720676829
 31
0.0
  0
LINE
  5
2429
330
21CC
100
AcDbEntity
  8
0
100
AcDbLine
 10
1979.2427615525
 20
854.4775936263812
 30
0.0
 11
1954.63630629983
 21
811.8579636995319
 31
0.0
  0
LINE
  5
242A
330
21CC
100
AcDbEntity
  8
0
100
AcDbLine
 10
1813.636242539504
 20
1070.857972067682
 30
0.0
 11
1813.636242539504
 21
881.8579720676824
 31
0.0
  0
LINE
  5
242B
330
21CC
100
AcDbEntity
  8
0
100
AcDbLine
 10
1813.636323256591
 20
881.857990166136
 30
0.0
 11
1926.136242539504
 21
851.7137273930591
 31
0.0
  0
LINE
  5
242C
330
21CC
100
AcDbEntity
  8
0
100
AcDbLine
 10
1813.636242539504
 20
1070.857972067682
 30
0.0
 11
1926.136242539504
 21
1070.857972067682
 31
0.0
  0
LINE
  5
242D
330
21CC
100
AcDbEntity
  8
0
100
AcDbLine
 10
1622.885311753372
 20
1468.285982343906
 30
0.0
 11
1622.885311753372
 21
1418.285982343905
 31
0.0
  0
LINE
  5
242E
330
21CC
100
AcDbEntity
  8
0
100
AcDbLine
 10
1612.000043848797
 20
1432.785987038062
 30
0.0
 11
1615.885311250953
 21
1418.285971813751
 31
0.0
  0
LINE
  5
242F
330
21CC
100
AcDbEntity
  8
0
100
AcDbLine
 10
1612.000050217726
 20
1453.785982343906
 30
0.0
 11
1594.885311753372
 21
1453.785982343906
 31
0.0
  0
LINE
  5
2430
330
21CC
100
AcDbEntity
  8
0
100
AcDbLine
 10
1612.000050217726
 20
1432.785982343905
 30
0.0
 11
1594.885311753372
 21
1432.785982343905
 31
0.0
  0
LINE
  5
2431
330
21CC
100
AcDbEntity
  8
0
100
AcDbLine
 10
1615.885296881151
 20
1468.28598842848
 30
0.0
 11
1612.00003342826
 21
1453.785987943027
 31
0.0
  0
LINE
  5
2432
330
21CC
100
AcDbEntity
  8
0
100
AcDbLine
 10
1622.885311753372
 20
1418.285982343905
 30
0.0
 11
1615.885311753372
 21
1418.285982343905
 31
0.0
  0
LINE
  5
2433
330
21CC
100
AcDbEntity
  8
0
100
AcDbLine
 10
1622.885311753372
 20
1468.285982343906
 30
0.0
 11
1615.885311753372
 21
1468.285982343906
 31
0.0
  0
LINE
  5
2434
330
21CC
100
AcDbEntity
  8
0
100
AcDbLine
 10
1547.242473270871
 20
1453.278876706552
 30
0.0
 11
1558.78537779622
 21
1433.285982343906
 31
0.0
  0
ARC
  5
2435
330
21CC
100
AcDbEntity
  8
0
100
AcDbCircle
 10
1550.885296494582
 20
1475.785982343906
 30
0.0
 40
22.79999923706055
100
AcDbArc
 50
179.999994991043
 51
260.8062821040716
  0
LINE
  5
2436
330
21CC
100
AcDbEntity
  8
0
100
AcDbLine
 10
1558.78537779622
 20
1433.285982343906
 30
0.0
 11
1594.885311753372
 21
1433.285982343906
 31
0.0
  0
LINE
  5
2437
330
21CC
100
AcDbEntity
  8
0
100
AcDbLine
 10
1622.885311753372
 20
1128.857972067682
 30
0.0
 11
1615.885311753372
 21
1128.857972067682
 31
0.0
  0
LINE
  5
2438
330
21CC
100
AcDbEntity
  8
0
100
AcDbLine
 10
1612.000050217726
 20
1114.357972067682
 30
0.0
 11
1594.885311753372
 21
1114.357972067682
 31
0.0
  0
LINE
  5
2439
330
21CC
100
AcDbEntity
  8
0
100
AcDbLine
 10
1612.000050217726
 20
1093.357972067682
 30
0.0
 11
1594.885311753372
 21
1093.357972067682
 31
0.0
  0
LINE
  5
243A
330
21CC
100
AcDbEntity
  8
0
100
AcDbLine
 10
1615.885296881151
 20
1078.857965983109
 30
0.0
 11
1612.00003342826
 21
1093.357966468563
 31
0.0
  0
LINE
  5
243B
330
21CC
100
AcDbEntity
  8
0
100
AcDbLine
 10
1622.885311753372
 20
1078.857972067682
 30
0.0
 11
1615.885311753372
 21
1078.857972067682
 31
0.0
  0
LINE
  5
243C
330
21CC
100
AcDbEntity
  8
0
100
AcDbLine
 10
1660.468507852963
 20
1004.657959860651
 30
0.0
 11
1636.885052353958
 21
1004.657959860651
 31
0.0
  0
LINE
  5
243D
330
21CC
100
AcDbEntity
  8
0
100
AcDbLine
 10
1629.604920060257
 20
1007.157868307918
 30
0.0
 11
1635.441742570023
 21
1007.157868307918
 31
0.0
  0
LINE
  5
243E
330
21CC
100
AcDbEntity
  8
0
100
AcDbLine
 10
1636.885115795261
 20
1004.657983043301
 30
0.0
 11
1635.441756539861
 21
1007.157954883431
 31
0.0
  0
LINE
  5
243F
330
21CC
100
AcDbEntity
  8
0
100
AcDbLine
 10
1666.485050828079
 20
1013.357972067682
 30
0.0
 11
1663.635053447466
 21
1013.357972067682
 31
0.0
  0
LINE
  5
2440
330
21CC
100
AcDbEntity
  8
0
100
AcDbLine
 10
1663.635053447466
 20
1013.357972067682
 30
0.0
 11
1660.468507852963
 21
1004.657959860651
 31
0.0
  0
LINE
  5
2441
330
21CC
100
AcDbEntity
  8
0
100
AcDbLine
 10
1629.604894893318
 20
1007.157973907429
 30
0.0
 11
1594.885307209594
 21
1056.742683422605
 31
0.0
  0
LINE
  5
2442
330
21CC
100
AcDbEntity
  8
0
100
AcDbLine
 10
1547.242473270871
 20
1093.865077705038
 30
0.0
 11
1558.78537779622
 21
1113.857972067682
 31
0.0
  0
LINE
  5
2443
330
21CC
100
AcDbEntity
  8
0
100
AcDbLine
 10
1498.13529185575
 20
1099.858000083318
 30
0.0
 11
1497.135317751029
 21
1098.858025978596
 31
0.0
  0
ARC
  5
2444
330
21CC
100
AcDbEntity
  8
0
100
AcDbCircle
 10
1550.885296494582
 20
1071.357972067682
 30
0.0
 40
22.79999923706055
100
AcDbArc
 50
99.1937178959283
 51
180.0000050089569
  0
LINE
  5
2445
330
21CC
100
AcDbEntity
  8
0
100
AcDbLine
 10
1503.785412461382
 20
1028.857972067682
 30
0.0
 11
1528.085297257523
 21
1028.857972067682
 31
0.0
  0
LINE
  5
2446
330
21CC
100
AcDbEntity
  8
0
100
AcDbLine
 10
1497.135296494582
 20
1098.857956808893
 30
0.0
 11
1497.135296494582
 21
1029.113715629961
 31
0.0
  0
LINE
  5
2447
330
21CC
100
AcDbEntity
  8
0
100
AcDbLine
 10
1558.78537779622
 20
1113.857972067682
 30
0.0
 11
1594.885311753372
 21
1113.857972067682
 31
0.0
  0
LINE
  5
2448
330
21CC
100
AcDbEntity
  8
0
100
AcDbLine
 10
1660.468507852963
 20
903.0579842747147
 30
0.0
 11
1636.885052353958
 21
903.0579842747147
 31
0.0
  0
LINE
  5
2449
330
21CC
100
AcDbEntity
  8
0
100
AcDbLine
 10
1636.885115795261
 20
903.0579610920639
 30
0.0
 11
1635.441756539861
 21
900.5579892519325
 31
0.0
  0
LINE
  5
244A
330
21CC
100
AcDbEntity
  8
0
100
AcDbLine
 10
1629.604920060257
 20
900.5580758274492
 30
0.0
 11
1635.441742570023
 21
900.5580758274492
 31
0.0
  0
LINE
  5
244B
330
21CC
100
AcDbEntity
  8
0
100
AcDbLine
 10
1663.635053447466
 20
894.3579720676824
 30
0.0
 11
1660.468507852963
 21
903.0579842747147
 31
0.0
  0
LINE
  5
244C
330
21CC
100
AcDbEntity
  8
0
100
AcDbLine
 10
1666.485050828079
 20
894.3579720676824
 30
0.0
 11
1663.635053447466
 21
894.3579720676824
 31
0.0
  0
LINE
  5
244D
330
21CC
100
AcDbEntity
  8
0
100
AcDbLine
 10
1622.885311753372
 20
828.8579720676828
 30
0.0
 11
1622.885311753372
 21
778.8579720676829
 31
0.0
  0
LINE
  5
244E
330
21CC
100
AcDbEntity
  8
0
100
AcDbLine
 10
1612.000043848797
 20
793.3579767618404
 30
0.0
 11
1615.885311250953
 21
778.8579615375273
 31
0.0
  0
LINE
  5
244F
330
21CC
100
AcDbEntity
  8
0
100
AcDbLine
 10
1612.000050217726
 20
814.3579720676829
 30
0.0
 11
1594.885311753372
 21
814.3579720676829
 31
0.0
  0
LINE
  5
2450
330
21CC
100
AcDbEntity
  8
0
100
AcDbLine
 10
1612.000050217726
 20
793.3579720676829
 30
0.0
 11
1594.885311753372
 21
793.3579720676829
 31
0.0
  0
LINE
  5
2451
330
21CC
100
AcDbEntity
  8
0
100
AcDbLine
 10
1615.885296881151
 20
828.8579781522555
 30
0.0
 11
1612.00003342826
 21
814.3579776668028
 31
0.0
  0
LINE
  5
2452
330
21CC
100
AcDbEntity
  8
0
100
AcDbLine
 10
1622.885311753372
 20
778.8579720676829
 30
0.0
 11
1615.885311753372
 21
778.8579720676829
 31
0.0
  0
LINE
  5
2453
330
21CC
100
AcDbEntity
  8
0
100
AcDbLine
 10
1622.885311753372
 20
828.8579720676828
 30
0.0
 11
1615.885311753372
 21
828.8579720676828
 31
0.0
  0
LINE
  5
2454
330
21CC
100
AcDbEntity
  8
0
100
AcDbLine
 10
1629.604894893318
 20
900.5579702279375
 30
0.0
 11
1594.885307209594
 21
850.9732607127617
 31
0.0
  0
LINE
  5
2455
330
21CC
100
AcDbEntity
  8
0
100
AcDbLine
 10
1547.242473270871
 20
813.850866430328
 30
0.0
 11
1558.78537779622
 21
793.8579720676829
 31
0.0
  0
ARC
  5
2456
330
21CC
100
AcDbEntity
  8
0
100
AcDbCircle
 10
1550.885296494582
 20
836.3579720676824
 30
0.0
 40
22.79999923706055
100
AcDbArc
 50
179.999994991043
 51
260.8062821040716
  0
LINE
  5
2457
330
21CC
100
AcDbEntity
  8
0
100
AcDbLine
 10
1558.78537779622
 20
793.8579720676829
 30
0.0
 11
1594.885311753372
 21
793.8579720676829
 31
0.0
  0
LINE
  5
2458
330
21CC
100
AcDbEntity
  8
0
100
AcDbLine
 10
1528.085297257523
 20
836.3579720676824
 30
0.0
 11
1528.085297257523
 21
1071.357970074443
 31
0.0
  0
LINE
  5
2459
330
21CC
100
AcDbEntity
  8
0
100
AcDbLine
 10
1660.468507852963
 20
1004.657959860651
 30
0.0
 11
1660.468507852963
 21
903.0579842747147
 31
0.0
  0
LINE
  5
245A
330
21CC
100
AcDbEntity
  8
0
100
AcDbLine
 10
1636.885129179768
 20
1004.657959860651
 30
0.0
 11
1636.885129179768
 21
903.0579842747147
 31
0.0
  0
LINE
  5
245B
330
21CC
100
AcDbEntity
  8
0
100
AcDbLine
 10
1666.485050828079
 20
1013.357972067682
 30
0.0
 11
1666.485050828079
 21
894.3579720676824
 31
0.0
  0
LINE
  5
245C
330
21CC
100
AcDbEntity
  8
0
100
AcDbLine
 10
1594.885311753372
 20
1114.357972067682
 30
0.0
 11
1594.885311753372
 21
793.3579720676829
 31
0.0
  0
LINE
  5
245D
330
21CC
100
AcDbEntity
  8
0
100
AcDbLine
 10
1558.785378129105
 20
794.8579720676828
 30
0.0
 11
1558.785378129105
 21
1113.857972067682
 31
0.0
  0
LINE
  5
245E
330
21CC
100
AcDbEntity
  8
0
100
AcDbLine
 10
1577.785290391067
 20
1113.857972067682
 30
0.0
 11
1577.785290391067
 21
793.8579720676829
 31
0.0
  0
LINE
  5
245F
330
21CC
100
AcDbEntity
  8
0
100
AcDbLine
 10
1459.48521246138
 20
870.8579739750312
 30
0.0
 11
1528.085297257523
 21
870.8579739750312
 31
0.0
  0
LINE
  5
2460
330
21CC
100
AcDbEntity
  8
0
100
AcDbLine
 10
1466.98521246138
 20
793.8579720676829
 30
0.0
 11
1459.48521246138
 21
793.8579720676829
 31
0.0
  0
LINE
  5
2461
330
21CC
100
AcDbEntity
  8
0
100
AcDbLine
 10
1503.7853403944
 20
1028.85794470883
 30
0.0
 11
1459.48521246138
 21
1030.561795795879
 31
0.0
  0
LINE
  5
2462
330
21CC
100
AcDbEntity
  8
0
100
AcDbLine
 10
1498.135296494583
 20
1123.857956808893
 30
0.0
 11
1498.135296494583
 21
1099.85800258526
 31
0.0
  0
LINE
  5
2463
330
21CC
100
AcDbEntity
  8
0
100
AcDbLine
 10
1565.635296494582
 20
1123.857956808893
 30
0.0
 11
1565.635296494582
 21
1113.857972067682
 31
0.0
  0
LINE
  5
2464
330
21CC
100
AcDbEntity
  8
0
100
AcDbLine
 10
1612.000043848797
 20
1114.357967373525
 30
0.0
 11
1615.885311250953
 21
1128.857982597837
 31
0.0
  0
LINE
  5
2465
330
21CC
100
AcDbEntity
  8
0
100
AcDbLine
 10
1622.885311753372
 20
1078.857972067682
 30
0.0
 11
1622.885311753372
 21
1128.857972067682
 31
0.0
  0
ARC
  5
2466
330
21CC
100
AcDbEntity
  8
0
100
AcDbCircle
 10
1985.136242539504
 20
738.8579720676829
 30
0.0
 40
15.0
100
AcDbArc
 50
90.0000025044752
 51
182.3763561241486
  0
LINE
  5
2467
330
21CC
100
AcDbEntity
  8
0
100
AcDbLine
 10
1985.136242539504
 20
753.8579720676828
 30
0.0
 11
2007.636242539507
 21
753.8579720676828
 31
0.0
  0
LINE
  5
2468
330
21CC
100
AcDbEntity
  8
0
100
AcDbLine
 10
1962.636120469191
 20
728.8579720676828
 30
0.0
 11
1962.636120469191
 21
703.8582162083079
 31
0.0
  0
LINE
  5
2469
330
21CC
100
AcDbEntity
  8
0
100
AcDbLine
 10
1970.149142155796
 20
738.2360218376349
 30
0.0
 11
1967.636301272297
 21
728.8579720676835
 31
0.0
  0
LINE
  5
246A
330
21CC
100
AcDbEntity
  8
0
100
AcDbLine
 10
1975.136242539505
 20
669.857972067683
 30
0.0
 11
1975.136242539505
 21
663.857972067683
 31
0.0
  0
LINE
  5
246B
330
21CC
100
AcDbEntity
  8
0
100
AcDbLine
 10
1925.136242539505
 20
753.8579720676828
 30
0.0
 11
1926.136242539504
 21
753.8579720676828
 31
0.0
  0
LINE
  5
246C
330
21CC
100
AcDbEntity
  8
0
100
AcDbLine
 10
1925.136242539505
 20
753.8579720676828
 30
0.0
 11
1925.136242539505
 21
738.1881112278387
 31
0.0
  0
LINE
  5
246D
330
21CC
100
AcDbEntity
  8
0
100
AcDbLine
 10
1932.636364609818
 20
728.8579720676828
 30
0.0
 11
1932.636364609818
 21
703.8582162083079
 31
0.0
  0
LINE
  5
246E
330
21CC
100
AcDbEntity
  8
0
100
AcDbLine
 10
1925.136293452895
 20
738.1880775422358
 30
0.0
 11
1927.636287701054
 21
728.8579720676828
 31
0.0
  0
LINE
  5
246F
330
21CC
100
AcDbEntity
  8
0
100
AcDbLine
 10
1920.13612046919
 20
669.857972067683
 30
0.0
 11
1920.13612046919
 21
663.857972067683
 31
0.0
  0
LINE
  5
2470
330
21CC
100
AcDbEntity
  8
0
100
AcDbLine
 10
1939.636364609817
 20
669.857972067683
 30
0.0
 11
1939.636364609817
 21
703.8582162083079
 31
0.0
  0
LINE
  5
2471
330
21CC
100
AcDbEntity
  8
0
100
AcDbLine
 10
1955.63612046919
 20
669.857972067683
 30
0.0
 11
1955.63612046919
 21
703.8582162083079
 31
0.0
  0
LINE
  5
2472
330
21CC
100
AcDbEntity
  8
0
100
AcDbLine
 10
1920.13612046919
 20
669.857972067683
 30
0.0
 11
1975.136242539505
 21
669.857972067683
 31
0.0
  0
LINE
  5
2473
330
21CC
100
AcDbEntity
  8
0
100
AcDbLine
 10
1967.636301272297
 20
728.8579720676835
 30
0.0
 11
1927.636287701054
 21
728.8579720676828
 31
0.0
  0
LINE
  5
2474
330
21CC
100
AcDbEntity
  8
0
100
AcDbLine
 10
1920.13612046919
 20
663.857972067683
 30
0.0
 11
1975.136242539505
 21
663.857972067683
 31
0.0
  0
LINE
  5
2475
330
21CC
100
AcDbEntity
  8
0
100
AcDbLine
 10
1962.63599839888
 20
703.8582162083079
 30
0.0
 11
1932.636364609818
 21
703.8582162083079
 31
0.0
  0
LINE
  5
2476
330
21CC
100
AcDbEntity
  8
0
100
AcDbLine
 10
1471.984968320755
 20
669.857972067683
 30
0.0
 11
1471.984968320755
 21
663.857972067683
 31
0.0
  0
LINE
  5
2477
330
21CC
100
AcDbEntity
  8
0
100
AcDbLine
 10
1459.484846250441
 20
703.8582162083079
 30
0.0
 11
1429.485334531693
 21
703.8582162083079
 31
0.0
  0
LINE
  5
2478
330
21CC
100
AcDbEntity
  8
0
100
AcDbLine
 10
1464.48521246138
 20
728.8579720676828
 30
0.0
 11
1424.48521246138
 21
728.8579720676828
 31
0.0
  0
LINE
  5
2479
330
21CC
100
AcDbEntity
  8
0
100
AcDbLine
 10
1429.485334531693
 20
728.8579720676828
 30
0.0
 11
1429.485334531693
 21
703.8582162083079
 31
0.0
  0
LINE
  5
247A
330
21CC
100
AcDbEntity
  8
0
100
AcDbLine
 10
1459.484846250441
 20
728.8579720676828
 30
0.0
 11
1459.484846250441
 21
703.8582162083079
 31
0.0
  0
LINE
  5
247B
330
21CC
100
AcDbEntity
  8
0
100
AcDbLine
 10
1424.485252562985
 20
728.8579582885777
 30
0.0
 11
1421.972325777496
 21
738.2363335474081
 31
0.0
  0
ARC
  5
247C
330
21CC
100
AcDbEntity
  8
0
100
AcDbCircle
 10
1406.98521246138
 20
738.8579720676829
 30
0.0
 40
15.0
100
AcDbArc
 50
357.6248355437702
 51
90.0
  0
LINE
  5
247D
330
21CC
100
AcDbEntity
  8
0
100
AcDbLine
 10
1416.985090391068
 20
669.857972067683
 30
0.0
 11
1416.985090391068
 21
663.857972067683
 31
0.0
  0
LINE
  5
247E
330
21CC
100
AcDbEntity
  8
0
100
AcDbLine
 10
1436.48521246138
 20
669.857972067683
 30
0.0
 11
1436.48521246138
 21
703.8582162083079
 31
0.0
  0
LINE
  5
247F
330
21CC
100
AcDbEntity
  8
0
100
AcDbLine
 10
1452.484968320755
 20
669.857972067683
 30
0.0
 11
1452.484968320755
 21
703.8582162083079
 31
0.0
  0
LINE
  5
2480
330
21CC
100
AcDbEntity
  8
0
100
AcDbLine
 10
1416.985090391068
 20
669.857972067683
 30
0.0
 11
1471.984968320755
 21
669.857972067683
 31
0.0
  0
LINE
  5
2481
330
21CC
100
AcDbEntity
  8
0
100
AcDbLine
 10
1416.985090391068
 20
663.857972067683
 30
0.0
 11
1471.984968320755
 21
663.857972067683
 31
0.0
  0
LINE
  5
2482
330
21CC
100
AcDbEntity
  8
0
100
AcDbLine
 10
1464.485237921243
 20
728.8579585769555
 30
0.0
 11
1466.9852400813
 21
738.1880984522265
 31
0.0
  0
LINE
  5
2483
330
21CC
100
AcDbEntity
  8
0
100
AcDbLine
 10
1926.136242539504
 20
1101.028926660041
 30
0.0
 11
1926.136242539504
 21
753.8579720676828
 31
0.0
  0
LINE
  5
2484
330
21CC
100
AcDbEntity
  8
0
100
AcDbLine
 10
1459.48521246138
 20
1148.858002585262
 30
0.0
 11
1459.48521246138
 21
754.8579720676829
 31
0.0
  0
LINE
  5
2485
330
21CC
100
AcDbEntity
  8
0
100
AcDbLine
 10
1466.98521246138
 20
793.8579720676829
 30
0.0
 11
1466.98521246138
 21
738.1881112278387
 31
0.0
  0
LINE
  5
2486
330
21CC
100
AcDbEntity
  8
0
100
AcDbLine
 10
2007.636242539507
 20
793.8579720676829
 30
0.0
 11
2007.636242539507
 21
753.8579720676828
 31
0.0
  0
LINE
  5
2487
330
21CC
100
AcDbEntity
  8
0
100
AcDbLine
 10
1222.48521246138
 20
1302.28592130875
 30
0.0
 11
1222.48521246138
 21
1414.78592130875
 31
0.0
  0
LINE
  5
2488
330
21CC
100
AcDbEntity
  8
0
100
AcDbLine
 10
1042.48521246138
 20
1302.28592130875
 30
0.0
 11
1042.48521246138
 21
1414.78592130875
 31
0.0
  0
LINE
  5
248A
330
21CC
100
AcDbEntity
  8
0
100
AcDbLine
 10
1222.48521246138
 20
1070.857941550104
 30
0.0
 11
1222.48521246138
 21
754.8579720676829
 31
0.0
  0
LINE
  5
248B
330
21CC
100
AcDbEntity
  8
0
100
AcDbLine
 10
1042.48521246138
 20
1070.857941550104
 30
0.0
 11
1042.48521246138
 21
754.8579720676829
 31
0.0
  0
LINE
  5
248E
330
21CC
100
AcDbEntity
  8
0
100
AcDbLine
 10
1042.48521246138
 20
1070.857941550104
 30
0.0
 11
1222.48521246138
 21
1070.857941550104
 31
0.0
  0
LINE
  5
248F
330
21CC
100
AcDbEntity
  8
0
100
AcDbLine
 10
888.4852124613805
 20
1148.858002585262
 30
0.0
 11
888.4852124613805
 21
789.8580332867849
 31
0.0
  0
ARC
  5
2490
330
21CC
100
AcDbEntity
  8
0
100
AcDbCircle
 10
1121.98521246138
 20
738.8579720676829
 30
0.0
 40
15.0
100
AcDbArc
 50
90.00001616485356
 51
182.3748350921342
  0
LINE
  5
2491
330
21CC
100
AcDbEntity
  8
0
100
AcDbLine
 10
1099.484846250443
 20
728.8579720676828
 30
0.0
 11
1099.484846250443
 21
703.8582162083079
 31
0.0
  0
LINE
  5
2492
330
21CC
100
AcDbEntity
  8
0
100
AcDbLine
 10
1104.485155704985
 20
728.8579956207684
 30
0.0
 11
1106.998095572029
 21
738.2364197006578
 31
0.0
  0
LINE
  5
2493
330
21CC
100
AcDbEntity
  8
0
100
AcDbLine
 10
1111.984968320755
 20
669.857972067683
 30
0.0
 11
1111.984968320755
 21
663.857972067683
 31
0.0
  0
LINE
  5
2494
330
21CC
100
AcDbEntity
  8
0
100
AcDbLine
 10
1092.484968320755
 20
669.857972067683
 30
0.0
 11
1092.484968320755
 21
703.8582162083079
 31
0.0
  0
LINE
  5
2495
330
21CC
100
AcDbEntity
  8
0
100
AcDbLine
 10
1061.98521246138
 20
754.8579720676829
 30
0.0
 11
1061.98521246138
 21
738.1881112278387
 31
0.0
  0
LINE
  5
2496
330
21CC
100
AcDbEntity
  8
0
100
AcDbLine
 10
1069.485334531693
 20
728.8579720676828
 30
0.0
 11
1069.485334531693
 21
703.8582162083079
 31
0.0
  0
LINE
  5
2497
330
21CC
100
AcDbEntity
  8
0
100
AcDbLine
 10
1064.485152575044
 20
728.8579875696322
 30
0.0
 11
1061.985142516459
 21
738.1881569226211
 31
0.0
  0
LINE
  5
2498
330
21CC
100
AcDbEntity
  8
0
100
AcDbLine
 10
1056.985090391068
 20
669.857972067683
 30
0.0
 11
1056.985090391068
 21
663.857972067683
 31
0.0
  0
LINE
  5
2499
330
21CC
100
AcDbEntity
  8
0
100
AcDbLine
 10
1076.48521246138
 20
669.857972067683
 30
0.0
 11
1076.48521246138
 21
703.8582162083079
 31
0.0
  0
LINE
  5
249A
330
21CC
100
AcDbEntity
  8
0
100
AcDbLine
 10
1056.985090391068
 20
669.857972067683
 30
0.0
 11
1111.984968320755
 21
669.857972067683
 31
0.0
  0
LINE
  5
249B
330
21CC
100
AcDbEntity
  8
0
100
AcDbLine
 10
1056.985090391068
 20
663.857972067683
 30
0.0
 11
1111.984968320755
 21
663.857972067683
 31
0.0
  0
LINE
  5
249C
330
21CC
100
AcDbEntity
  8
0
100
AcDbLine
 10
1064.48521246138
 20
728.8579720676828
 30
0.0
 11
1104.48521246138
 21
728.8579720676828
 31
0.0
  0
LINE
  5
249D
330
21CC
100
AcDbEntity
  8
0
100
AcDbLine
 10
1099.484846250443
 20
703.8582162083079
 30
0.0
 11
1069.485334531693
 21
703.8582162083079
 31
0.0
  0
LINE
  5
249E
330
21CC
100
AcDbEntity
  8
0
100
AcDbLine
 10
888.4852124613805
 20
789.8580332867849
 30
0.0
 11
984.6470868969944
 21
754.8579720676829
 31
0.0
  0
LINE
  5
249F
330
21CC
100
AcDbEntity
  8
0
100
AcDbLine
 10
1459.48521246138
 20
1414.78592130875
 30
0.0
 11
888.4852124613805
 21
1414.78592130875
 31
0.0
  0
LINE
  5
24A0
330
21CC
100
AcDbEntity
  8
0
100
AcDbLine
 10
984.6470868969944
 20
754.8579720676829
 30
0.0
 11
1459.48521246138
 21
754.8579720676829
 31
0.0
  0
LINE
  5
24A1
330
21CC
100
AcDbEntity
  8
0
100
AcDbLine
 10
888.4852124613805
 20
1148.858002585262
 30
0.0
 11
1459.48521246138
 21
1148.858002585262
 31
0.0
  0
LINE
  5
24A2
330
21CC
100
AcDbEntity
  8
0
100
AcDbLine
 10
1406.98521246138
 20
753.8579720676828
 30
0.0
 11
1121.98521246138
 21
753.8579720676828
 31
0.0
  0
CIRCLE
  5
24A3
330
21CC
100
AcDbEntity
  8
0
100
AcDbCircle
 10
2104.636303574662
 20
953.8579720676823
 30
0.0
 40
160.0
  0
LINE
  5
24A4
330
21CC
100
AcDbEntity
  8
0
100
AcDbLine
 10
1926.136242539504
 20
1101.028926660041
 30
0.0
 11
2104.636284192242
 21
1148.857869070694
 31
0.0
  0
LINE
  5
24A5
330
21CC
100
AcDbEntity
  8
0
100
AcDbLine
 10
2007.636242539507
 20
789.8579720676829
 30
0.0
 11
2201.636364609818
 21
789.8579720676829
 31
0.0
  0
CIRCLE
  5
24A6
330
21CC
100
AcDbEntity
  8
0
100
AcDbCircle
 10
2104.636303574662
 20
953.8579720676823
 30
0.0
 40
102.8847113549219
  0
CIRCLE
  5
24A7
330
21CC
100
AcDbEntity
  8
0
100
AcDbCircle
 10
2104.636303574662
 20
953.8579720676823
 30
0.0
 40
50.79998779296829
  0
CIRCLE
  5
24A8
330
21CC
100
AcDbEntity
  8
0
100
AcDbCircle
 10
2104.636303574662
 20
953.8579720676823
 30
0.0
 40
59.5
  0
LINE
  5
24A9
330
21CC
100
AcDbEntity
  8
0
100
AcDbLine
 10
1459.48521246138
 20
1414.78592130875
 30
0.0
 11
1459.48521246138
 21
1771.786043379066
 31
0.0
  0
LINE
  5
24AA
330
21CC
100
AcDbEntity
  8
0
100
AcDbLine
 10
888.4852124613805
 20
1414.78592130875
 30
0.0
 11
888.4852124613805
 21
1771.786043379063
 31
0.0
  0
LINE
  5
24AB
330
21CC
100
AcDbEntity
  8
0
100
AcDbLine
 10
1594.885311753372
 20
1753.785982343906
 30
0.0
 11
1594.885311753372
 21
1432.785982343905
 31
0.0
  0
LINE
  5
24AC
330
21CC
100
AcDbEntity
  8
0
100
AcDbLine
 10
1577.785290391067
 20
1753.285982343906
 30
0.0
 11
1577.785290391067
 21
1736.646787410661
 31
0.0
  0
LINE
  5
24AD
330
21CC
100
AcDbEntity
  8
0
100
AcDbLine
 10
1528.085297257523
 20
1475.785982343906
 30
0.0
 11
1528.085297257523
 21
1639.407450821155
 31
0.0
  0
LINE
  5
24AE
330
21CC
100
AcDbEntity
  8
0
100
AcDbLine
 10
1558.785378129105
 20
1434.285982343905
 30
0.0
 11
1558.785378129105
 21
1645.713997191133
 31
0.0
  0
LINE
  5
24B5
330
21CC
100
AcDbEntity
  8
0
  6
Continuous
100
AcDbLine
 10
1222.48521246138
 20
881.8579720676824
 30
0.0
 11
1042.48521246138
 21
881.8579720676824
 31
0.0
  0
LINE
  5
24B6
330
21CC
100
AcDbEntity
  8
0
  6
Continuous
100
AcDbLine
 10
1222.48521246138
 20
851.7137273930591
 30
0.0
 11
1042.48521246138
 21
851.7137273930591
 31
0.0
  0
LINE
  5
24B7
330
21CC
100
AcDbEntity
  8
0
  6
Continuous
100
AcDbLine
 10
1459.48521246138
 20
1101.028926660041
 30
0.0
 11
888.4852124613805
 21
1101.028926660041
 31
0.0
  0
LINE
  5
24BD
330
21CC
100
AcDbEntity
  8
0
100
AcDbLine
 10
1222.48521246138
 20
1302.28592130875
 30
0.0
 11
1042.48521246138
 21
1302.28592130875
 31
0.0
  0
ENDSEC
  0
SECTION
  2
OBJECTS
  0
DICTIONARY
  5
21BA
330
0
100
AcDbDictionary
281
     1
  3
ACAD_GROUP
350
21BB
  3
ACAD_LAYOUT
350
21C7
  3
ACAD_MLINESTYLE
350
21C4
  3
ACAD_PLOTSETTINGS
350
21C6
  3
ACAD_PLOTSTYLENAME
350
21BC
  3
AcDbVariableDictionary
350
2238
  0
DICTIONARY
  5
2244
330
21B0
100
AcDbDictionary
280
     1
281
     1
  3
ACAD_LAYERSTATES
360
2245
  0
DICTIONARY
  5
21F8
330
21CC
100
AcDbDictionary
280
     1
281
     1
  3
ACAD_LAYOUTSELFREF
360
2227
  0
DICTIONARY
  5
21FA
330
21C8
100
AcDbDictionary
280
     1
281
     1
  3
ACAD_LAYOUTSELFREF
360
2226
  0
DICTIONARY
  5
21BB
102
{ACAD_REACTORS
330
21BA
102
}
330
21BA
100
AcDbDictionary
281
     1
  0
DICTIONARY
  5
21C7
102
{ACAD_REACTORS
330
21BA
102
}
330
21BA
100
AcDbDictionary
281
     1
  3
Model
350
21CF
  3
ﾚｲｱｳﾄ1
350
21CB
  0
DICTIONARY
  5
21C4
102
{ACAD_REACTORS
330
21BA
102
}
330
21BA
100
AcDbDictionary
281
     1
  3
Standard
350
21C5
  0
DICTIONARY
  5
21C6
102
{ACAD_REACTORS
330
21BA
102
}
330
21BA
100
AcDbDictionary
281
     1
  0
ACDBDICTIONARYWDFLT
  5
21BC
102
{ACAD_REACTORS
330
21BA
102
}
330
21BA
100
AcDbDictionary
281
     1
  3
Normal
350
21BD
100
AcDbDictionaryWithDefault
340
21BD
  0
DICTIONARY
  5
2238
102
{ACAD_REACTORS
330
21BA
102
}
330
21BA
100
AcDbDictionary
281
     1
  3
DIMASSOC
350
2239
  0
DICTIONARY
  5
2245
102
{ACAD_REACTORS
330
2244
102
}
330
2244
100
AcDbDictionary
281
     1
  0
XRECORD
  5
2227
102
{ACAD_REACTORS
330
21F8
102
}
330
21F8
100
AcDbXrecord
280
     1
340
21CC
  0
XRECORD
  5
2226
102
{ACAD_REACTORS
330
21FA
102
}
330
21FA
100
AcDbXrecord
280
     1
340
21C8
  0
LAYOUT
  5
21CF
102
{ACAD_REACTORS
330
21C7
102
}
330
21C7
100
AcDbPlotSettings
  1

  2
SII LP-2150 (D-SCAN C2)
  4

  6

 40
0.0
 41
0.0
 42
0.0
 43
0.0
 44
0.0
 45
0.0
 46
0.0
 47
0.0
 48
0.0
 49
0.0
140
0.0
141
0.0
142
1.0
143
1.0
 70
  1712
 72
     0
 73
     0
 74
     0
  7

 75
     0
147
1.0
148
0.0
149
0.0
100
AcDbLayout
  1
Model
 70
     1
 71
     0
 10
0.0
 20
0.0
 11
12.0
 21
9.0
 12
0.0
 22
0.0
 32
0.0
 14
0.0
 24
0.0
 34
0.0
 15
0.0
 25
0.0
 35
0.0
146
0.0
 13
0.0
 23
0.0
 33
0.0
 16
1.0
 26
0.0
 36
0.0
 17
0.0
 27
1.0
 37
0.0
 76
     0
330
21CC
  0
LAYOUT
  5
21CB
102
{ACAD_REACTORS
330
21C7
102
}
330
21C7
100
AcDbPlotSettings
  1

  2
SII LP-2150 (D-SCAN C2)
  4

  6

 40
0.0
 41
0.0
 42
0.0
 43
0.0
 44
0.0
 45
0.0
 46
0.0
 47
0.0
 48
0.0
 49
0.0
140
0.0
141
0.0
142
1.0
143
1.0
 70
   688
 72
     0
 73
     0
 74
     5
  7

 75
    16
147
1.0
148
0.0
149
0.0
100
AcDbLayout
  1
ﾚｲｱｳﾄ1
 70
     1
 71
     1
 10
0.0
 20
0.0
 11
12.0
 21
9.0
 12
0.0
 22
0.0
 32
0.0
 14
1.000000000000000E+20
 24
1.000000000000000E+20
 34
1.000000000000000E+20
 15
-1.000000000000000E+20
 25
-1.000000000000000E+20
 35
-1.000000000000000E+20
146
0.0
 13
0.0
 23
0.0
 33
0.0
 16
1.0
 26
0.0
 36
0.0
 17
0.0
 27
1.0
 37
0.0
 76
     0
330
21C8
  0
MLINESTYLE
  5
21C5
102
{ACAD_REACTORS
330
21C4
102
}
330
21C4
100
AcDbMlineStyle
  2
STANDARD
 70
     0
  3

 62
   256
 51
90.0
 52
90.0
 71
     2
 49
0.5
 62
   256
  6
BYLAYER
 49
-0.5
 62
   256
  6
BYLAYER
  0
ACDBPLACEHOLDER
  5
21BD
102
{ACAD_REACTORS
330
21BC
102
}
330
21BC
  0
DICTIONARYVAR
  5
2239
102
{ACAD_REACTORS
330
2238
102
}
330
2238
100
DictionaryVariables
280
     0
  1
1
  0
ENDSEC
  0
EOF
