  0
SECTION
  2
HEADER
  9
$ACADVER
  1
AC1015
  9
$ACADMAINTVER
 70
    14
  9
$DWGCODEPAGE
  3
ANSI_932
  9
$INSBASE
 10
0.0
 20
0.0
 30
0.0
  9
$EXTMIN
 10
-67.62438404873887
 20
-56.3204095250735
 30
-0.0000000349181948
  9
$EXTMAX
 10
431.6834078428317
 20
198.0173466340783
 30
0.0000000814935746
  9
$LIMMIN
 10
0.0
 20
0.0
  9
$LIMMAX
 10
12.0
 20
9.0
  9
$ORTHOMODE
 70
     0
  9
$REGENMODE
 70
     1
  9
$FILLMODE
 70
     1
  9
$QTEXTMODE
 70
     0
  9
$MIRRTEXT
 70
     1
  9
$LTSCALE
 40
1.0
  9
$ATTMODE
 70
     1
  9
$TEXTSIZE
 40
0.2
  9
$TRACEWID
 40
0.05
  9
$TEXTSTYLE
  7
STANDARD
  9
$CLAYER
  8
0
  9
$CELTYPE
  6
CONTINUOUS
  9
$CECOLOR
 62
   256
  9
$CELTSCALE
 40
1.0
  9
$DISPSILH
 70
     0
  9
$DIMSCALE
 40
1.0
  9
$DIMASZ
 40
1.0
  9
$DIMEXO
 40
2.54
  9
$DIMDLI
 40
0.38
  9
$DIMRND
 40
0.0
  9
$DIMDLE
 40
0.0
  9
$DIMEXE
 40
2.54
  9
$DIMTP
 40
0.0
  9
$DIMTM
 40
0.0
  9
$DIMTXT
 40
3.2
  9
$DIMCEN
 40
0.09
  9
$DIMTSZ
 40
0.0
  9
$DIMTOL
 70
     0
  9
$DIMLIM
 70
     0
  9
$DIMTIH
 70
     0
  9
$DIMTOH
 70
     0
  9
$DIMSE1
 70
     0
  9
$DIMSE2
 70
     0
  9
$DIMTAD
 70
     1
  9
$DIMZIN
 70
     0
  9
$DIMBLK
  1

  9
$DIMASO
 70
     1
  9
$DIMSHO
 70
     0
  9
$DIMPOST
  1

  9
$DIMAPOST
  1

  9
$DIMALT
 70
     0
  9
$DIMALTD
 70
     2
  9
$DIMALTF
 40
25.4
  9
$DIMLFAC
 40
1.0
  9
$DIMTOFL
 70
     0
  9
$DIMTVP
 40
1.0
  9
$DIMTIX
 70
     0
  9
$DIMSOXD
 70
     0
  9
$DIMSAH
 70
     1
  9
$DIMBLK1
  1

  9
$DIMBLK2
  1

  9
$DIMSTYLE
  2
STANDARD
  9
$DIMCLRD
 70
     0
  9
$DIMCLRE
 70
     0
  9
$DIMCLRT
 70
     0
  9
$DIMTFAC
 40
1.0
  9
$DIMGAP
 40
1.6
  9
$DIMJUST
 70
     0
  9
$DIMSD1
 70
     0
  9
$DIMSD2
 70
     0
  9
$DIMTOLJ
 70
     1
  9
$DIMTZIN
 70
     0
  9
$DIMALTZ
 70
     0
  9
$DIMALTTZ
 70
     0
  9
$DIMUPT
 70
     0
  9
$DIMDEC
 70
     4
  9
$DIMTDEC
 70
     4
  9
$DIMALTU
 70
     2
  9
$DIMALTTD
 70
     2
  9
$DIMTXSTY
  7
STANDARD
  9
$DIMAUNIT
 70
     0
  9
$DIMADEC
 70
     0
  9
$DIMALTRND
 40
0.0
  9
$DIMAZIN
 70
     0
  9
$DIMDSEP
 70
    46
  9
$DIMATFIT
 70
     3
  9
$DIMFRAC
 70
     0
  9
$DIMLDRBLK
  1

  9
$DIMLUNIT
 70
     2
  9
$DIMLWD
 70
    -2
  9
$DIMLWE
 70
    -2
  9
$DIMTMOVE
 70
     0
  9
$LUNITS
 70
     2
  9
$LUPREC
 70
     4
  9
$SKETCHINC
 40
0.1
  9
$FILLETRAD
 40
0.0
  9
$AUNITS
 70
     0
  9
$AUPREC
 70
     0
  9
$MENU
  1
.
  9
$ELEVATION
 40
0.0
  9
$PELEVATION
 40
0.0
  9
$THICKNESS
 40
0.0
  9
$LIMCHECK
 70
     0
  9
$CHAMFERA
 40
0.0
  9
$CHAMFERB
 40
0.0
  9
$CHAMFERC
 40
0.0
  9
$CHAMFERD
 40
0.0
  9
$SKPOLY
 70
     0
  9
$TDCREATE
 40
2452488.423138738
  9
$TDUCREATE
 40
2452488.048138738
  9
$TDUPDATE
 40
2456906.720972928
  9
$TDUUPDATE
 40
2456906.345972928
  9
$TDINDWG
 40
0.2844688079
  9
$TDUSRTIMER
 40
0.2844686227
  9
$USRTIMER
 70
     1
  9
$ANGBASE
 50
0.0
  9
$ANGDIR
 70
     0
  9
$PDMODE
 70
     3
  9
$PDSIZE
 40
0.0
  9
$PLINEWID
 40
0.0
  9
$SPLFRAME
 70
     0
  9
$SPLINETYPE
 70
     6
  9
$SPLINESEGS
 70
     8
  9
$HANDSEED
  5
3E6A
  9
$SURFTAB1
 70
     6
  9
$SURFTAB2
 70
     6
  9
$SURFTYPE
 70
     6
  9
$SURFU
 70
     6
  9
$SURFV
 70
     6
  9
$UCSBASE
  2

  9
$UCSNAME
  2

  9
$UCSORG
 10
0.0
 20
0.0
 30
0.0
  9
$UCSXDIR
 10
1.0
 20
0.0
 30
0.0
  9
$UCSYDIR
 10
0.0
 20
1.0
 30
0.0
  9
$UCSORTHOREF
  2

  9
$UCSORTHOVIEW
 70
     0
  9
$UCSORGTOP
 10
0.0
 20
0.0
 30
0.0
  9
$UCSORGBOTTOM
 10
0.0
 20
0.0
 30
0.0
  9
$UCSORGLEFT
 10
0.0
 20
0.0
 30
0.0
  9
$UCSORGRIGHT
 10
0.0
 20
0.0
 30
0.0
  9
$UCSORGFRONT
 10
0.0
 20
0.0
 30
0.0
  9
$UCSORGBACK
 10
0.0
 20
0.0
 30
0.0
  9
$PUCSBASE
  2

  9
$PUCSNAME
  2

  9
$PUCSORG
 10
0.0
 20
0.0
 30
0.0
  9
$PUCSXDIR
 10
1.0
 20
0.0
 30
0.0
  9
$PUCSYDIR
 10
0.0
 20
1.0
 30
0.0
  9
$PUCSORTHOREF
  2

  9
$PUCSORTHOVIEW
 70
     0
  9
$PUCSORGTOP
 10
0.0
 20
0.0
 30
0.0
  9
$PUCSORGBOTTOM
 10
0.0
 20
0.0
 30
0.0
  9
$PUCSORGLEFT
 10
0.0
 20
0.0
 30
0.0
  9
$PUCSORGRIGHT
 10
0.0
 20
0.0
 30
0.0
  9
$PUCSORGFRONT
 10
0.0
 20
0.0
 30
0.0
  9
$PUCSORGBACK
 10
0.0
 20
0.0
 30
0.0
  9
$USERI1
 70
     0
  9
$USERI2
 70
     0
  9
$USERI3
 70
     0
  9
$USERI4
 70
     0
  9
$USERI5
 70
     0
  9
$USERR1
 40
0.0
  9
$USERR2
 40
0.0
  9
$USERR3
 40
0.0
  9
$USERR4
 40
0.0
  9
$USERR5
 40
0.0
  9
$WORLDVIEW
 70
     1
  9
$SHADEDGE
 70
     3
  9
$SHADEDIF
 70
    70
  9
$TILEMODE
 70
     1
  9
$MAXACTVP
 70
    48
  9
$PINSBASE
 10
0.0
 20
0.0
 30
0.0
  9
$PLIMCHECK
 70
     0
  9
$PEXTMIN
 10
1.000000000000000E+20
 20
1.000000000000000E+20
 30
1.000000000000000E+20
  9
$PEXTMAX
 10
-1.000000000000000E+20
 20
-1.000000000000000E+20
 30
-1.000000000000000E+20
  9
$PLIMMIN
 10
0.0
 20
0.0
  9
$PLIMMAX
 10
12.0
 20
9.0
  9
$UNITMODE
 70
     0
  9
$VISRETAIN
 70
     1
  9
$PLINEGEN
 70
     0
  9
$PSLTSCALE
 70
     1
  9
$TREEDEPTH
 70
  3020
  9
$CMLSTYLE
  2
Standard
  9
$CMLJUST
 70
     0
  9
$CMLSCALE
 40
1.0
  9
$PROXYGRAPHICS
 70
     1
  9
$MEASUREMENT
 70
     0
  9
$CELWEIGHT
370
    -1
  9
$ENDCAPS
280
     0
  9
$JOINSTYLE
280
     0
  9
$LWDISPLAY
290
     0
  9
$INSUNITS
 70
     0
  9
$HYPERLINKBASE
  1

  9
$STYLESHEET
  1

  9
$XEDIT
290
     1
  9
$CEPSNTYPE
380
     0
  9
$PSTYLEMODE
290
     1
  9
$FINGERPRINTGUID
  2
{FFE95C04-33D2-4560-80D0-1E2918E4EC86}
  9
$VERSIONGUID
  2
{AB904E8A-9822-4E20-B4D2-4FF4D30FEBC2}
  9
$EXTNAMES
290
     1
  9
$PSVPSCALE
 40
0.0
  9
$OLESTARTUP
290
     0
  0
ENDSEC
  0
SECTION
  2
CLASSES
  0
CLASS
  1
ACDBDICTIONARYWDFLT
  2
AcDbDictionaryWithDefault
  3
AutoCAD 2000
 90
        0
280
     0
281
     0
  0
CLASS
  1
ACDBPLACEHOLDER
  2
AcDbPlaceHolder
  3
AutoCAD 2000
 90
        0
280
     0
281
     0
  0
CLASS
  1
LAYOUT
  2
AcDbLayout
  3
AutoCAD 2000
 90
        0
280
     0
281
     0
  0
CLASS
  1
DICTIONARYVAR
  2
AcDbDictionaryVar
  3
AutoCAD 2000
 90
        0
280
     0
281
     0
  0
CLASS
  1
LONG_TRANSACTION
  2
AcDbLongTransaction
  3
AutoCAD 2000
 90
    32768
280
     0
281
     0
  0
CLASS
  1
LWPOLYLINE
  2
AcDbPolyline
  3
AutoCAD 2000
 90
    32768
280
     0
281
     1
  0
CLASS
  1
HATCH
  2
AcDbHatch
  3
AutoCAD 2000
 90
    32768
280
     0
281
     1
  0
CLASS
  1
XRECORD
  2
AcDbXrecord
  3
AutoCAD 2000
 90
    32768
280
     0
281
     0
  0
ENDSEC
  0
SECTION
  2
TABLES
  0
TABLE
  2
VPORT
  5
21B6
330
0
100
AcDbSymbolTable
 70
     2
  0
VPORT
  5
3E69
330
21B6
100
AcDbSymbolTableRecord
100
AcDbViewportTableRecord
  2
*Active
 70
     0
 10
0.0
 20
0.0
 11
1.0
 21
1.0
 12
182.0295118970464
 22
70.84846855450241
 13
0.0
 23
0.0
 14
1.0
 24
1.0
 15
0.0
 25
0.0
 16
0.0
 26
0.0
 36
1.0
 17
0.0
 27
0.0
 37
0.0
 40
256.441756074369
 41
1.953389830508474
 42
50.0
 43
0.0
 44
0.0
 50
0.0
 51
0.0
 71
     0
 72
   100
 73
     1
 74
     3
 75
     0
 76
     0
 77
     0
 78
     0
281
     0
 65
     1
110
0.0
120
0.0
130
0.0
111
1.0
121
0.0
131
0.0
112
0.0
122
1.0
132
0.0
 79
     0
146
0.0
  0
ENDTAB
  0
TABLE
  2
LTYPE
  5
21B3
330
0
100
AcDbSymbolTable
 70
     2
  0
LTYPE
  5
21C1
330
21B3
100
AcDbSymbolTableRecord
100
AcDbLinetypeTableRecord
  2
ByBlock
 70
     0
  3

 72
    65
 73
     0
 40
0.0
  0
LTYPE
  5
21C2
330
21B3
100
AcDbSymbolTableRecord
100
AcDbLinetypeTableRecord
  2
ByLayer
 70
     0
  3

 72
    65
 73
     0
 40
0.0
  0
LTYPE
  5
21C3
330
21B3
100
AcDbSymbolTableRecord
100
AcDbLinetypeTableRecord
  2
CONTINUOUS
 70
     0
  3
Solid line
 72
    65
 73
     0
 40
0.0
  0
LTYPE
  5
21D1
330
21B3
100
AcDbSymbolTableRecord
100
AcDbLinetypeTableRecord
  2
CENTER
 70
     0
  3
__ . __
 72
    65
 73
     4
 40
7.0
 49
4.0
 74
     0
 49
-1.0
 74
     0
 49
1.0
 74
     0
 49
-1.0
 74
     0
  0
ENDTAB
  0
TABLE
  2
LAYER
  5
21B0
102
{ACAD_XDICTIONARY
360
2244
102
}
330
0
100
AcDbSymbolTable
 70
     1
  0
LAYER
  5
21BE
330
21B0
100
AcDbSymbolTableRecord
100
AcDbLayerTableRecord
  2
0
 70
     0
 62
     7
  6
CONTINUOUS
370
    -3
390
21BD
  0
ENDTAB
  0
TABLE
  2
STYLE
  5
21B1
330
0
100
AcDbSymbolTable
 70
     1
  0
STYLE
  5
21BF
330
21B1
100
AcDbSymbolTableRecord
100
AcDbTextStyleTableRecord
  2
STANDARD
 70
     0
 40
0.0
 41
1.0
 50
0.0
 71
     0
 42
0.2
  3
txt
  4
BIGFONT
  0
ENDTAB
  0
TABLE
  2
VIEW
  5
21B4
330
0
100
AcDbSymbolTable
 70
     1
  0
VIEW
  5
21DE
330
21B4
100
AcDbSymbolTableRecord
100
AcDbViewTableRecord
  2
OLE1
 70
     0
 40
3692.141019219747
 10
1914.591370701856
 20
1272.206200738182
 41
4595.022665841169
 11
0.0
 21
0.0
 31
1.0
 12
0.0
 22
0.0
 32
0.0
 42
50.0
 43
0.0
 44
0.0
 50
0.0
 71
     0
281
     0
 72
     1
110
0.0
120
0.0
130
0.0
111
1.0
121
0.0
131
0.0
112
0.0
122
1.0
132
0.0
 79
     0
146
0.0
  0
ENDTAB
  0
TABLE
  2
UCS
  5
21B5
330
0
100
AcDbSymbolTable
 70
     0
  0
ENDTAB
  0
TABLE
  2
APPID
  5
21B7
330
0
100
AcDbSymbolTable
 70
     8
  0
APPID
  5
21C0
330
21B7
100
AcDbSymbolTableRecord
100
AcDbRegAppTableRecord
  2
ACAD
 70
     0
  0
APPID
  5
21DF
330
21B7
100
AcDbSymbolTableRecord
100
AcDbRegAppTableRecord
  2
MCAD_NO_VIS
 70
     0
  0
APPID
  5
21E0
330
21B7
100
AcDbSymbolTableRecord
100
AcDbRegAppTableRecord
  2
ACAD_TEMP_GRAPHIC
 70
     0
  0
APPID
  5
21E1
330
21B7
100
AcDbSymbolTableRecord
100
AcDbRegAppTableRecord
  2
ACATTRIBSERVICES
 70
     0
  0
APPID
  5
21E2
330
21B7
100
AcDbSymbolTableRecord
100
AcDbRegAppTableRecord
  2
CONTENTBLOCKICON
 70
     0
  0
APPID
  5
2241
330
21B7
100
AcDbSymbolTableRecord
100
AcDbRegAppTableRecord
  2
ACAD_DSTYLE_DIMJAG
 70
     0
  0
APPID
  5
2242
330
21B7
100
AcDbSymbolTableRecord
100
AcDbRegAppTableRecord
  2
ACAD_DSTYLE_DIMTALN
 70
     0
  0
APPID
  5
2243
330
21B7
100
AcDbSymbolTableRecord
100
AcDbRegAppTableRecord
  2
ACAD_PSEXT
 70
     0
  0
ENDTAB
  0
TABLE
  2
DIMSTYLE
  5
21B8
330
0
100
AcDbSymbolTable
 70
     1
100
AcDbDimStyleTable
 71
     0
  0
DIMSTYLE
105
21E3
330
21B8
100
AcDbSymbolTableRecord
100
AcDbDimStyleTableRecord
  2
STANDARD
 70
     0
279
     2
340
21BF
  0
ENDTAB
  0
TABLE
  2
BLOCK_RECORD
  5
21AF
330
0
100
AcDbSymbolTable
 70
     0
  0
BLOCK_RECORD
  5
21CC
102
{ACAD_XDICTIONARY
360
21F8
102
}
330
21AF
100
AcDbSymbolTableRecord
100
AcDbBlockTableRecord
  2
*Model_Space
340
21CF
  0
BLOCK_RECORD
  5
21C8
102
{ACAD_XDICTIONARY
360
21FA
102
}
330
21AF
100
AcDbSymbolTableRecord
100
AcDbBlockTableRecord
  2
*Paper_Space
340
21CB
  0
ENDTAB
  0
ENDSEC
  0
SECTION
  2
BLOCKS
  0
BLOCK
  5
21CD
330
21CC
100
AcDbEntity
  8
0
100
AcDbBlockBegin
  2
*Model_Space
 70
     0
 10
0.0
 20
0.0
 30
0.0
  3
*Model_Space
  1

  0
ENDBLK
  5
21CE
330
21CC
100
AcDbEntity
  8
0
100
AcDbBlockEnd
  0
BLOCK
  5
21C9
330
21C8
100
AcDbEntity
 67
     1
  8
0
100
AcDbBlockBegin
  2
*Paper_Space
 70
     0
 10
0.0
 20
0.0
 30
0.0
  3
*Paper_Space
  1

  0
ENDBLK
  5
21CA
330
21C8
100
AcDbEntity
 67
     1
  8
0
100
AcDbBlockEnd
  0
ENDSEC
  0
SECTION
  2
ENTITIES
  0
TEXT
  5
F6E
330
21CC
100
AcDbEntity
  8
0
  6
Continuous
100
AcDbText
 10
0.0
 20
150.0
 30
0.0
 40
48.000002
  1
STS 1S
 41
1.32095
100
AcDbText
  0
LINE
  5
3948
330
21CC
100
AcDbEntity
  8
0
  6
CENTER
100
AcDbLine
 10
113.3240411682594
 20
0.0
 30
0.0
 11
431.6602666570514
 21
0.0
 31
0.0
  0
LINE
  5
3949
330
21CC
100
AcDbEntity
  8
0
100
AcDbLine
 10
190.2725521570515
 20
-31.74999000000025
 30
0.0
 11
338.7725596570516
 21
-31.74999000000025
 31
0.0
  0
ARC
  5
394A
330
21CC
100
AcDbEntity
  8
0
100
AcDbCircle
 10
130.0907896570514
 20
-14.69999000000007
 30
0.0
 40
2.0
100
AcDbArc
 50
90.0
 51
160.000199999999
  0
LINE
  5
394B
330
21CC
100
AcDbEntity
  8
0
100
AcDbLine
 10
163.7725596570516
 20
-18.20165761144198
 30
0.0
 11
163.7725596570516
 21
18.20165761144198
 31
0.0
  0
LINE
  5
394C
330
21CC
100
AcDbEntity
  8
0
100
AcDbLine
 10
124.1225596570515
 20
22.91095797067646
 30
0.0
 11
124.1225596570515
 21
-22.91095797067646
 31
0.0
  0
LINE
  5
394D
330
21CC
100
AcDbEntity
  8
0
100
AcDbLine
 10
145.7726496570516
 20
-12.70002999999997
 30
0.0
 11
163.7726196570514
 21
-19.05000000000018
 31
0.0
  0
LINE
  5
394E
330
21CC
100
AcDbEntity
  8
0
100
AcDbLine
 10
121.2725596570516
 20
-25.25
 30
0.0
 11
123.5623796570515
 21
-25.25
 31
0.0
  0
LINE
  5
394F
330
21CC
100
AcDbEntity
  8
0
100
AcDbLine
 10
124.3141496570514
 20
-24.72362000000021
 30
0.0
 11
128.2113996570513
 21
-14.01596000000017
 31
0.0
  0
ARC
  5
3950
330
21CC
100
AcDbEntity
  8
0
100
AcDbCircle
 10
123.5623796570515
 20
-24.44999000000007
 30
0.0
 40
0.8000000099999999
100
AcDbArc
 50
270.0
 51
339.9993399999972
  0
LINE
  5
3951
330
21CC
100
AcDbEntity
  8
0
100
AcDbLine
 10
163.7725596570516
 20
-19.04998999999998
 30
0.0
 11
168.7725596570516
 21
-19.04998999999998
 31
0.0
  0
ARC
  5
3952
330
21CC
100
AcDbEntity
  8
0
100
AcDbCircle
 10
168.7725596570516
 20
-24.04998999999998
 30
0.0
 40
5.0
100
AcDbArc
 50
25.84160414738318
 51
90.0
  0
LINE
  5
3953
330
21CC
100
AcDbEntity
  8
0
100
AcDbLine
 10
130.0818454074909
 20
-12.70001000000002
 30
0.0
 11
145.7725596570516
 21
-12.70001000000002
 31
0.0
  0
LINE
  5
3954
330
21CC
100
AcDbEntity
  8
0
100
AcDbLine
 10
128.6903696570515
 20
-12.27536140501979
 30
0.0
 11
128.6903696570515
 21
12.27536140501934
 31
0.0
  0
LINE
  5
3955
330
21CC
100
AcDbEntity
  8
0
100
AcDbLine
 10
145.7725896570517
 20
-11.90000999999983
 30
0.0
 11
145.7725896570517
 21
11.90000999999983
 31
0.0
  0
LINE
  5
3956
330
21CC
100
AcDbEntity
  8
0
100
AcDbLine
 10
338.7726196570514
 20
-31.75010999999995
 30
0.0
 11
395.7725486570515
 21
-12.70012540001107
 31
0.0
  0
ARC
  5
3957
330
21CC
100
AcDbEntity
  8
0
100
AcDbCircle
 10
412.8224756570515
 20
-14.70001000000002
 30
0.0
 40
2.0
100
AcDbArc
 50
19.9998749999945
 51
90.0
  0
LINE
  5
3958
330
21CC
100
AcDbEntity
  8
0
100
AcDbLine
 10
418.7725486570514
 20
22.86096818452278
 30
0.0
 11
418.7725486570514
 21
-22.86096818452278
 31
0.0
  0
LINE
  5
3959
330
21CC
100
AcDbEntity
  8
0
100
AcDbLine
 10
419.3509096570518
 20
-25.2500100000002
 30
0.0
 11
421.2725486570515
 21
-25.2500100000002
 31
0.0
  0
LINE
  5
395A
330
21CC
100
AcDbEntity
  8
0
100
AcDbLine
 10
414.7019156570516
 20
-14.01603000000022
 30
0.0
 11
418.5991556570514
 21
-24.72362000000021
 31
0.0
  0
ARC
  5
395B
330
21CC
100
AcDbEntity
  8
0
100
AcDbCircle
 10
419.3509096570518
 20
-24.45001000000002
 30
0.0
 40
0.8000000099999999
100
AcDbArc
 50
200.0002899999989
 51
270.0
  0
LINE
  5
395C
330
21CC
100
AcDbEntity
  8
0
100
AcDbLine
 10
395.7729296570517
 20
-12.70001000000002
 30
0.0
 11
412.8224756570515
 21
-12.70001000000002
 31
0.0
  0
LINE
  5
395D
330
21CC
100
AcDbEntity
  8
0
100
AcDbLine
 10
395.7725486570515
 20
12.70012540001107
 30
0.0
 11
395.7725486570515
 21
-12.70012540001107
 31
0.0
  0
LINE
  5
395E
330
21CC
100
AcDbEntity
  8
0
100
AcDbLine
 10
414.2229266570515
 20
12.27539931030241
 30
0.0
 11
414.2229266570515
 21
-12.27539931030241
 31
0.0
  0
LINE
  5
395F
330
21CC
100
AcDbEntity
  8
0
100
AcDbLine
 10
121.2725596570516
 20
25.25
 30
0.0
 11
121.2725596570516
 21
-25.25
 31
0.0
  0
LINE
  5
3960
330
21CC
100
AcDbEntity
  8
0
100
AcDbLine
 10
421.2725486570515
 20
25.2500100000002
 30
0.0
 11
421.2725486570515
 21
-25.2500100000002
 31
0.0
  0
LINE
  5
39A5
330
21CC
100
AcDbEntity
  8
0
100
AcDbLine
 10
190.2725521570515
 20
31.7499899999998
 30
0.0
 11
338.7725596570516
 21
31.7499899999998
 31
0.0
  0
ARC
  5
39A6
330
21CC
100
AcDbEntity
  8
0
100
AcDbCircle
 10
130.0907896570514
 20
14.69999000000007
 30
0.0
 40
2.0
100
AcDbArc
 50
199.9998000000009
 51
270.0
  0
LINE
  5
39A7
330
21CC
100
AcDbEntity
  8
0
100
AcDbLine
 10
145.7726496570516
 20
12.70002999999997
 30
0.0
 11
163.7726196570514
 21
19.05000000000018
 31
0.0
  0
LINE
  5
39A8
330
21CC
100
AcDbEntity
  8
0
100
AcDbLine
 10
121.2725596570516
 20
25.25
 30
0.0
 11
123.5623796570515
 21
25.25
 31
0.0
  0
LINE
  5
39A9
330
21CC
100
AcDbEntity
  8
0
100
AcDbLine
 10
124.3141496570514
 20
24.72362000000021
 30
0.0
 11
128.2113996570513
 21
14.01596000000017
 31
0.0
  0
ARC
  5
39AA
330
21CC
100
AcDbEntity
  8
0
100
AcDbCircle
 10
123.5623796570515
 20
24.44999000000007
 30
0.0
 40
0.8000000099999999
100
AcDbArc
 50
20.00066000000273
 51
90.0
  0
LINE
  5
39AB
330
21CC
100
AcDbEntity
  8
0
100
AcDbLine
 10
163.7725596570516
 20
19.04998999999998
 30
0.0
 11
168.7725596570516
 21
19.04998999999998
 31
0.0
  0
ARC
  5
39AC
330
21CC
100
AcDbEntity
  8
0
100
AcDbCircle
 10
168.7725596570516
 20
24.04998999999998
 30
0.0
 40
5.0
100
AcDbArc
 50
270.0
 51
334.1583958526161
  0
LINE
  5
39AD
330
21CC
100
AcDbEntity
  8
0
100
AcDbLine
 10
130.0818454074909
 20
12.70001000000002
 30
0.0
 11
145.7725596570516
 21
12.70001000000002
 31
0.0
  0
LINE
  5
39AE
330
21CC
100
AcDbEntity
  8
0
100
AcDbLine
 10
338.7726196570514
 20
31.75010999999995
 30
0.0
 11
395.7725486570515
 21
12.70012540001107
 31
0.0
  0
LINE
  5
39AF
330
21CC
100
AcDbEntity
  8
0
100
AcDbLine
 10
338.7725596570516
 20
-31.74999000000025
 30
0.0
 11
338.7725596570516
 21
31.7499899999998
 31
0.0
  0
ARC
  5
39B0
330
21CC
100
AcDbEntity
  8
0
100
AcDbCircle
 10
412.8224756570515
 20
14.70001000000002
 30
0.0
 40
2.0
100
AcDbArc
 50
270.0
 51
340.0001250000054
  0
LINE
  5
39B1
330
21CC
100
AcDbEntity
  8
0
100
AcDbLine
 10
419.3509096570518
 20
25.2500100000002
 30
0.0
 11
421.2725486570515
 21
25.2500100000002
 31
0.0
  0
LINE
  5
39B2
330
21CC
100
AcDbEntity
  8
0
100
AcDbLine
 10
414.7019156570516
 20
14.01602999999977
 30
0.0
 11
418.5991556570514
 21
24.72362000000021
 31
0.0
  0
ARC
  5
39B3
330
21CC
100
AcDbEntity
  8
0
100
AcDbCircle
 10
419.3509096570518
 20
24.45001000000002
 30
0.0
 40
0.8000000099999999
100
AcDbArc
 50
90.0
 51
159.999710000001
  0
LINE
  5
39B4
330
21CC
100
AcDbEntity
  8
0
100
AcDbLine
 10
395.7729296570517
 20
12.70001000000002
 30
0.0
 11
412.8224756570515
 21
12.70001000000002
 31
0.0
  0
LINE
  5
3D9C
330
21CC
100
AcDbEntity
  8
0
100
AcDbLine
 10
60.50000000000011
 20
14.0
 30
0.0
 11
60.50000000000011
 21
5.0
 31
0.0
  0
LINE
  5
3D9D
330
21CC
100
AcDbEntity
  8
0
100
AcDbLine
 10
60.50000000000011
 20
-5.0
 30
0.0
 11
60.50000000000011
 21
-14.0
 31
0.0
  0
ARC
  5
3D9E
330
21CC
100
AcDbEntity
  8
0
100
AcDbCircle
 10
59.50000000000011
 20
-14.0
 30
0.0
 40
1.0
100
AcDbArc
 50
270.0
 51
0.0
  0
LINE
  5
3D9F
330
21CC
100
AcDbEntity
  8
0
100
AcDbLine
 10
57.50000000000011
 20
4.0
 30
0.0
 11
57.50000000000011
 21
-4.0
 31
0.0
  0
LINE
  5
3DA0
330
21CC
100
AcDbEntity
  8
0
100
AcDbLine
 10
57.50000000000011
 20
-29.20001000000002
 30
0.0
 11
57.50000000000011
 21
-39.42822999999998
 31
0.0
  0
LINE
  5
3DA1
330
21CC
100
AcDbEntity
  8
0
100
AcDbLine
 10
49.50000000000011
 20
4.0
 30
0.0
 11
49.50000000000011
 21
-4.0
 31
0.0
  0
LINE
  5
3DA2
330
21CC
100
AcDbEntity
  8
0
100
AcDbLine
 10
49.50000000000011
 20
-29.20001000000002
 30
0.0
 11
49.50000000000011
 21
-39.42822999999998
 31
0.0
  0
LINE
  5
3DA3
330
21CC
100
AcDbEntity
  8
0
100
AcDbLine
 10
57.50000000000011
 20
-39.42822999999998
 30
0.0
 11
49.50000000000011
 21
-39.42822999999998
 31
0.0
  0
LINE
  5
3DA4
330
21CC
100
AcDbEntity
  8
0
100
AcDbLine
 10
48.50000000000012
 20
-43.0000299999997
 30
0.0
 11
48.50000000000012
 21
-31.20001000000002
 31
0.0
  0
LINE
  5
3DA5
330
21CC
100
AcDbEntity
  8
0
100
AcDbLine
 10
58.50000000000012
 20
-43.0000299999997
 30
0.0
 11
58.50000000000012
 21
-31.20001000000002
 31
0.0
  0
LINE
  5
3DA6
330
21CC
100
AcDbEntity
  8
0
100
AcDbLine
 10
45.75000000000011
 20
-27.20001000000002
 30
0.0
 11
45.75000000000011
 21
-17.90002999999978
 31
0.0
  0
LINE
  5
3DA7
330
21CC
100
AcDbEntity
  8
0
100
AcDbLine
 10
61.25000000000011
 20
-27.20001000000002
 30
0.0
 11
61.25000000000011
 21
-17.90002999999978
 31
0.0
  0
LINE
  5
3DA8
330
21CC
100
AcDbEntity
  8
0
100
AcDbLine
 10
67.43933000000004
 20
-52.0000299999997
 30
0.0
 11
39.56065999999998
 21
-52.0000299999997
 31
0.0
  0
LINE
  5
3DA9
330
21CC
100
AcDbEntity
  8
0
100
AcDbLine
 10
59.50000000000011
 20
-4.0
 30
0.0
 11
38.11248000000011
 21
-4.0
 31
0.0
  0
LINE
  5
3DAA
330
21CC
100
AcDbEntity
  8
0
  6
CENTER
100
AcDbLine
 10
-67.58712000000002
 20
0.0
 30
0.0
 11
67.58712000000002
 21
0.0
 31
0.0
  0
LINE
  5
3DAB
330
21CC
100
AcDbEntity
  8
0
100
AcDbLine
 10
190.2725621570517
 20
-38.61837999999989
 30
0.0
 11
190.2725621570517
 21
6.399990000000343
 31
0.0
  0
LINE
  5
3DAC
330
21CC
100
AcDbEntity
  8
0
100
AcDbLine
 10
173.2725621570517
 20
-38.61837999999989
 30
0.0
 11
173.2725621570517
 21
6.266290000000026
 31
0.0
  0
LINE
  5
3DAD
330
21CC
100
AcDbEntity
  8
0
100
AcDbLine
 10
185.8269821570519
 20
46.74999999999999
 30
0.0
 11
177.7181521570518
 21
46.74999999999999
 31
0.0
  0
LINE
  5
3DAE
330
21CC
100
AcDbEntity
  8
0
100
AcDbLine
 10
177.5225621570517
 20
4.0
 30
0.0
 11
173.5225621570517
 21
4.0
 31
0.0
  0
LINE
  5
3DAF
330
21CC
100
AcDbEntity
  8
0
100
AcDbLine
 10
185.8269821570519
 20
-46.7500299999997
 30
0.0
 11
184.6225721570518
 21
-46.7500299999997
 31
0.0
  0
LINE
  5
3DB0
330
21CC
100
AcDbEntity
  8
0
100
AcDbLine
 10
59.50000000000011
 20
4.0
 30
0.0
 11
38.11248000000011
 21
4.0
 31
0.0
  0
LINE
  5
3DB1
330
21CC
100
AcDbEntity
  8
0
100
AcDbLine
 10
59.50000000000011
 20
15.0
 30
0.0
 11
45.68985000000009
 21
15.0
 31
0.0
  0
LINE
  5
3DB2
330
21CC
100
AcDbEntity
  8
0
100
AcDbLine
 10
173.3066321570519
 20
-38.87717999999995
 30
0.0
 11
174.8203521570518
 21
-44.52645999999958
 31
0.0
  0
LINE
  5
3DB3
330
21CC
100
AcDbEntity
  8
0
100
AcDbLine
 10
190.2384821570518
 20
-38.8771899999997
 30
0.0
 11
188.7247621570517
 21
-44.52646999999979
 31
0.0
  0
LINE
  5
3DB4
330
21CC
100
AcDbEntity
  8
0
100
AcDbLine
 10
188.7247721570519
 20
44.52645000000029
 30
0.0
 11
190.2385021570518
 21
38.8771700000002
 31
0.0
  0
LINE
  5
3DB5
330
21CC
100
AcDbEntity
  8
0
100
AcDbLine
 10
175.4161521570519
 20
15.0
 30
0.0
 11
175.4161521570519
 21
43.38346000000001
 31
0.0
  0
LINE
  5
3DB6
330
21CC
100
AcDbEntity
  8
0
100
AcDbLine
 10
188.1289821570518
 20
15.0
 30
0.0
 11
188.1289821570518
 21
43.21123000000034
 31
0.0
  0
LINE
  5
3DB7
330
21CC
100
AcDbEntity
  8
0
100
AcDbLine
 10
177.2726821570519
 20
-11.28499999999985
 30
0.0
 11
174.2960521570518
 21
-14.6613199999997
 31
0.0
  0
LINE
  5
3DB8
330
21CC
100
AcDbEntity
  8
0
100
AcDbLine
 10
186.2724421570518
 20
-11.28503
 30
0.0
 11
189.2490621570517
 21
-14.66134999999985
 31
0.0
  0
LINE
  5
3DB9
330
21CC
100
AcDbEntity
  8
0
100
AcDbLine
 10
179.9225921570517
 20
-52.0
 30
0.0
 11
183.6225721570518
 21
-52.0
 31
0.0
  0
LINE
  5
3DBA
330
21CC
100
AcDbEntity
  8
0
100
AcDbLine
 10
178.9225921570517
 20
-51.0
 30
0.0
 11
178.9225921570517
 21
-31.20001000000002
 31
0.0
  0
LINE
  5
3DBB
330
21CC
100
AcDbEntity
  8
0
100
AcDbLine
 10
173.5459421570518
 20
-15.0
 30
0.0
 11
173.5225621570517
 21
-15.0
 31
0.0
  0
LINE
  5
3DBC
330
21CC
100
AcDbEntity
  8
0
100
AcDbLine
 10
177.5225621570517
 20
-4.0
 30
0.0
 11
173.5225621570517
 21
-4.0
 31
0.0
  0
LINE
  5
3DBD
330
21CC
100
AcDbEntity
  8
0
100
AcDbLine
 10
177.5225621570517
 20
4.0
 30
0.0
 11
177.5225621570517
 21
15.0
 31
0.0
  0
LINE
  5
3DBE
330
21CC
100
AcDbEntity
  8
0
100
AcDbLine
 10
177.5225621570517
 20
15.0
 30
0.0
 11
173.5225621570517
 21
15.0
 31
0.0
  0
LINE
  5
3DBF
330
21CC
100
AcDbEntity
  8
0
100
AcDbLine
 10
177.5225621570517
 20
-10.62368999999989
 30
0.0
 11
177.5225621570517
 21
-4.0
 31
0.0
  0
LINE
  5
3DC0
330
21CC
100
AcDbEntity
  8
0
100
AcDbLine
 10
177.7725621570517
 20
-12.0
 30
0.0
 11
177.7725621570517
 21
14.42819000000008
 31
0.0
  0
LINE
  5
3DC1
330
21CC
100
AcDbEntity
  8
0
100
AcDbLine
 10
177.7725621570517
 20
-39.42822999999998
 30
0.0
 11
177.7725621570517
 21
-29.38961999999992
 31
0.0
  0
LINE
  5
3DC2
330
21CC
100
AcDbEntity
  8
0
100
AcDbLine
 10
174.0225621570517
 20
-27.20001000000002
 30
0.0
 11
174.0225621570517
 21
-17.90000000000009
 31
0.0
  0
LINE
  5
3DC3
330
21CC
100
AcDbEntity
  8
0
100
AcDbLine
 10
176.0225621570517
 20
-29.20001000000002
 30
0.0
 11
187.5225621570517
 21
-29.20001000000002
 31
0.0
  0
LINE
  5
3DC4
330
21CC
100
AcDbEntity
  8
0
100
AcDbLine
 10
176.7473921570518
 20
-12.0
 30
0.0
 11
186.7977721570517
 21
-12.0
 31
0.0
  0
LINE
  5
3DC5
330
21CC
100
AcDbEntity
  8
0
100
AcDbLine
 10
190.0225621570517
 20
12.5999999999999
 30
0.0
 11
190.5225621570517
 21
12.5999999999999
 31
0.0
  0
LINE
  5
3DC6
330
21CC
100
AcDbEntity
  8
0
100
AcDbLine
 10
190.0225621570517
 20
6.399990000000343
 30
0.0
 11
190.5225621570517
 21
6.399990000000343
 31
0.0
  0
LINE
  5
3DC7
330
21CC
100
AcDbEntity
  8
0
100
AcDbLine
 10
184.6225721570518
 20
-51.0
 30
0.0
 11
184.6225721570518
 21
-31.20001000000002
 31
0.0
  0
LINE
  5
3DC8
330
21CC
100
AcDbEntity
  8
0
100
AcDbLine
 10
189.9991921570518
 20
-15.0
 30
0.0
 11
190.0225621570517
 21
-15.0
 31
0.0
  0
LINE
  5
3DC9
330
21CC
100
AcDbEntity
  8
0
100
AcDbLine
 10
186.0225621570517
 20
-4.0
 30
0.0
 11
190.0225621570517
 21
-4.0
 31
0.0
  0
LINE
  5
3DCA
330
21CC
100
AcDbEntity
  8
0
100
AcDbLine
 10
186.0225621570517
 20
4.0
 30
0.0
 11
186.0225621570517
 21
15.0
 31
0.0
  0
LINE
  5
3DCB
330
21CC
100
AcDbEntity
  8
0
100
AcDbLine
 10
186.0225621570517
 20
4.0
 30
0.0
 11
190.0225621570517
 21
4.0
 31
0.0
  0
LINE
  5
3DCC
330
21CC
100
AcDbEntity
  8
0
100
AcDbLine
 10
186.0225621570517
 20
15.0
 30
0.0
 11
190.0225621570517
 21
15.0
 31
0.0
  0
LINE
  5
3DCD
330
21CC
100
AcDbEntity
  8
0
100
AcDbLine
 10
186.0225621570517
 20
-10.62368999999989
 30
0.0
 11
186.0225621570517
 21
-4.0
 31
0.0
  0
LINE
  5
3DCE
330
21CC
100
AcDbEntity
  8
0
100
AcDbLine
 10
185.7725621570517
 20
-12.0
 30
0.0
 11
185.7725621570517
 21
14.42819000000008
 31
0.0
  0
LINE
  5
3DCF
330
21CC
100
AcDbEntity
  8
0
100
AcDbLine
 10
185.7725621570517
 20
-39.42822999999998
 30
0.0
 11
185.7725621570517
 21
-29.38961999999992
 31
0.0
  0
LINE
  5
3DD0
330
21CC
100
AcDbEntity
  8
0
100
AcDbLine
 10
189.5225621570517
 20
-27.20001000000002
 30
0.0
 11
189.5225621570517
 21
-17.90000000000009
 31
0.0
  0
LINE
  5
3DD1
330
21CC
100
AcDbEntity
  8
0
100
AcDbLine
 10
188.1289821570518
 20
-29.00736999999981
 30
0.0
 11
188.1289821570518
 21
-44.21311999999988
 31
0.0
  0
LINE
  5
3DD2
330
21CC
100
AcDbEntity
  8
0
100
AcDbLine
 10
175.4161521570519
 20
-29.00736999999981
 30
0.0
 11
175.4161521570519
 21
-44.06271999999989
 31
0.0
  0
LINE
  5
3DD3
330
21CC
100
AcDbEntity
  8
0
100
AcDbLine
 10
45.68985000000009
 20
-15.0
 30
0.0
 11
59.50000000000011
 21
-15.0
 31
0.0
  0
LINE
  5
3DD4
330
21CC
100
AcDbEntity
  8
0
  6
CENTER
100
AcDbLine
 10
0.0000000000001137
 20
53.05352999999968
 30
0.0
 11
0.0000000000001137
 21
-53.05352999999968
 31
0.0
  0
LINE
  5
3DD5
330
21CC
100
AcDbEntity
  8
0
100
AcDbLine
 10
191.0225621570517
 20
6.899990000000343
 30
0.0
 11
191.0225621570517
 21
12.09999999999991
 31
0.0
  0
LINE
  5
3DD6
330
21CC
100
AcDbEntity
  8
0
100
AcDbLine
 10
191.2725621570517
 20
34.97606000000041
 30
0.0
 11
191.2725621570517
 21
40.17606999999998
 31
0.0
  0
LINE
  5
3DD7
330
21CC
100
AcDbEntity
  8
0
100
AcDbLine
 10
189.7725621570517
 20
40.67606999999997
 30
0.0
 11
190.7725621570517
 21
40.67606999999997
 31
0.0
  0
LINE
  5
3DD8
330
21CC
100
AcDbEntity
  8
0
100
AcDbLine
 10
190.2725621570517
 20
34.47606000000041
 30
0.0
 11
190.7725621570517
 21
34.47606000000041
 31
0.0
  0
LINE
  5
3DD9
330
21CC
100
AcDbEntity
  8
0
100
AcDbLine
 10
191.2725621570517
 20
-34.97605999999996
 30
0.0
 11
191.2725621570517
 21
-40.17606999999998
 31
0.0
  0
LINE
  5
3DDA
330
21CC
100
AcDbEntity
  8
0
100
AcDbLine
 10
190.2725621570517
 20
-34.47605999999996
 30
0.0
 11
190.7725621570517
 21
-34.47605999999996
 31
0.0
  0
LINE
  5
3DDB
330
21CC
100
AcDbEntity
  8
0
100
AcDbLine
 10
189.7564821570519
 20
-40.67606999999997
 30
0.0
 11
190.7725621570517
 21
-40.67606999999997
 31
0.0
  0
LINE
  5
3DDC
330
21CC
100
AcDbEntity
  8
0
100
AcDbLine
 10
173.5225621570517
 20
-15.0
 30
0.0
 11
173.5225621570517
 21
15.0
 31
0.0
  0
LINE
  5
3DDD
330
21CC
100
AcDbEntity
  8
0
100
AcDbLine
 10
190.0225621570517
 20
-15.0
 30
0.0
 11
190.0225621570517
 21
15.0
 31
0.0
  0
LINE
  5
3DDE
330
21CC
100
AcDbEntity
  8
0
100
AcDbLine
 10
173.2725621570517
 20
12.73370000000022
 30
0.0
 11
173.2725621570517
 21
38.61833999999999
 31
0.0
  0
LINE
  5
3DDF
330
21CC
100
AcDbEntity
  8
0
100
AcDbLine
 10
190.2725621570517
 20
12.5999999999999
 30
0.0
 11
190.2725621570517
 21
38.61833999999999
 31
0.0
  0
LINE
  5
3DE0
330
21CC
100
AcDbEntity
  8
0
100
AcDbLine
 10
173.2725621570517
 20
40.82605999999986
 30
0.0
 11
173.7725621570517
 21
40.82605999999986
 31
0.0
  0
LINE
  5
3DE1
330
21CC
100
AcDbEntity
  8
0
100
AcDbLine
 10
173.2725621570517
 20
-40.82606999999962
 30
0.0
 11
173.7725621570517
 21
-40.82606999999962
 31
0.0
  0
LINE
  5
3DE2
330
21CC
100
AcDbEntity
  8
0
100
AcDbLine
 10
174.2725621570517
 20
42.57605999999987
 30
0.0
 11
174.2977621570518
 21
42.57605999999987
 31
0.0
  0
LINE
  5
3DE3
330
21CC
100
AcDbEntity
  8
0
100
AcDbLine
 10
173.2725621570517
 20
40.82605999999986
 30
0.0
 11
173.2725621570517
 21
41.57605999999987
 31
0.0
  0
LINE
  5
3DE4
330
21CC
100
AcDbEntity
  8
0
100
AcDbLine
 10
190.2725621570517
 20
40.67606999999997
 30
0.0
 11
190.2725621570517
 21
41.57605999999987
 31
0.0
  0
LINE
  5
3DE5
330
21CC
100
AcDbEntity
  8
0
100
AcDbLine
 10
174.8203721570517
 20
44.52645000000029
 30
0.0
 11
173.3066421570518
 21
38.87715000000025
 31
0.0
  0
LINE
  5
3DE6
330
21CC
100
AcDbEntity
  8
0
100
AcDbLine
 10
173.2725621570517
 20
-40.82606999999962
 30
0.0
 11
173.2725621570517
 21
-41.57606999999962
 31
0.0
  0
LINE
  5
3DE7
330
21CC
100
AcDbEntity
  8
0
100
AcDbLine
 10
190.2725621570517
 20
-40.67606999999997
 30
0.0
 11
190.2725621570517
 21
-41.57606999999962
 31
0.0
  0
LINE
  5
3DE8
330
21CC
100
AcDbEntity
  8
0
100
AcDbLine
 10
-17.43025
 20
32.49954999999999
 30
0.0
 11
-18.13807999999983
 21
32.82961000000023
 31
0.0
  0
LINE
  5
3DE9
330
21CC
100
AcDbEntity
  8
0
100
AcDbLine
 10
-18.71163999999987
 20
33.82306000000017
 30
0.0
 11
-17.89207999999996
 21
43.1907000000001
 31
0.0
  0
LINE
  5
3DEA
330
21CC
100
AcDbEntity
  8
0
100
AcDbLine
 10
-19.43036999999992
 20
31.3447600000004
 30
0.0
 11
-18.59520999999983
 21
40.89077000000043
 31
0.0
  0
LINE
  5
3DEB
330
21CC
100
AcDbEntity
  8
0
100
AcDbLine
 10
-33.75718999999992
 20
32.70125000000007
 30
0.0
 11
-28.67846999999994
 21
43.5926000000004
 31
0.0
  0
LINE
  5
3DEC
330
21CC
100
AcDbEntity
  8
0
100
AcDbLine
 10
-11.44161999999994
 20
45.58516000000008
 30
0.0
 11
-23.41309999999987
 21
46.63253000000032
 31
0.0
  0
LINE
  5
3DED
330
21CC
100
AcDbEntity
  8
0
100
AcDbLine
 10
-5.821329999999875
 20
38.78201000000035
 30
0.0
 11
-16.4761299999999
 21
43.75043000000005
 31
0.0
  0
LINE
  5
3DEE
330
21CC
100
AcDbEntity
  8
0
100
AcDbLine
 10
-27.68773999999996
 20
29.01096000000007
 30
0.0
 11
-34.08660999999995
 21
31.99479999999994
 31
0.0
  0
LINE
  5
3DEF
330
21CC
100
AcDbEntity
  8
0
100
AcDbLine
 10
40.3366400000001
 20
12.72432000000026
 30
0.0
 11
44.27821000000006
 21
14.99999000000025
 31
0.0
  0
LINE
  5
3DF0
330
21CC
100
AcDbEntity
  8
0
100
AcDbLine
 10
178.9225921570517
 20
-46.7500299999997
 30
0.0
 11
177.7181521570518
 21
-46.7500299999997
 31
0.0
  0
ARC
  5
3DF1
330
21CC
100
AcDbEntity
  8
0
100
AcDbCircle
 10
59.50000000000011
 20
14.0
 30
0.0
 40
1.0
100
AcDbArc
 50
0.0
 51
90.0
  0
ARC
  5
3DF2
330
21CC
100
AcDbEntity
  8
0
100
AcDbCircle
 10
59.50000000000011
 20
5.0
 30
0.0
 40
1.0
100
AcDbArc
 50
269.9999970000023
 51
0.0
  0
ARC
  5
3DF3
330
21CC
100
AcDbEntity
  8
0
100
AcDbCircle
 10
59.50000000000011
 20
-5.0
 30
0.0
 40
1.0
100
AcDbArc
 50
0.0
 51
90.0
  0
ARC
  5
3DF4
330
21CC
100
AcDbEntity
  8
0
100
AcDbCircle
 10
53.50000000000012
 20
-32.50002999999969
 30
0.0
 40
8.0
100
AcDbArc
 50
240.0000000000006
 51
300.0000049999958
  0
ARC
  5
3DF5
330
21CC
100
AcDbEntity
  8
0
100
AcDbCircle
 10
56.50000000000011
 20
-31.20001000000002
 30
0.0
 40
2.0
100
AcDbArc
 50
359.9999913485851
 51
60.00000000000068
  0
ARC
  5
3DF6
330
21CC
100
AcDbEntity
  8
0
100
AcDbCircle
 10
50.50000000000011
 20
-31.20001000000002
 30
0.0
 40
2.0
100
AcDbArc
 50
119.9999899999925
 51
179.9999899999989
  0
ARC
  5
3DF7
330
21CC
100
AcDbEntity
  8
0
100
AcDbCircle
 10
53.50000000000012
 20
-43.0000299999997
 30
0.0
 40
5.0
100
AcDbArc
 50
179.9999899999989
 51
0.0000100000010064
  0
ARC
  5
3DF8
330
21CC
100
AcDbEntity
  8
0
100
AcDbCircle
 10
34.50000000000011
 20
-48.0000299999997
 30
0.0
 40
35.0
100
AcDbArc
 50
356.5254056999958
 51
35.24750999999153
  0
ARC
  5
3DF9
330
21CC
100
AcDbEntity
  8
0
100
AcDbCircle
 10
71.25000000000011
 20
-22.03008999999974
 30
0.0
 40
10.0
100
AcDbArc
 50
179.9999899999989
 51
215.2474999999989
  0
ARC
  5
3DFA
330
21CC
100
AcDbEntity
  8
0
100
AcDbCircle
 10
35.75000000000011
 20
-22.03008999999974
 30
0.0
 40
10.0
100
AcDbArc
 50
324.7524979999964
 51
0.0000100000010064
  0
ARC
  5
3DFB
330
21CC
100
AcDbEntity
  8
0
100
AcDbCircle
 10
72.50000000000011
 20
-48.0000299999997
 30
0.0
 40
35.0
100
AcDbArc
 50
144.7524900000084
 51
183.4745899999905
  0
ARC
  5
3DFC
330
21CC
100
AcDbEntity
  8
0
100
AcDbCircle
 10
53.50000000000012
 20
-17.90002999999978
 30
0.0
 40
7.75
100
AcDbArc
 50
158.02528285816
 51
179.9999899999989
  0
ARC
  5
3DFD
330
21CC
100
AcDbEntity
  8
0
100
AcDbCircle
 10
53.50000000000012
 20
-17.90002999999978
 30
0.0
 40
7.75
100
AcDbArc
 50
0.0000100000010064
 51
26.83102656175668
  0
ARC
  5
3DFE
330
21CC
100
AcDbEntity
  8
0
100
AcDbCircle
 10
53.50000000000012
 20
9.5
 30
0.0
 40
6.0
100
AcDbArc
 50
66.44353569089929
 51
113.55645999999
  0
ARC
  5
3DFF
330
21CC
100
AcDbEntity
  8
0
100
AcDbCircle
 10
67.43933000000004
 20
-50.0000299999997
 30
0.0
 40
2.0
100
AcDbArc
 50
270.0000040000056
 51
356.5254056999958
  0
ARC
  5
3E00
330
21CC
100
AcDbEntity
  8
0
100
AcDbCircle
 10
39.56065999999998
 20
-50.0000299999997
 30
0.0
 40
2.0
100
AcDbArc
 50
183.4745899999905
 51
270.0000040000056
  0
ARC
  5
3E01
330
21CC
100
AcDbEntity
  8
0
100
AcDbCircle
 10
174.2725621570517
 20
-38.61837999999989
 30
0.0
 40
1.0
100
AcDbArc
 50
179.9999899999989
 51
195.0000100000155
  0
ARC
  5
3E02
330
21CC
100
AcDbEntity
  8
0
100
AcDbCircle
 10
189.2725621570517
 20
-38.61837999999989
 30
0.0
 40
1.0
100
AcDbArc
 50
345.0000000000055
 51
0.0
  0
ARC
  5
3E03
330
21CC
100
AcDbEntity
  8
0
100
AcDbCircle
 10
174.2725621570517
 20
38.61833999999999
 30
0.0
 40
1.0
100
AcDbArc
 50
165.0000000000055
 51
180.0000100000009
  0
ARC
  5
3E04
330
21CC
100
AcDbEntity
  8
0
100
AcDbCircle
 10
189.2725621570517
 20
38.61833999999999
 30
0.0
 40
1.0
100
AcDbArc
 50
0.0
 51
14.99999999999445
  0
ARC
  5
3E05
330
21CC
100
AcDbEntity
  8
0
100
AcDbCircle
 10
177.7181521570518
 20
-43.7500299999997
 30
0.0
 40
3.0
100
AcDbArc
 50
195.0000100000155
 51
269.9999970000023
  0
ARC
  5
3E06
330
21CC
100
AcDbEntity
  8
0
100
AcDbCircle
 10
185.8269821570519
 20
-43.7500299999997
 30
0.0
 40
3.0
100
AcDbArc
 50
269.9999970000023
 51
345.0000000000055
  0
ARC
  5
3E07
330
21CC
100
AcDbEntity
  8
0
100
AcDbCircle
 10
177.7181521570518
 20
43.75
 30
0.0
 40
3.0
100
AcDbArc
 50
90.0
 51
164.9999899999844
  0
ARC
  5
3E08
330
21CC
100
AcDbEntity
  8
0
100
AcDbCircle
 10
185.8269821570519
 20
43.75
 30
0.0
 40
3.0
100
AcDbArc
 50
14.99999999999445
 51
90.0
  0
ARC
  5
3E09
330
21CC
100
AcDbEntity
  8
0
100
AcDbCircle
 10
176.5225621570517
 20
-10.62368999999989
 30
0.0
 40
1.0
100
AcDbArc
 50
318.6000000000059
 51
0.0
  0
ARC
  5
3E0A
330
21CC
100
AcDbEntity
  8
0
100
AcDbCircle
 10
187.0225621570517
 20
-10.62368999999989
 30
0.0
 40
1.0
100
AcDbArc
 50
179.9999899999989
 51
221.3999999999941
  0
ARC
  5
3E0B
330
21CC
100
AcDbEntity
  8
0
100
AcDbCircle
 10
173.5459421570518
 20
-14.0
 30
0.0
 40
1.0
100
AcDbArc
 50
269.9999970000023
 51
318.6000000000059
  0
ARC
  5
3E0C
330
21CC
100
AcDbEntity
  8
0
100
AcDbCircle
 10
176.0225621570517
 20
-27.20001000000002
 30
0.0
 40
2.0
100
AcDbArc
 50
179.9999899999989
 51
270.0000040000056
  0
ARC
  5
3E0D
330
21CC
100
AcDbEntity
  8
0
100
AcDbCircle
 10
181.7725621570517
 20
-32.5
 30
0.0
 40
8.0
100
AcDbArc
 50
240.0000000000006
 51
249.1299300000058
  0
ARC
  5
3E0E
330
21CC
100
AcDbEntity
  8
0
100
AcDbCircle
 10
181.7725621570517
 20
-17.90000000000009
 30
0.0
 40
7.75
100
AcDbArc
 50
130.4219000000114
 51
179.9999899999989
  0
ARC
  5
3E0F
330
21CC
100
AcDbEntity
  8
0
100
AcDbCircle
 10
181.7725621570517
 20
7.5
 30
0.0
 40
8.0
100
AcDbArc
 50
60.00000000000068
 51
119.9999999999993
  0
ARC
  5
3E10
330
21CC
100
AcDbEntity
  8
0
100
AcDbCircle
 10
176.9225921570517
 20
-31.20001000000002
 30
0.0
 40
2.0
100
AcDbArc
 50
359.9999949910625
 51
90.0
  0
ARC
  5
3E11
330
21CC
100
AcDbEntity
  8
0
100
AcDbCircle
 10
179.9225921570517
 20
-51.0
 30
0.0
 40
1.0
100
AcDbArc
 50
179.9999899999989
 51
270.0000040000056
  0
ARC
  5
3E12
330
21CC
100
AcDbEntity
  8
0
100
AcDbCircle
 10
183.6225721570518
 20
-51.0
 30
0.0
 40
1.0
100
AcDbArc
 50
269.9999970000023
 51
0.0
  0
ARC
  5
3E13
330
21CC
100
AcDbEntity
  8
0
100
AcDbCircle
 10
186.6225721570518
 20
-31.20001000000002
 30
0.0
 40
2.0
100
AcDbArc
 50
90.0
 51
180.0000100000009
  0
ARC
  5
3E14
330
21CC
100
AcDbEntity
  8
0
100
AcDbCircle
 10
187.5225621570517
 20
-27.20001000000002
 30
0.0
 40
2.0
100
AcDbArc
 50
269.9999970000023
 51
0.0
  0
ARC
  5
3E15
330
21CC
100
AcDbEntity
  8
0
100
AcDbCircle
 10
181.7725621570517
 20
-32.5
 30
0.0
 40
8.0
100
AcDbArc
 50
290.8700709999917
 51
299.9999979999987
  0
ARC
  5
3E16
330
21CC
100
AcDbEntity
  8
0
100
AcDbCircle
 10
181.7725621570517
 20
-17.90000000000009
 30
0.0
 40
7.75
100
AcDbArc
 50
0.0
 51
49.57807999999683
  0
ARC
  5
3E17
330
21CC
100
AcDbEntity
  8
0
100
AcDbCircle
 10
190.5225621570517
 20
12.09999999999991
 30
0.0
 40
0.5
100
AcDbArc
 50
0.0
 51
90.0
  0
ARC
  5
3E18
330
21CC
100
AcDbEntity
  8
0
100
AcDbCircle
 10
190.5225621570517
 20
6.899990000000343
 30
0.0
 40
0.5
100
AcDbArc
 50
269.9999970000023
 51
0.0
  0
ARC
  5
3E19
330
21CC
100
AcDbEntity
  8
0
100
AcDbCircle
 10
189.9991921570518
 20
-14.0
 30
0.0
 40
1.0
100
AcDbArc
 50
221.3999999999941
 51
269.9999970000023
  0
ARC
  5
3E1A
330
21CC
100
AcDbEntity
  8
0
100
AcDbCircle
 10
190.7725621570517
 20
34.97606000000041
 30
0.0
 40
0.5
100
AcDbArc
 50
269.9999970000023
 51
0.0
  0
ARC
  5
3E1B
330
21CC
100
AcDbEntity
  8
0
100
AcDbCircle
 10
190.7725621570517
 20
40.17606999999998
 30
0.0
 40
0.5
100
AcDbArc
 50
0.0
 51
90.0
  0
ARC
  5
3E1C
330
21CC
100
AcDbEntity
  8
0
100
AcDbCircle
 10
190.7725621570517
 20
-34.97605999999996
 30
0.0
 40
0.5
100
AcDbArc
 50
0.0
 51
90.0
  0
ARC
  5
3E1D
330
21CC
100
AcDbEntity
  8
0
100
AcDbCircle
 10
190.7725621570517
 20
-40.17606999999998
 30
0.0
 40
0.5
100
AcDbArc
 50
269.9999970000023
 51
0.0
  0
ARC
  5
3E1E
330
21CC
100
AcDbEntity
  8
0
100
AcDbCircle
 10
174.2725621570517
 20
41.57605999999987
 30
0.0
 40
1.0
100
AcDbArc
 50
90.0
 51
180.0000100000009
  0
ARC
  5
3E1F
330
21CC
100
AcDbEntity
  8
0
100
AcDbCircle
 10
189.2725621570517
 20
41.57605999999987
 30
0.0
 40
1.0
100
AcDbArc
 50
0.0
 51
90.0
  0
ARC
  5
3E20
330
21CC
100
AcDbEntity
  8
0
100
AcDbCircle
 10
174.2725621570517
 20
-41.57606999999962
 30
0.0
 40
1.0
100
AcDbArc
 50
179.9999899999989
 51
269.9999970000023
  0
ARC
  5
3E21
330
21CC
100
AcDbEntity
  8
0
100
AcDbCircle
 10
189.2725621570517
 20
-41.57606999999962
 30
0.0
 40
1.0
100
AcDbArc
 50
269.9999970000023
 51
0.0
  0
ARC
  5
3E22
330
21CC
100
AcDbEntity
  8
0
100
AcDbCircle
 10
0.0000000000001137
 20
0.0
 30
0.0
 40
47.75
100
AcDbArc
 50
106.7693099999977
 51
134.2895699999991
  0
ARC
  5
3E23
330
21CC
100
AcDbEntity
  8
0
100
AcDbCircle
 10
-23.87502999999981
 20
41.35269999999991
 30
0.0
 40
5.3000002
100
AcDbArc
 50
354.9999925000031
 51
154.9998124487581
  0
ARC
  5
3E24
330
21CC
100
AcDbEntity
  8
0
100
AcDbCircle
 10
-11.00582999999994
 20
50.56614000000036
 30
0.0
 40
5.0
100
AcDbArc
 50
264.9999979999948
 51
282.2790380000022
  0
ARC
  5
3E25
330
21CC
100
AcDbEntity
  8
0
100
AcDbCircle
 10
-22.41894999999988
 20
31.60622999999986
 30
0.0
 40
3.0
100
AcDbArc
 50
305.3488490000071
 51
355.0000001000157
  0
ARC
  5
3E26
330
21CC
100
AcDbEntity
  8
0
100
AcDbCircle
 10
-17.71546
 20
33.73590999999987
 30
0.0
 40
1.0
100
AcDbArc
 50
174.9999999999999
 51
244.9999999999933
  0
ARC
  5
3E27
330
21CC
100
AcDbEntity
  8
0
100
AcDbCircle
 10
-38.28872999999987
 20
34.81433000000015
 30
0.0
 40
5.0
100
AcDbArc
 50
317.7210500000021
 51
334.9999999999961
  0
ARC
  5
3E28
330
21CC
100
AcDbEntity
  8
0
100
AcDbCircle
 10
-16.16238999999984
 20
35.21847000000025
 30
0.0
 40
3.0
100
AcDbArc
 50
244.9999999999933
 51
294.6512159999975
  0
ARC
  5
3E29
330
21CC
100
AcDbEntity
  8
0
100
AcDbCircle
 10
0.0000000000001137
 20
0.0
 30
0.0
 40
35.75
100
AcDbArc
 50
10.40733999998938
 51
114.6512100000033
  0
ARC
  5
3E2A
330
21CC
100
AcDbEntity
  8
0
100
AcDbCircle
 10
0.0000000000001137
 20
0.0
 30
0.0
 40
46.74999999999999
100
AcDbArc
 50
20.40891999998245
 51
112.5021400000004
  0
ARC
  5
3E2B
330
21CC
100
AcDbEntity
  8
0
100
AcDbCircle
 10
-28.11036000000001
 20
28.10466000000042
 30
0.0
 40
1.0
100
AcDbArc
 50
315.0057870000056
 51
64.99999999999338
  0
ARC
  5
3E2C
330
21CC
100
AcDbEntity
  8
0
100
AcDbCircle
 10
-4.553469999999947
 20
41.50094000000035
 30
0.0
 40
3.0
100
AcDbArc
 50
244.9999999999933
 51
276.2614089999917
  0
ARC
  5
3E2D
330
21CC
100
AcDbEntity
  8
0
100
AcDbCircle
 10
38.11248000000011
 20
-7.0
 30
0.0
 40
3.0
100
AcDbArc
 50
90.0
 51
169.5926500000048
  0
ARC
  5
3E2E
330
21CC
100
AcDbEntity
  8
0
100
AcDbCircle
 10
38.11248000000011
 20
7.0
 30
0.0
 40
3.0
100
AcDbArc
 50
190.4073499999951
 51
269.9999970000023
  0
ARC
  5
3E2F
330
21CC
100
AcDbEntity
  8
0
100
AcDbCircle
 10
0.0000000000001137
 20
0.0
 30
0.0
 40
38.75
100
AcDbArc
 50
21.53094999999093
 51
96.26140999999842
  0
ARC
  5
3E30
330
21CC
100
AcDbEntity
  8
0
100
AcDbCircle
 10
38.8366400000001
 20
15.32240000000001
 30
0.0
 40
3.0
100
AcDbArc
 50
201.5309499999909
 51
299.9999979999987
  0
ARC
  5
3E31
330
21CC
100
AcDbEntity
  8
0
100
AcDbCircle
 10
45.68985000000009
 20
-17.0
 30
0.0
 40
2.0
100
AcDbArc
 50
90.0
 51
159.5910899999913
  0
ARC
  5
3E32
330
21CC
100
AcDbEntity
  8
0
100
AcDbCircle
 10
45.68985000000009
 20
17.0
 30
0.0
 40
2.0
100
AcDbArc
 50
200.4089100000086
 51
269.9999970000023
  0
ELLIPSE
  5
3E33
330
21CC
100
AcDbEntity
  8
0
100
AcDbEllipse
 10
173.5225621570517
 20
9.5
 30
0.0
 11
0.0
 21
-3.250000099999999
 31
0.0
210
0.0
220
0.0
230
-1.0
 40
0.7692307400000001
 41
0.0
 42
3.1415927
  0
ELLIPSE
  5
3E34
330
21CC
100
AcDbEntity
  8
0
100
AcDbEllipse
 10
173.2725621570517
 20
37.57605999999987
 30
0.0
 11
0.0
 21
-3.250000099999999
 31
0.0
210
0.0
220
0.0
230
-1.0
 40
0.7692307400000001
 41
0.0
 42
3.1415927
  0
ELLIPSE
  5
3E35
330
21CC
100
AcDbEntity
  8
0
100
AcDbEllipse
 10
173.2725621570517
 20
-37.57606999999961
 30
0.0
 11
0.0
 21
3.250000099999999
 31
0.0
210
0.0
220
0.0
230
-1.0
 40
0.7692307400000001
 41
3.1415927
 42
6.283185299999999
  0
LINE
  5
3E36
330
21CC
100
AcDbEntity
  8
0
100
AcDbLine
 10
-17.43025
 20
-32.49954999999999
 30
0.0
 11
-18.13807999999983
 21
-32.82961000000023
 31
0.0
  0
LINE
  5
3E37
330
21CC
100
AcDbEntity
  8
0
100
AcDbLine
 10
-18.71163999999987
 20
-33.82306000000017
 30
0.0
 11
-17.89207999999996
 21
-43.1907000000001
 31
0.0
  0
LINE
  5
3E38
330
21CC
100
AcDbEntity
  8
0
100
AcDbLine
 10
-19.43036999999992
 20
-31.3447600000004
 30
0.0
 11
-18.59520999999983
 21
-40.89077000000043
 31
0.0
  0
LINE
  5
3E39
330
21CC
100
AcDbEntity
  8
0
100
AcDbLine
 10
-33.75718999999992
 20
-32.70125000000007
 30
0.0
 11
-28.67846999999994
 21
-43.5926000000004
 31
0.0
  0
LINE
  5
3E3A
330
21CC
100
AcDbEntity
  8
0
100
AcDbLine
 10
-11.44161999999994
 20
-45.58516000000008
 30
0.0
 11
-23.41309999999987
 21
-46.63253000000032
 31
0.0
  0
LINE
  5
3E3B
330
21CC
100
AcDbEntity
  8
0
100
AcDbLine
 10
-5.821329999999875
 20
-38.78201000000035
 30
0.0
 11
-16.4761299999999
 21
-43.75043000000005
 31
0.0
  0
LINE
  5
3E3C
330
21CC
100
AcDbEntity
  8
0
100
AcDbLine
 10
-27.68773999999996
 20
-29.01096000000007
 30
0.0
 11
-34.08660999999995
 21
-31.99479999999994
 31
0.0
  0
LINE
  5
3E3D
330
21CC
100
AcDbEntity
  8
0
100
AcDbLine
 10
40.3366400000001
 20
-12.72432000000026
 30
0.0
 11
44.27821000000006
 21
-14.99999000000025
 31
0.0
  0
ARC
  5
3E3E
330
21CC
100
AcDbEntity
  8
0
100
AcDbCircle
 10
0.0000000000001137
 20
0.0
 30
0.0
 40
46.74999999999999
100
AcDbArc
 50
137.7210599999943
 51
222.2789400000056
  0
ARC
  5
3E3F
330
21CC
100
AcDbEntity
  8
0
100
AcDbCircle
 10
0.0000000000001137
 20
0.0
 30
0.0
 40
35.75
100
AcDbArc
 50
125.3488500000019
 51
234.6511499999952
  0
ARC
  5
3E40
330
21CC
100
AcDbEntity
  8
0
100
AcDbCircle
 10
0.0000000000001137
 20
0.0
 30
0.0
 40
47.75
100
AcDbArc
 50
225.7104300000008
 51
253.2306900000022
  0
ARC
  5
3E41
330
21CC
100
AcDbEntity
  8
0
100
AcDbCircle
 10
-23.87502999999981
 20
-41.35269999999991
 30
0.0
 40
5.3000002
100
AcDbArc
 50
205.0001875512709
 51
5.000007500023353
  0
ARC
  5
3E42
330
21CC
100
AcDbEntity
  8
0
100
AcDbCircle
 10
-11.00582999999994
 20
-50.56614000000036
 30
0.0
 40
5.0
100
AcDbArc
 50
77.72096199999771
 51
95.00000199999204
  0
ARC
  5
3E43
330
21CC
100
AcDbEntity
  8
0
100
AcDbCircle
 10
-22.41894999999988
 20
-31.60622999999986
 30
0.0
 40
3.0
100
AcDbArc
 50
4.999999900010805
 51
54.65115100002581
  0
ARC
  5
3E44
330
21CC
100
AcDbEntity
  8
0
100
AcDbCircle
 10
-17.71546
 20
-33.73590999999987
 30
0.0
 40
1.0
100
AcDbArc
 50
114.9999999999927
 51
184.9999999999735
  0
ARC
  5
3E45
330
21CC
100
AcDbEntity
  8
0
100
AcDbCircle
 10
-38.28872999999987
 20
-34.81433000000015
 30
0.0
 40
5.0
100
AcDbArc
 50
24.99999999997741
 51
42.27894999999784
  0
ARC
  5
3E46
330
21CC
100
AcDbEntity
  8
0
100
AcDbCircle
 10
-16.16238999999984
 20
-35.21847000000025
 30
0.0
 40
3.0
100
AcDbArc
 50
65.34878399998859
 51
114.9999999999927
  0
ARC
  5
3E47
330
21CC
100
AcDbEntity
  8
0
100
AcDbCircle
 10
0.0000000000001137
 20
0.0
 30
0.0
 40
35.75
100
AcDbArc
 50
245.3487899999966
 51
349.5926600000105
  0
ARC
  5
3E48
330
21CC
100
AcDbEntity
  8
0
100
AcDbCircle
 10
0.0000000000001137
 20
0.0
 30
0.0
 40
46.74999999999999
100
AcDbArc
 50
247.4978599999995
 51
339.59107999999
  0
ARC
  5
3E49
330
21CC
100
AcDbEntity
  8
0
100
AcDbCircle
 10
0.0000000000001137
 20
0.0
 30
0.0
 40
38.75
100
AcDbArc
 50
135.0057999999894
 51
224.9941999999737
  0
ARC
  5
3E4A
330
21CC
100
AcDbEntity
  8
0
100
AcDbCircle
 10
-28.11036000000001
 20
-28.10466000000042
 30
0.0
 40
1.0
100
AcDbArc
 50
294.9999999999927
 51
44.99421299999435
  0
ARC
  5
3E4B
330
21CC
100
AcDbEntity
  8
0
100
AcDbCircle
 10
-4.553469999999947
 20
-41.50094000000035
 30
0.0
 40
3.0
100
AcDbArc
 50
83.73859099999519
 51
114.9999999999927
  0
ARC
  5
3E4C
330
21CC
100
AcDbEntity
  8
0
100
AcDbCircle
 10
0.0000000000001137
 20
0.0
 30
0.0
 40
38.75
100
AcDbArc
 50
263.7385900000015
 51
338.4690499999792
  0
ARC
  5
3E4D
330
21CC
100
AcDbEntity
  8
0
100
AcDbCircle
 10
38.8366400000001
 20
-15.32240000000001
 30
0.0
 40
3.0
100
AcDbArc
 50
60.00000200001704
 51
158.4690499999792
  0
LINE
  5
3E4E
330
21CC
100
AcDbEntity
  8
0
100
AcDbLine
 10
59.25000000000011
 20
-29.20001000000002
 30
0.0
 11
47.75000000000011
 21
-29.20001000000002
 31
0.0
  0
ARC
  5
3E4F
330
21CC
100
AcDbEntity
  8
0
100
AcDbCircle
 10
59.24999999999966
 20
-27.20001000000002
 30
0.0
 40
2.0
100
AcDbArc
 50
270.000000000013
 51
0.0
  0
ARC
  5
3E50
330
21CC
100
AcDbEntity
  8
0
100
AcDbCircle
 10
47.75000000000057
 20
-27.20001000000002
 30
0.0
 40
2.0
100
AcDbArc
 50
180.0
 51
269.999999999987
  0
CIRCLE
  5
3E51
330
21CC
100
AcDbEntity
  8
0
100
AcDbCircle
 10
-23.87502999999981
 20
41.35269999999991
 30
0.0
 40
2.599999899999999
  0
CIRCLE
  5
3E52
330
21CC
100
AcDbEntity
  8
0
100
AcDbCircle
 10
-23.87502999999981
 20
-41.35269999999991
 30
0.0
 40
2.599999899999999
  0
CIRCLE
  5
3E53
330
21CC
100
AcDbEntity
  8
0
100
AcDbCircle
 10
53.50000000000012
 20
9.5
 30
0.0
 40
3.250000099999851
  0
ENDSEC
  0
SECTION
  2
OBJECTS
  0
DICTIONARY
  5
21BA
330
0
100
AcDbDictionary
281
     1
  3
ACAD_GROUP
350
21BB
  3
ACAD_LAYOUT
350
21C7
  3
ACAD_MLINESTYLE
350
21C4
  3
ACAD_PLOTSETTINGS
350
21C6
  3
ACAD_PLOTSTYLENAME
350
21BC
  3
AcDbVariableDictionary
350
2238
  0
DICTIONARY
  5
2244
330
21B0
100
AcDbDictionary
280
     1
281
     1
  3
ACAD_LAYERSTATES
360
2245
  0
DICTIONARY
  5
21F8
330
21CC
100
AcDbDictionary
280
     1
281
     1
  3
ACAD_LAYOUTSELFREF
360
2227
  0
DICTIONARY
  5
21FA
330
21C8
100
AcDbDictionary
280
     1
281
     1
  3
ACAD_LAYOUTSELFREF
360
2226
  0
DICTIONARY
  5
21BB
102
{ACAD_REACTORS
330
21BA
102
}
330
21BA
100
AcDbDictionary
281
     1
  0
DICTIONARY
  5
21C7
102
{ACAD_REACTORS
330
21BA
102
}
330
21BA
100
AcDbDictionary
281
     1
  3
Model
350
21CF
  3
ﾚｲｱｳﾄ1
350
21CB
  0
DICTIONARY
  5
21C4
102
{ACAD_REACTORS
330
21BA
102
}
330
21BA
100
AcDbDictionary
281
     1
  3
Standard
350
21C5
  0
DICTIONARY
  5
21C6
102
{ACAD_REACTORS
330
21BA
102
}
330
21BA
100
AcDbDictionary
281
     1
  0
ACDBDICTIONARYWDFLT
  5
21BC
102
{ACAD_REACTORS
330
21BA
102
}
330
21BA
100
AcDbDictionary
281
     1
  3
Normal
350
21BD
100
AcDbDictionaryWithDefault
340
21BD
  0
DICTIONARY
  5
2238
102
{ACAD_REACTORS
330
21BA
102
}
330
21BA
100
AcDbDictionary
281
     1
  3
DIMASSOC
350
2239
  0
DICTIONARY
  5
2245
102
{ACAD_REACTORS
330
2244
102
}
330
2244
100
AcDbDictionary
281
     1
  0
XRECORD
  5
2227
102
{ACAD_REACTORS
330
21F8
102
}
330
21F8
100
AcDbXrecord
280
     1
340
21CC
  0
XRECORD
  5
2226
102
{ACAD_REACTORS
330
21FA
102
}
330
21FA
100
AcDbXrecord
280
     1
340
21C8
  0
LAYOUT
  5
21CF
102
{ACAD_REACTORS
330
21C7
102
}
330
21C7
100
AcDbPlotSettings
  1

  2
SII LP-2150 (D-SCAN C2)
  4

  6

 40
0.0
 41
0.0
 42
0.0
 43
0.0
 44
0.0
 45
0.0
 46
0.0
 47
0.0
 48
0.0
 49
0.0
140
0.0
141
0.0
142
1.0
143
1.0
 70
  1712
 72
     0
 73
     0
 74
     0
  7

 75
     0
147
1.0
148
0.0
149
0.0
100
AcDbLayout
  1
Model
 70
     1
 71
     0
 10
0.0
 20
0.0
 11
12.0
 21
9.0
 12
0.0
 22
0.0
 32
0.0
 14
0.0
 24
0.0
 34
0.0
 15
0.0
 25
0.0
 35
0.0
146
0.0
 13
0.0
 23
0.0
 33
0.0
 16
1.0
 26
0.0
 36
0.0
 17
0.0
 27
1.0
 37
0.0
 76
     0
330
21CC
  0
LAYOUT
  5
21CB
102
{ACAD_REACTORS
330
21C7
102
}
330
21C7
100
AcDbPlotSettings
  1

  2
SII LP-2150 (D-SCAN C2)
  4

  6

 40
0.0
 41
0.0
 42
0.0
 43
0.0
 44
0.0
 45
0.0
 46
0.0
 47
0.0
 48
0.0
 49
0.0
140
0.0
141
0.0
142
1.0
143
1.0
 70
   688
 72
     0
 73
     0
 74
     5
  7

 75
    16
147
1.0
148
0.0
149
0.0
100
AcDbLayout
  1
ﾚｲｱｳﾄ1
 70
     1
 71
     1
 10
0.0
 20
0.0
 11
12.0
 21
9.0
 12
0.0
 22
0.0
 32
0.0
 14
1.000000000000000E+20
 24
1.000000000000000E+20
 34
1.000000000000000E+20
 15
-1.000000000000000E+20
 25
-1.000000000000000E+20
 35
-1.000000000000000E+20
146
0.0
 13
0.0
 23
0.0
 33
0.0
 16
1.0
 26
0.0
 36
0.0
 17
0.0
 27
1.0
 37
0.0
 76
     0
330
21C8
  0
MLINESTYLE
  5
21C5
102
{ACAD_REACTORS
330
21C4
102
}
330
21C4
100
AcDbMlineStyle
  2
STANDARD
 70
     0
  3

 62
   256
 51
90.0
 52
90.0
 71
     2
 49
0.5
 62
   256
  6
BYLAYER
 49
-0.5
 62
   256
  6
BYLAYER
  0
ACDBPLACEHOLDER
  5
21BD
102
{ACAD_REACTORS
330
21BC
102
}
330
21BC
  0
DICTIONARYVAR
  5
2239
102
{ACAD_REACTORS
330
2238
102
}
330
2238
100
DictionaryVariables
280
     0
  1
1
  0
ENDSEC
  0
EOF
