  0
SECTION
  2
HEADER
  9
$ACADVER
  1
AC1015
  9
$ACADMAINTVER
 70
    14
  9
$DWGCODEPAGE
  3
ANSI_932
  9
$INSBASE
 10
0.0
 20
0.0
 30
0.0
  9
$EXTMIN
 10
-80.01071384560146
 20
-120.0238501981789
 30
-0.0000000000112498
  9
$EXTMAX
 10
849.7511672257694
 20
198.0237134709593
 30
0.0000000000002956
  9
$LIMMIN
 10
0.0
 20
0.0
  9
$LIMMAX
 10
12.0
 20
9.0
  9
$ORTHOMODE
 70
     0
  9
$REGENMODE
 70
     1
  9
$FILLMODE
 70
     1
  9
$QTEXTMODE
 70
     0
  9
$MIRRTEXT
 70
     1
  9
$LTSCALE
 40
1.0
  9
$ATTMODE
 70
     1
  9
$TEXTSIZE
 40
0.2
  9
$TRACEWID
 40
0.05
  9
$TEXTSTYLE
  7
STANDARD
  9
$CLAYER
  8
0
  9
$CELTYPE
  6
CONTINUOUS
  9
$CECOLOR
 62
   256
  9
$CELTSCALE
 40
1.0
  9
$DISPSILH
 70
     0
  9
$DIMSCALE
 40
1.0
  9
$DIMASZ
 40
1.0
  9
$DIMEXO
 40
2.54
  9
$DIMDLI
 40
0.38
  9
$DIMRND
 40
0.0
  9
$DIMDLE
 40
0.0
  9
$DIMEXE
 40
2.54
  9
$DIMTP
 40
0.0
  9
$DIMTM
 40
0.0
  9
$DIMTXT
 40
3.2
  9
$DIMCEN
 40
0.09
  9
$DIMTSZ
 40
0.0
  9
$DIMTOL
 70
     0
  9
$DIMLIM
 70
     0
  9
$DIMTIH
 70
     0
  9
$DIMTOH
 70
     0
  9
$DIMSE1
 70
     0
  9
$DIMSE2
 70
     0
  9
$DIMTAD
 70
     1
  9
$DIMZIN
 70
     0
  9
$DIMBLK
  1

  9
$DIMASO
 70
     1
  9
$DIMSHO
 70
     0
  9
$DIMPOST
  1

  9
$DIMAPOST
  1

  9
$DIMALT
 70
     0
  9
$DIMALTD
 70
     2
  9
$DIMALTF
 40
25.4
  9
$DIMLFAC
 40
1.0
  9
$DIMTOFL
 70
     0
  9
$DIMTVP
 40
1.0
  9
$DIMTIX
 70
     0
  9
$DIMSOXD
 70
     0
  9
$DIMSAH
 70
     1
  9
$DIMBLK1
  1

  9
$DIMBLK2
  1

  9
$DIMSTYLE
  2
STANDARD
  9
$DIMCLRD
 70
     0
  9
$DIMCLRE
 70
     0
  9
$DIMCLRT
 70
     0
  9
$DIMTFAC
 40
1.0
  9
$DIMGAP
 40
1.6
  9
$DIMJUST
 70
     0
  9
$DIMSD1
 70
     0
  9
$DIMSD2
 70
     0
  9
$DIMTOLJ
 70
     1
  9
$DIMTZIN
 70
     0
  9
$DIMALTZ
 70
     0
  9
$DIMALTTZ
 70
     0
  9
$DIMUPT
 70
     0
  9
$DIMDEC
 70
     4
  9
$DIMTDEC
 70
     4
  9
$DIMALTU
 70
     2
  9
$DIMALTTD
 70
     2
  9
$DIMTXSTY
  7
STANDARD
  9
$DIMAUNIT
 70
     0
  9
$DIMADEC
 70
     0
  9
$DIMALTRND
 40
0.0
  9
$DIMAZIN
 70
     0
  9
$DIMDSEP
 70
    46
  9
$DIMATFIT
 70
     3
  9
$DIMFRAC
 70
     0
  9
$DIMLDRBLK
  1

  9
$DIMLUNIT
 70
     2
  9
$DIMLWD
 70
    -2
  9
$DIMLWE
 70
    -2
  9
$DIMTMOVE
 70
     0
  9
$LUNITS
 70
     2
  9
$LUPREC
 70
     4
  9
$SKETCHINC
 40
0.1
  9
$FILLETRAD
 40
0.0
  9
$AUNITS
 70
     0
  9
$AUPREC
 70
     0
  9
$MENU
  1
.
  9
$ELEVATION
 40
0.0
  9
$PELEVATION
 40
0.0
  9
$THICKNESS
 40
0.0
  9
$LIMCHECK
 70
     0
  9
$CHAMFERA
 40
0.0
  9
$CHAMFERB
 40
0.0
  9
$CHAMFERC
 40
0.0
  9
$CHAMFERD
 40
0.0
  9
$SKPOLY
 70
     0
  9
$TDCREATE
 40
2452488.423138738
  9
$TDUCREATE
 40
2452488.048138738
  9
$TDUPDATE
 40
2456906.720990058
  9
$TDUUPDATE
 40
2456906.345990058
  9
$TDINDWG
 40
0.2835116667
  9
$TDUSRTIMER
 40
0.2835114815
  9
$USRTIMER
 70
     1
  9
$ANGBASE
 50
0.0
  9
$ANGDIR
 70
     0
  9
$PDMODE
 70
     3
  9
$PDSIZE
 40
0.0
  9
$PLINEWID
 40
0.0
  9
$SPLFRAME
 70
     0
  9
$SPLINETYPE
 70
     6
  9
$SPLINESEGS
 70
     8
  9
$HANDSEED
  5
33DE
  9
$SURFTAB1
 70
     6
  9
$SURFTAB2
 70
     6
  9
$SURFTYPE
 70
     6
  9
$SURFU
 70
     6
  9
$SURFV
 70
     6
  9
$UCSBASE
  2

  9
$UCSNAME
  2

  9
$UCSORG
 10
0.0
 20
0.0
 30
0.0
  9
$UCSXDIR
 10
1.0
 20
0.0
 30
0.0
  9
$UCSYDIR
 10
0.0
 20
1.0
 30
0.0
  9
$UCSORTHOREF
  2

  9
$UCSORTHOVIEW
 70
     0
  9
$UCSORGTOP
 10
0.0
 20
0.0
 30
0.0
  9
$UCSORGBOTTOM
 10
0.0
 20
0.0
 30
0.0
  9
$UCSORGLEFT
 10
0.0
 20
0.0
 30
0.0
  9
$UCSORGRIGHT
 10
0.0
 20
0.0
 30
0.0
  9
$UCSORGFRONT
 10
0.0
 20
0.0
 30
0.0
  9
$UCSORGBACK
 10
0.0
 20
0.0
 30
0.0
  9
$PUCSBASE
  2

  9
$PUCSNAME
  2

  9
$PUCSORG
 10
0.0
 20
0.0
 30
0.0
  9
$PUCSXDIR
 10
1.0
 20
0.0
 30
0.0
  9
$PUCSYDIR
 10
0.0
 20
1.0
 30
0.0
  9
$PUCSORTHOREF
  2

  9
$PUCSORTHOVIEW
 70
     0
  9
$PUCSORGTOP
 10
0.0
 20
0.0
 30
0.0
  9
$PUCSORGBOTTOM
 10
0.0
 20
0.0
 30
0.0
  9
$PUCSORGLEFT
 10
0.0
 20
0.0
 30
0.0
  9
$PUCSORGRIGHT
 10
0.0
 20
0.0
 30
0.0
  9
$PUCSORGFRONT
 10
0.0
 20
0.0
 30
0.0
  9
$PUCSORGBACK
 10
0.0
 20
0.0
 30
0.0
  9
$USERI1
 70
     0
  9
$USERI2
 70
     0
  9
$USERI3
 70
     0
  9
$USERI4
 70
     0
  9
$USERI5
 70
     0
  9
$USERR1
 40
0.0
  9
$USERR2
 40
0.0
  9
$USERR3
 40
0.0
  9
$USERR4
 40
0.0
  9
$USERR5
 40
0.0
  9
$WORLDVIEW
 70
     1
  9
$SHADEDGE
 70
     3
  9
$SHADEDIF
 70
    70
  9
$TILEMODE
 70
     1
  9
$MAXACTVP
 70
    48
  9
$PINSBASE
 10
0.0
 20
0.0
 30
0.0
  9
$PLIMCHECK
 70
     0
  9
$PEXTMIN
 10
1.000000000000000E+20
 20
1.000000000000000E+20
 30
1.000000000000000E+20
  9
$PEXTMAX
 10
-1.000000000000000E+20
 20
-1.000000000000000E+20
 30
-1.000000000000000E+20
  9
$PLIMMIN
 10
0.0
 20
0.0
  9
$PLIMMAX
 10
12.0
 20
9.0
  9
$UNITMODE
 70
     0
  9
$VISRETAIN
 70
     1
  9
$PLINEGEN
 70
     0
  9
$PSLTSCALE
 70
     1
  9
$TREEDEPTH
 70
  3020
  9
$CMLSTYLE
  2
Standard
  9
$CMLJUST
 70
     0
  9
$CMLSCALE
 40
1.0
  9
$PROXYGRAPHICS
 70
     1
  9
$MEASUREMENT
 70
     0
  9
$CELWEIGHT
370
    -1
  9
$ENDCAPS
280
     0
  9
$JOINSTYLE
280
     0
  9
$LWDISPLAY
290
     0
  9
$INSUNITS
 70
     0
  9
$HYPERLINKBASE
  1

  9
$STYLESHEET
  1

  9
$XEDIT
290
     1
  9
$CEPSNTYPE
380
     0
  9
$PSTYLEMODE
290
     1
  9
$FINGERPRINTGUID
  2
{FFE95C04-33D2-4560-80D0-1E2918E4EC86}
  9
$VERSIONGUID
  2
{C5BF7E0F-E1D8-49D3-B877-B4258F17DBDB}
  9
$EXTNAMES
290
     1
  9
$PSVPSCALE
 40
0.0
  9
$OLESTARTUP
290
     0
  0
ENDSEC
  0
SECTION
  2
CLASSES
  0
CLASS
  1
ACDBDICTIONARYWDFLT
  2
AcDbDictionaryWithDefault
  3
AutoCAD 2000
 90
        0
280
     0
281
     0
  0
CLASS
  1
ACDBPLACEHOLDER
  2
AcDbPlaceHolder
  3
AutoCAD 2000
 90
        0
280
     0
281
     0
  0
CLASS
  1
LAYOUT
  2
AcDbLayout
  3
AutoCAD 2000
 90
        0
280
     0
281
     0
  0
CLASS
  1
DICTIONARYVAR
  2
AcDbDictionaryVar
  3
AutoCAD 2000
 90
        0
280
     0
281
     0
  0
CLASS
  1
LONG_TRANSACTION
  2
AcDbLongTransaction
  3
AutoCAD 2000
 90
    32768
280
     0
281
     0
  0
CLASS
  1
LWPOLYLINE
  2
AcDbPolyline
  3
AutoCAD 2000
 90
    32768
280
     0
281
     1
  0
CLASS
  1
HATCH
  2
AcDbHatch
  3
AutoCAD 2000
 90
    32768
280
     0
281
     1
  0
CLASS
  1
XRECORD
  2
AcDbXrecord
  3
AutoCAD 2000
 90
    32768
280
     0
281
     0
  0
ENDSEC
  0
SECTION
  2
TABLES
  0
TABLE
  2
VPORT
  5
21B6
330
0
100
AcDbSymbolTable
 70
     2
  0
VPORT
  5
33DD
330
21B6
100
AcDbSymbolTableRecord
100
AcDbViewportTableRecord
  2
*Active
 70
     0
 10
0.0
 20
0.0
 11
1.0
 21
1.0
 12
384.870226690084
 22
38.9999316363902
 13
0.0
 23
0.0
 14
1.0
 24
1.0
 15
0.0
 25
0.0
 16
0.0
 26
0.0
 36
1.0
 17
0.0
 27
0.0
 37
0.0
 40
477.5206263248708
 41
1.953389830508474
 42
50.0
 43
0.0
 44
0.0
 50
0.0
 51
0.0
 71
     0
 72
   100
 73
     1
 74
     3
 75
     0
 76
     0
 77
     0
 78
     0
281
     0
 65
     1
110
0.0
120
0.0
130
0.0
111
1.0
121
0.0
131
0.0
112
0.0
122
1.0
132
0.0
 79
     0
146
0.0
  0
ENDTAB
  0
TABLE
  2
LTYPE
  5
21B3
330
0
100
AcDbSymbolTable
 70
     2
  0
LTYPE
  5
21C1
330
21B3
100
AcDbSymbolTableRecord
100
AcDbLinetypeTableRecord
  2
ByBlock
 70
     0
  3

 72
    65
 73
     0
 40
0.0
  0
LTYPE
  5
21C2
330
21B3
100
AcDbSymbolTableRecord
100
AcDbLinetypeTableRecord
  2
ByLayer
 70
     0
  3

 72
    65
 73
     0
 40
0.0
  0
LTYPE
  5
21C3
330
21B3
100
AcDbSymbolTableRecord
100
AcDbLinetypeTableRecord
  2
CONTINUOUS
 70
     0
  3
Solid line
 72
    65
 73
     0
 40
0.0
  0
LTYPE
  5
21D1
330
21B3
100
AcDbSymbolTableRecord
100
AcDbLinetypeTableRecord
  2
CENTER
 70
     0
  3
__ . __
 72
    65
 73
     4
 40
7.0
 49
4.0
 74
     0
 49
-1.0
 74
     0
 49
1.0
 74
     0
 49
-1.0
 74
     0
  0
ENDTAB
  0
TABLE
  2
LAYER
  5
21B0
102
{ACAD_XDICTIONARY
360
2244
102
}
330
0
100
AcDbSymbolTable
 70
     1
  0
LAYER
  5
21BE
330
21B0
100
AcDbSymbolTableRecord
100
AcDbLayerTableRecord
  2
0
 70
     0
 62
     7
  6
CONTINUOUS
370
    -3
390
21BD
  0
ENDTAB
  0
TABLE
  2
STYLE
  5
21B1
330
0
100
AcDbSymbolTable
 70
     1
  0
STYLE
  5
21BF
330
21B1
100
AcDbSymbolTableRecord
100
AcDbTextStyleTableRecord
  2
STANDARD
 70
     0
 40
0.0
 41
1.0
 50
0.0
 71
     0
 42
0.2
  3
txt
  4
BIGFONT
  0
ENDTAB
  0
TABLE
  2
VIEW
  5
21B4
330
0
100
AcDbSymbolTable
 70
     1
  0
VIEW
  5
21DE
330
21B4
100
AcDbSymbolTableRecord
100
AcDbViewTableRecord
  2
OLE1
 70
     0
 40
3692.141019219747
 10
1914.591370701856
 20
1272.206200738182
 41
4595.022665841169
 11
0.0
 21
0.0
 31
1.0
 12
0.0
 22
0.0
 32
0.0
 42
50.0
 43
0.0
 44
0.0
 50
0.0
 71
     0
281
     0
 72
     1
110
0.0
120
0.0
130
0.0
111
1.0
121
0.0
131
0.0
112
0.0
122
1.0
132
0.0
 79
     0
146
0.0
  0
ENDTAB
  0
TABLE
  2
UCS
  5
21B5
330
0
100
AcDbSymbolTable
 70
     0
  0
ENDTAB
  0
TABLE
  2
APPID
  5
21B7
330
0
100
AcDbSymbolTable
 70
     8
  0
APPID
  5
21C0
330
21B7
100
AcDbSymbolTableRecord
100
AcDbRegAppTableRecord
  2
ACAD
 70
     0
  0
APPID
  5
21DF
330
21B7
100
AcDbSymbolTableRecord
100
AcDbRegAppTableRecord
  2
MCAD_NO_VIS
 70
     0
  0
APPID
  5
21E0
330
21B7
100
AcDbSymbolTableRecord
100
AcDbRegAppTableRecord
  2
ACAD_TEMP_GRAPHIC
 70
     0
  0
APPID
  5
21E1
330
21B7
100
AcDbSymbolTableRecord
100
AcDbRegAppTableRecord
  2
ACATTRIBSERVICES
 70
     0
  0
APPID
  5
21E2
330
21B7
100
AcDbSymbolTableRecord
100
AcDbRegAppTableRecord
  2
CONTENTBLOCKICON
 70
     0
  0
APPID
  5
2241
330
21B7
100
AcDbSymbolTableRecord
100
AcDbRegAppTableRecord
  2
ACAD_DSTYLE_DIMJAG
 70
     0
  0
APPID
  5
2242
330
21B7
100
AcDbSymbolTableRecord
100
AcDbRegAppTableRecord
  2
ACAD_DSTYLE_DIMTALN
 70
     0
  0
APPID
  5
2243
330
21B7
100
AcDbSymbolTableRecord
100
AcDbRegAppTableRecord
  2
ACAD_PSEXT
 70
     0
  0
ENDTAB
  0
TABLE
  2
DIMSTYLE
  5
21B8
330
0
100
AcDbSymbolTable
 70
     1
100
AcDbDimStyleTable
 71
     0
  0
DIMSTYLE
105
21E3
330
21B8
100
AcDbSymbolTableRecord
100
AcDbDimStyleTableRecord
  2
STANDARD
 70
     0
279
     2
340
21BF
  0
ENDTAB
  0
TABLE
  2
BLOCK_RECORD
  5
21AF
330
0
100
AcDbSymbolTable
 70
     0
  0
BLOCK_RECORD
  5
21CC
102
{ACAD_XDICTIONARY
360
21F8
102
}
330
21AF
100
AcDbSymbolTableRecord
100
AcDbBlockTableRecord
  2
*Model_Space
340
21CF
  0
BLOCK_RECORD
  5
21C8
102
{ACAD_XDICTIONARY
360
21FA
102
}
330
21AF
100
AcDbSymbolTableRecord
100
AcDbBlockTableRecord
  2
*Paper_Space
340
21CB
  0
ENDTAB
  0
ENDSEC
  0
SECTION
  2
BLOCKS
  0
BLOCK
  5
21CD
330
21CC
100
AcDbEntity
  8
0
100
AcDbBlockBegin
  2
*Model_Space
 70
     0
 10
0.0
 20
0.0
 30
0.0
  3
*Model_Space
  1

  0
ENDBLK
  5
21CE
330
21CC
100
AcDbEntity
  8
0
100
AcDbBlockEnd
  0
BLOCK
  5
21C9
330
21C8
100
AcDbEntity
 67
     1
  8
0
100
AcDbBlockBegin
  2
*Paper_Space
 70
     0
 10
0.0
 20
0.0
 30
0.0
  3
*Paper_Space
  1

  0
ENDBLK
  5
21CA
330
21C8
100
AcDbEntity
 67
     1
  8
0
100
AcDbBlockEnd
  0
ENDSEC
  0
SECTION
  2
ENTITIES
  0
TEXT
  5
F6E
330
21CC
100
AcDbEntity
  8
0
  6
Continuous
100
AcDbText
 10
0.0
 20
150.0
 30
0.0
 40
48.000002
  1
STE 3S
 41
1.32095
100
AcDbText
  0
LINE
  5
300B
330
21CC
100
AcDbEntity
  8
0
100
AcDbLine
 10
6.0
 20
44.0000100000002
 30
0.0
 11
6.0
 21
-43.9999799999996
 31
0.0
  0
LINE
  5
300C
330
21CC
100
AcDbEntity
  8
0
100
AcDbLine
 10
-6.0
 20
-43.9999799999996
 30
0.0
 11
-6.0
 21
44.0000100000002
 31
0.0
  0
LINE
  5
300D
330
21CC
100
AcDbEntity
  8
0
100
AcDbLine
 10
44.97353999999996
 20
-106.9583999999995
 30
0.0
 11
39.46589999999969
 21
-104.9538299999994
 31
0.0
  0
LINE
  5
300E
330
21CC
100
AcDbEntity
  8
0
100
AcDbLine
 10
-46.48499999999967
 20
56.28630000000021
 30
0.0
 11
-39.85227000000032
 21
53.19336000000021
 31
0.0
  0
LINE
  5
300F
330
21CC
100
AcDbEntity
  8
0
100
AcDbLine
 10
-41.80353000000013
 20
66.32583000000022
 30
0.0
 11
-46.01616000000013
 21
57.29172000000017
 31
0.0
  0
LINE
  5
3010
330
21CC
100
AcDbEntity
  8
0
  6
CENTER
100
AcDbLine
 10
0.0
 20
82.04721000000018
 30
0.0
 11
0.0
 21
-120.0000599999998
 31
0.0
  0
LINE
  5
3011
330
21CC
100
AcDbEntity
  8
0
100
AcDbLine
 10
-29.87019000000055
 20
66.60915000000023
 30
0.0
 11
-20.84681999999975
 21
62.40147000000025
 31
0.0
  0
LINE
  5
3012
330
21CC
100
AcDbEntity
  8
0
100
AcDbLine
 10
-31.26306000000022
 20
55.56285000000025
 30
0.0
 11
-30.63381000000026
 21
55.26942000000054
 31
0.0
  0
LINE
  5
3013
330
21CC
100
AcDbEntity
  8
0
100
AcDbLine
 10
-32.50572000000011
 20
54.64634999999998
 30
0.0
 11
-31.72028999999975
 21
63.62400000000025
 31
0.0
  0
LINE
  5
3014
330
21CC
100
AcDbEntity
  8
0
100
AcDbLine
 10
-31.83662999999978
 20
56.55627000000004
 30
0.0
 11
-30.84731999999985
 21
67.86405000000013
 31
0.0
  0
LINE
  5
3015
330
21CC
100
AcDbEntity
  8
0
100
AcDbLine
 10
86.99990999999954
 20
-43.00004999999964
 30
0.0
 11
86.99990999999954
 21
-31.19999999999981
 31
0.0
  0
LINE
  5
3016
330
21CC
100
AcDbEntity
  8
0
100
AcDbLine
 10
74.24990999999955
 20
-22.03007999999954
 30
0.0
 11
74.24990999999955
 21
-17.90003999999953
 31
0.0
  0
LINE
  5
3017
330
21CC
100
AcDbEntity
  8
0
100
AcDbLine
 10
87.99992999999995
 20
-3.999989999999797
 30
0.0
 11
64.62194999999974
 21
-3.999989999999797
 31
0.0
  0
LINE
  5
3018
330
21CC
100
AcDbEntity
  8
0
  6
CENTER
100
AcDbLine
 10
97.3190999999997
 20
0.0
 30
0.0
 11
-79.99998000000051
 21
0.0
 31
0.0
  0
LINE
  5
3019
330
21CC
100
AcDbEntity
  8
0
100
AcDbLine
 10
66.5344799999998
 20
12.16644000000042
 30
0.0
 11
72.24024000000008
 21
15.46068000000014
 31
0.0
  0
LINE
  5
301A
330
21CC
100
AcDbEntity
  8
0
100
AcDbLine
 10
87.99992999999995
 20
15.0
 30
0.0
 11
73.83765000000039
 21
15.0
 31
0.0
  0
LINE
  5
301B
330
21CC
100
AcDbEntity
  8
0
100
AcDbLine
 10
87.99992999999995
 20
4.000020000000404
 30
0.0
 11
65.51339999999981
 21
4.000020000000404
 31
0.0
  0
LINE
  5
301C
330
21CC
100
AcDbEntity
  8
0
100
AcDbLine
 10
95.93930999999974
 20
-52.00004999999965
 30
0.0
 11
68.06066999999984
 21
-52.00004999999965
 31
0.0
  0
LINE
  5
301D
330
21CC
100
AcDbEntity
  8
0
100
AcDbLine
 10
89.7499799999996
 20
-22.03007999999954
 30
0.0
 11
89.7499799999996
 21
-17.90003999999953
 31
0.0
  0
LINE
  5
301E
330
21CC
100
AcDbEntity
  8
0
100
AcDbLine
 10
85.9999799999996
 20
-1.287569999999504
 30
0.0
 11
85.29996000000028
 21
-2.499989999999797
 31
0.0
  0
LINE
  5
301F
330
21CC
100
AcDbEntity
  8
0
100
AcDbLine
 10
78.69993000000022
 20
-2.499989999999797
 30
0.0
 11
78.0
 21
-1.287599999999656
 31
0.0
  0
LINE
  5
3020
330
21CC
100
AcDbEntity
  8
0
100
AcDbLine
 10
78.69993000000022
 20
-39.42818999999963
 30
0.0
 11
78.69993000000022
 21
-29.22263999999995
 31
0.0
  0
LINE
  5
3021
330
21CC
100
AcDbEntity
  8
0
100
AcDbLine
 10
76.99997999999959
 20
-43.00004999999964
 30
0.0
 11
76.99997999999959
 21
-31.19999999999981
 31
0.0
  0
LINE
  5
3022
330
21CC
100
AcDbEntity
  8
0
100
AcDbLine
 10
77.99990999999955
 20
-39.42818999999963
 30
0.0
 11
77.99990999999955
 21
-29.46800999999959
 31
0.0
  0
LINE
  5
3023
330
21CC
100
AcDbEntity
  8
0
100
AcDbLine
 10
85.9999799999996
 20
-39.42818999999963
 30
0.0
 11
85.9999799999996
 21
-29.46800999999959
 31
0.0
  0
LINE
  5
3024
330
21CC
100
AcDbEntity
  8
0
100
AcDbLine
 10
85.29996000000028
 20
-39.42818999999963
 30
0.0
 11
85.29996000000028
 21
-29.22263999999995
 31
0.0
  0
LINE
  5
3025
330
21CC
100
AcDbEntity
  8
0
100
AcDbLine
 10
85.9999799999996
 20
-39.42818999999963
 30
0.0
 11
77.99990999999955
 21
-39.42818999999963
 31
0.0
  0
LINE
  5
3026
330
21CC
100
AcDbEntity
  8
0
100
AcDbLine
 10
88.99997999999959
 20
-4.999979999999595
 30
0.0
 11
88.99997999999959
 21
-13.99997999999959
 31
0.0
  0
LINE
  5
3027
330
21CC
100
AcDbEntity
  8
0
100
AcDbLine
 10
88.99997999999959
 20
14.0000100000002
 30
0.0
 11
88.99997999999959
 21
5.000010000000202
 31
0.0
  0
LINE
  5
3028
330
21CC
100
AcDbEntity
  8
0
100
AcDbLine
 10
-36.53814000000011
 20
69.36573000000044
 30
0.0
 11
-26.60808000000042
 21
68.49699000000055
 31
0.0
  0
LINE
  5
3029
330
21CC
100
AcDbEntity
  8
0
100
AcDbLine
 10
73.83765000000039
 20
-15.0
 30
0.0
 11
87.99992999999995
 21
-15.0
 31
0.0
  0
LINE
  5
302A
330
21CC
100
AcDbEntity
  8
0
100
AcDbLine
 10
-25.50294000000031
 20
-68.40029999999979
 30
0.0
 11
-26.14076999999997
 21
-61.10966999999982
 31
0.0
  0
LINE
  5
302B
330
21CC
100
AcDbEntity
  8
0
100
AcDbLine
 10
-36.53814000000011
 20
-69.36575999999968
 30
0.0
 11
-26.60808000000042
 21
-68.49701999999979
 31
0.0
  0
LINE
  5
302C
330
21CC
100
AcDbEntity
  8
0
100
AcDbLine
 10
-42.75009000000046
 20
-59.17286999999942
 30
0.0
 11
-43.61783999999988
 21
-49.25457000000005
 31
0.0
  0
LINE
  5
302D
330
21CC
100
AcDbEntity
  8
0
100
AcDbLine
 10
-32.48729999999977
 20
-54.85601999999971
 30
0.0
 11
-32.54781000000048
 21
-54.16431000000011
 31
0.0
  0
LINE
  5
302E
330
21CC
100
AcDbEntity
  8
0
100
AcDbLine
 10
-31.07234999999991
 20
-55.47395999999981
 30
0.0
 11
-39.23988000000008
 21
-59.2825499999999
 31
0.0
  0
LINE
  5
302F
330
21CC
100
AcDbEntity
  8
0
100
AcDbLine
 10
-33.0609000000004
 20
-55.84947000000011
 30
0.0
 11
-43.34838000000035
 21
-60.64658999999983
 31
0.0
  0
LINE
  5
3030
330
21CC
100
AcDbEntity
  8
0
100
AcDbLine
 10
-41.80344000000059
 20
-66.32585999999992
 30
0.0
 11
-46.01604000000043
 21
-57.29174999999941
 31
0.0
  0
LINE
  5
3031
330
21CC
100
AcDbEntity
  8
0
100
AcDbLine
 10
78.69993000000022
 20
-3.999989999999797
 30
0.0
 11
78.69993000000022
 21
-2.499989999999797
 31
0.0
  0
LINE
  5
3032
330
21CC
100
AcDbEntity
  8
0
100
AcDbLine
 10
77.99990999999955
 20
-3.999989999999797
 30
0.0
 11
77.99990999999955
 21
4.000020000000404
 31
0.0
  0
LINE
  5
3033
330
21CC
100
AcDbEntity
  8
0
100
AcDbLine
 10
85.9999799999996
 20
-3.999989999999797
 30
0.0
 11
85.9999799999996
 21
4.000020000000404
 31
0.0
  0
LINE
  5
3034
330
21CC
100
AcDbEntity
  8
0
100
AcDbLine
 10
85.29996000000028
 20
-3.999989999999797
 30
0.0
 11
85.29996000000028
 21
-2.499989999999797
 31
0.0
  0
LINE
  5
3035
330
21CC
100
AcDbEntity
  8
0
100
AcDbLine
 10
66.5344799999998
 20
-12.16649999999981
 30
0.0
 11
72.24015000000008
 21
-15.46070999999983
 31
0.0
  0
LINE
  5
3036
330
21CC
100
AcDbEntity
  8
0
100
AcDbLine
 10
78.99992999999994
 20
-29.20001999999977
 30
0.0
 11
84.99992999999994
 21
-29.20001999999977
 31
0.0
  0
LINE
  5
3037
330
21CC
100
AcDbEntity
  8
0
100
AcDbLine
 10
-38.15003999999999
 20
-103.0743899999997
 30
0.0
 11
-38.15003999999999
 21
-69.25964999999997
 31
0.0
  0
LINE
  5
3038
330
21CC
100
AcDbEntity
  8
0
100
AcDbLine
 10
-45.50007000000005
 20
-110.00007
 30
0.0
 11
-45.50007000000005
 21
-107.7102599999998
 31
0.0
  0
LINE
  5
3039
330
21CC
100
AcDbEntity
  8
0
100
AcDbLine
 10
-44.97363000000041
 20
-106.9583999999995
 30
0.0
 11
-39.46601999999984
 21
-104.9538299999994
 31
0.0
  0
LINE
  5
303A
330
21CC
100
AcDbEntity
  8
0
100
AcDbLine
 10
38.14992000000029
 20
-103.0743899999997
 30
0.0
 11
38.14992000000029
 21
-62.23811999999998
 31
0.0
  0
LINE
  5
303B
330
21CC
100
AcDbEntity
  8
0
100
AcDbLine
 10
44.03804999999965
 20
-107.1500399999995
 30
0.0
 11
-44.03814000000011
 21
-107.1500399999995
 31
0.0
  0
LINE
  5
303C
330
21CC
100
AcDbEntity
  8
0
100
AcDbLine
 10
38.07906000000002
 20
-104.4748499999996
 30
0.0
 11
-38.07918000000018
 21
-104.4748499999996
 31
0.0
  0
LINE
  5
303D
330
21CC
100
AcDbEntity
  8
0
100
AcDbLine
 10
45.49997999999959
 20
-110.00007
 30
0.0
 11
45.49997999999959
 21
-107.7102599999998
 31
0.0
  0
LINE
  5
303E
330
21CC
100
AcDbEntity
  8
0
100
AcDbLine
 10
45.49997999999959
 20
-110.00007
 30
0.0
 11
-45.50007000000005
 21
-110.00007
 31
0.0
  0
LINE
  5
303F
330
21CC
100
AcDbEntity
  8
0
100
AcDbLine
 10
85.9999799999996
 20
-2.499989999999797
 30
0.0
 11
77.99990999999955
 21
-2.499989999999797
 31
0.0
  0
LINE
  5
3040
330
21CC
100
AcDbEntity
  8
0
100
AcDbLine
 10
353.0684050801342
 20
-57.15005999999994
 30
0.0
 11
761.7142300801342
 21
-57.15005999999994
 31
0.0
  0
LINE
  5
3041
330
21CC
100
AcDbEntity
  8
0
  6
CENTER
100
AcDbLine
 10
313.9184350801342
 20
-120.0000599999998
 30
0.0
 11
313.9184350801342
 21
0.0
 31
0.0
  0
LINE
  5
3042
330
21CC
100
AcDbEntity
  8
0
100
AcDbLine
 10
358.8920050801343
 20
-106.9584599999998
 30
0.0
 11
353.3843950801347
 21
-104.9538299999994
 31
0.0
  0
LINE
  5
3043
330
21CC
100
AcDbEntity
  8
0
100
AcDbLine
 10
268.4183650801351
 20
-110.00007
 30
0.0
 11
268.4183650801351
 21
-107.7102599999998
 31
0.0
  0
LINE
  5
3044
330
21CC
100
AcDbEntity
  8
0
100
AcDbLine
 10
273.5183050801342
 20
-57.15005999999994
 30
0.0
 11
274.7683750801343
 21
-57.15005999999994
 31
0.0
  0
LINE
  5
3045
330
21CC
100
AcDbEntity
  8
0
100
AcDbLine
 10
795.9629650801343
 20
37.81569000000036
 30
0.0
 11
795.9629650801343
 21
-37.81568999999945
 31
0.0
  0
LINE
  5
3046
330
21CC
100
AcDbEntity
  8
0
100
AcDbLine
 10
275.7683950801342
 20
-103.0743899999997
 30
0.0
 11
275.7683950801342
 21
-58.15010999999959
 31
0.0
  0
LINE
  5
3047
330
21CC
100
AcDbEntity
  8
0
100
AcDbLine
 10
268.9447150801342
 20
-106.9584599999998
 30
0.0
 11
274.4524150801344
 21
-104.9538299999994
 31
0.0
  0
LINE
  5
3048
330
21CC
100
AcDbEntity
  8
0
100
AcDbLine
 10
352.0683550801345
 20
-103.0743899999997
 30
0.0
 11
352.0683550801345
 21
-58.15010999999959
 31
0.0
  0
LINE
  5
3049
330
21CC
100
AcDbEntity
  8
0
100
AcDbLine
 10
763.0540150801343
 20
56.44592999999986
 30
0.0
 11
763.0540150801343
 21
-56.44592999999986
 31
0.0
  0
LINE
  5
304A
330
21CC
100
AcDbEntity
  8
0
100
AcDbLine
 10
821.1183160801342
 20
44.05299000000013
 30
0.0
 11
821.1183160801342
 21
-44.05299000000013
 31
0.0
  0
LINE
  5
304B
330
21CC
100
AcDbEntity
  8
0
100
AcDbLine
 10
820.9267660801346
 20
-44.9735999999998
 30
0.0
 11
818.9221510801349
 21
-39.46592999999939
 31
0.0
  0
LINE
  5
304C
330
21CC
100
AcDbEntity
  8
0
100
AcDbLine
 10
823.9683310801343
 20
-45.50007000000005
 30
0.0
 11
821.6784820801345
 21
-45.50007000000005
 31
0.0
  0
LINE
  5
304D
330
21CC
100
AcDbEntity
  8
0
100
AcDbLine
 10
817.0427320801346
 20
-38.15003999999953
 30
0.0
 11
797.2803191067064
 21
-38.15003999999953
 31
0.0
  0
LINE
  5
304E
330
21CC
100
AcDbEntity
  8
0
100
AcDbLine
 10
818.4431470801346
 20
-38.15003999999953
 30
0.0
 11
818.4431470801346
 21
38.15004000000044
 31
0.0
  0
LINE
  5
304F
330
21CC
100
AcDbEntity
  8
0
100
AcDbLine
 10
357.9565450801347
 20
-107.1500399999995
 30
0.0
 11
269.8802950801346
 21
-107.1500399999995
 31
0.0
  0
LINE
  5
3050
330
21CC
100
AcDbEntity
  8
0
100
AcDbLine
 10
351.9974950801347
 20
-104.4748499999996
 30
0.0
 11
275.8392550801345
 21
-104.4748499999996
 31
0.0
  0
LINE
  5
3051
330
21CC
100
AcDbEntity
  8
0
100
AcDbLine
 10
205.7683750801343
 20
-6.0
 30
0.0
 11
254.0183050801342
 21
-6.0
 31
0.0
  0
LINE
  5
3052
330
21CC
100
AcDbEntity
  8
0
100
AcDbLine
 10
205.7683750801343
 20
6.0
 30
0.0
 11
254.0183050801342
 21
6.0
 31
0.0
  0
LINE
  5
3053
330
21CC
100
AcDbEntity
  8
0
100
AcDbLine
 10
359.4184150801347
 20
-110.00007
 30
0.0
 11
359.4184150801347
 21
-107.7102599999998
 31
0.0
  0
LINE
  5
3054
330
21CC
100
AcDbEntity
  8
0
100
AcDbLine
 10
764.2141690801345
 20
-56.48016000000007
 30
0.0
 11
794.8026940801346
 21
-38.81988000000001
 31
0.0
  0
LINE
  5
3055
330
21CC
100
AcDbEntity
  8
0
100
AcDbLine
 10
359.4184150801347
 20
-110.00007
 30
0.0
 11
268.4183650801351
 21
-110.00007
 31
0.0
  0
LINE
  5
3056
330
21CC
100
AcDbEntity
  8
0
100
AcDbLine
 10
197.7683950801342
 20
44.0000100000002
 30
0.0
 11
197.7683950801342
 21
-43.9999799999996
 31
0.0
  0
LINE
  5
3057
330
21CC
100
AcDbEntity
  8
0
100
AcDbLine
 10
209.7683950801342
 20
44.0000100000002
 30
0.0
 11
209.7683950801342
 21
6.0
 31
0.0
  0
LINE
  5
3058
330
21CC
100
AcDbEntity
  8
0
100
AcDbLine
 10
209.7683950801342
 20
-6.0
 30
0.0
 11
209.7683950801342
 21
-43.9999799999996
 31
0.0
  0
LINE
  5
3059
330
21CC
100
AcDbEntity
  8
0
  6
CENTER
100
AcDbLine
 10
203.7683950801342
 20
55.00002000000041
 30
0.0
 11
203.7683950801342
 21
-54.9999899999998
 31
0.0
  0
LINE
  5
305A
330
21CC
100
AcDbEntity
  8
0
100
AcDbLine
 10
263.7683050801342
 20
-64.86836999999969
 30
0.0
 11
263.7683050801342
 21
17.80256349632418
 31
0.0
  0
ARC
  5
305B
330
21CC
100
AcDbEntity
  8
0
100
AcDbCircle
 10
0.0
 20
0.0
 30
0.0
 40
24.9999732
100
AcDbArc
 50
285.0700200000046
 51
74.92997700000235
  0
ARC
  5
305C
330
21CC
100
AcDbEntity
  8
0
100
AcDbCircle
 10
0.0
 20
0.0
 30
0.0
 40
45.00003299999999
100
AcDbArc
 50
98.30506100000562
 51
261.6949400000021
  0
ARC
  5
305D
330
21CC
100
AcDbEntity
  8
0
100
AcDbCircle
 10
0.0
 20
0.0
 30
0.0
 40
45.00003299999999
100
AcDbArc
 50
278.3050599999978
 51
81.69493899999437
  0
ARC
  5
305E
330
21CC
100
AcDbEntity
  8
0
100
AcDbCircle
 10
0.0
 20
44.0000100000002
 30
0.0
 40
6.0
100
AcDbArc
 50
0.0
 51
180.0
  0
ARC
  5
305F
330
21CC
100
AcDbEntity
  8
0
100
AcDbCircle
 10
0.0
 20
0.0
 30
0.0
 40
24.9999732
100
AcDbArc
 50
105.0700200000045
 51
254.9299799999954
  0
ARC
  5
3060
330
21CC
100
AcDbEntity
  8
0
100
AcDbCircle
 10
0.0
 20
-43.9999799999996
 30
0.0
 40
6.0
100
AcDbArc
 50
180.0
 51
0.0
  0
ARC
  5
3061
330
21CC
100
AcDbEntity
  8
0
100
AcDbCircle
 10
0.0
 20
0.0
 30
0.0
 40
9.0
100
AcDbArc
 50
311.8103099999909
 51
48.18969500000569
  0
ARC
  5
3062
330
21CC
100
AcDbEntity
  8
0
100
AcDbCircle
 10
0.0
 20
0.0
 30
0.0
 40
9.0
100
AcDbArc
 50
131.8103099999909
 51
228.1896900000091
  0
ARC
  5
3063
330
21CC
100
AcDbEntity
  8
0
100
AcDbCircle
 10
-40.27487999999993
 20
52.28709000000026
 30
0.0
 40
1.000000019999999
100
AcDbArc
 50
307.605369999998
 51
65.00101099999998
  0
ARC
  5
3064
330
21CC
100
AcDbEntity
  8
0
100
AcDbCircle
 10
-29.85113999999976
 20
67.77692999999999
 30
0.0
 40
1.000000019999999
100
AcDbArc
 50
84.99981300000378
 51
174.9998100000015
  0
ARC
  5
3065
330
21CC
100
AcDbEntity
  8
0
100
AcDbCircle
 10
-29.36592000000018
 20
57.98829000000023
 30
0.0
 40
3.0
100
AcDbArc
 50
245.0006400000019
 51
296.8582900000027
  0
ARC
  5
3066
330
21CC
100
AcDbEntity
  8
0
100
AcDbCircle
 10
-50.54763000000003
 20
59.40480000000025
 30
0.0
 40
4.9999998
100
AcDbArc
 50
310.394530000004
 51
334.9998700000135
  0
ARC
  5
3067
330
21CC
100
AcDbEntity
  8
0
100
AcDbCircle
 10
-26.17227000000048
 20
73.47798000000057
 30
0.0
 40
4.9999998
100
AcDbArc
 50
264.9998600000037
 51
289.6054800000025
  0
ARC
  5
3068
330
21CC
100
AcDbEntity
  8
0
100
AcDbCircle
 10
-19.57892999999967
 20
65.12040000000024
 30
0.0
 40
3.0
100
AcDbArc
 50
245.0006400000019
 51
286.7341599999941
  0
ARC
  5
3069
330
21CC
100
AcDbEntity
  8
0
100
AcDbCircle
 10
-36.49044000000049
 20
54.99498000000039
 30
0.0
 40
4.000000199999999
100
AcDbArc
 50
303.5653099999954
 51
354.9998100000015
  0
ARC
  5
306A
330
21CC
100
AcDbEntity
  8
0
100
AcDbCircle
 10
-37.0000200000004
 20
64.08593999999993
 30
0.0
 40
5.3000004
100
AcDbArc
 50
354.9999699999844
 51
154.9998199999977
  0
ARC
  5
306B
330
21CC
100
AcDbEntity
  8
0
100
AcDbCircle
 10
-30.05675999999994
 20
65.42622000000029
 30
0.0
 40
1.000000019999999
100
AcDbArc
 50
114.6751199999996
 51
174.9998100000015
  0
CIRCLE
  5
306C
330
21CC
100
AcDbEntity
  8
0
100
AcDbCircle
 10
-37.0000200000004
 20
64.08593999999993
 30
0.0
 40
2.59999986
  0
ARC
  5
306D
330
21CC
100
AcDbEntity
  8
0
100
AcDbCircle
 10
0.0
 20
0.0
 30
0.0
 40
61.999998
100
AcDbArc
 50
123.2853100000032
 51
236.86061
  0
ARC
  5
306E
330
21CC
100
AcDbEntity
  8
0
100
AcDbCircle
 10
0.0
 20
0.0
 30
0.0
 40
61.999998
100
AcDbArc
 50
7.069722899989235
 51
116.8581600000049
  0
ARC
  5
306F
330
21CC
100
AcDbEntity
  8
0
100
AcDbCircle
 10
0.0
 20
0.0
 30
0.0
 40
61.999998
100
AcDbArc
 50
243.5651800000072
 51
353.8176800000046
  0
ARC
  5
3070
330
21CC
100
AcDbEntity
  8
0
100
AcDbCircle
 10
64.62194999999974
 20
-6.999989999999797
 30
0.0
 40
3.0
100
AcDbArc
 50
90.0
 51
173.8173699999851
  0
ARC
  5
3071
330
21CC
100
AcDbEntity
  8
0
100
AcDbCircle
 10
0.0
 20
0.0
 30
0.0
 40
64.99999800000001
100
AcDbArc
 50
127.6057400000079
 51
226.7370200000025
  0
CIRCLE
  5
3072
330
21CC
100
AcDbEntity
  8
0
100
AcDbCircle
 10
81.99992999999995
 20
9.500010000000202
 30
0.0
 40
2.59999986
  0
ARC
  5
3073
330
21CC
100
AcDbEntity
  8
0
100
AcDbCircle
 10
0.0
 20
0.0
 30
0.0
 40
73.00000199999999
100
AcDbArc
 50
13.70022999998911
 51
114.6740399999987
  0
ARC
  5
3074
330
21CC
100
AcDbEntity
  8
0
100
AcDbCircle
 10
0.0
 20
0.0
 30
0.0
 40
73.00000199999999
100
AcDbArc
 50
130.394500000008
 51
234.6740599999964
  0
ARC
  5
3075
330
21CC
100
AcDbEntity
  8
0
100
AcDbCircle
 10
73.83765000000039
 20
18.0
 30
0.0
 40
3.0
100
AcDbArc
 50
193.7003699999943
 51
270.0
  0
ARC
  5
3076
330
21CC
100
AcDbEntity
  8
0
100
AcDbCircle
 10
73.83765000000039
 20
-18.0
 30
0.0
 40
3.0
100
AcDbArc
 50
90.0
 51
166.2996300000056
  0
ARC
  5
3077
330
21CC
100
AcDbEntity
  8
0
100
AcDbCircle
 10
0.0
 20
0.0
 30
0.0
 40
73.00000199999999
100
AcDbArc
 50
250.394510000002
 51
346.2997700000109
  0
ARC
  5
3078
330
21CC
100
AcDbEntity
  8
0
100
AcDbCircle
 10
87.99992999999995
 20
14.0000100000002
 30
0.0
 40
1.000000019999999
100
AcDbArc
 50
0.0
 51
90.0
  0
ARC
  5
3079
330
21CC
100
AcDbEntity
  8
0
100
AcDbCircle
 10
63.0
 20
-48.0
 30
0.0
 40
35.00000099999999
100
AcDbArc
 50
356.5253700000029
 51
35.2475049999917
  0
ARC
  5
307A
330
21CC
100
AcDbEntity
  8
0
100
AcDbCircle
 10
99.74990999999954
 20
-22.03007999999954
 30
0.0
 40
9.9999999
100
AcDbArc
 50
180.0
 51
215.2473299999897
  0
ARC
  5
307B
330
21CC
100
AcDbEntity
  8
0
100
AcDbCircle
 10
81.99992999999995
 20
-43.00004999999964
 30
0.0
 40
4.9999998
100
AcDbArc
 50
180.0
 51
0.0
  0
ARC
  5
307C
330
21CC
100
AcDbEntity
  8
0
100
AcDbCircle
 10
87.99992999999995
 20
5.000010000000202
 30
0.0
 40
1.000000019999999
100
AcDbArc
 50
270.0
 51
0.0
  0
ARC
  5
307D
330
21CC
100
AcDbEntity
  8
0
100
AcDbCircle
 10
100.9999799999995
 20
-48.0
 30
0.0
 40
35.00000099999999
100
AcDbArc
 50
144.752500000003
 51
183.4745499999859
  0
ARC
  5
307E
330
21CC
100
AcDbEntity
  8
0
100
AcDbCircle
 10
64.24997999999959
 20
-22.03007999999954
 30
0.0
 40
9.9999999
100
AcDbArc
 50
324.7524599999974
 51
0.0
  0
ARC
  5
307F
330
21CC
100
AcDbEntity
  8
0
100
AcDbCircle
 10
0.0
 20
0.0
 30
0.0
 40
64.99999800000001
100
AcDbArc
 50
11.97605899999767
 51
106.7338399999937
  0
ARC
  5
3080
330
21CC
100
AcDbEntity
  8
0
100
AcDbCircle
 10
65.51339999999981
 20
8.000010000000202
 30
0.0
 40
4.000000199999999
100
AcDbArc
 50
186.9621999999911
 51
270.0
  0
ARC
  5
3081
330
21CC
100
AcDbEntity
  8
0
100
AcDbCircle
 10
65.54168999999956
 20
13.90268999999989
 30
0.0
 40
2.00000007
100
AcDbArc
 50
191.9760500000085
 51
300.000909999995
  0
ARC
  5
3082
330
21CC
100
AcDbEntity
  8
0
100
AcDbCircle
 10
68.06066999999984
 20
-50.00003999999989
 30
0.0
 40
2.00000007
100
AcDbArc
 50
183.4747299999943
 51
270.0
  0
CIRCLE
  5
3083
330
21CC
100
AcDbEntity
  8
0
100
AcDbCircle
 10
81.99992999999995
 20
9.500010000000202
 30
0.0
 40
3.4999998
  0
ARC
  5
3084
330
21CC
100
AcDbEntity
  8
0
100
AcDbCircle
 10
78.99992999999994
 20
-31.19999999999981
 30
0.0
 40
2.00000007
100
AcDbArc
 50
90.0
 51
180.0
  0
ARC
  5
3085
330
21CC
100
AcDbEntity
  8
0
100
AcDbCircle
 10
84.99992999999994
 20
-31.19999999999981
 30
0.0
 40
2.00000007
100
AcDbArc
 50
0.0
 51
90.0
  0
ARC
  5
3086
330
21CC
100
AcDbEntity
  8
0
100
AcDbCircle
 10
81.99992999999995
 20
-32.50004999999964
 30
0.0
 40
8.000000099999999
100
AcDbArc
 50
239.9998299999959
 51
300.000170000004
  0
ARC
  5
3087
330
21CC
100
AcDbEntity
  8
0
100
AcDbCircle
 10
87.99992999999995
 20
-4.999979999999595
 30
0.0
 40
1.000000019999999
100
AcDbArc
 50
0.0
 51
90.0
  0
ARC
  5
3088
330
21CC
100
AcDbEntity
  8
0
100
AcDbCircle
 10
81.99992999999995
 20
-17.90003999999953
 30
0.0
 40
7.7499999
100
AcDbArc
 50
0.0
 51
26.8311229999993
  0
ARC
  5
3089
330
21CC
100
AcDbEntity
  8
0
100
AcDbCircle
 10
95.93930999999974
 20
-50.00003999999989
 30
0.0
 40
2.00000007
100
AcDbArc
 50
270.0
 51
356.5252699999796
  0
ARC
  5
308A
330
21CC
100
AcDbEntity
  8
0
100
AcDbCircle
 10
81.99992999999995
 20
9.500010000000202
 30
0.0
 40
6.0
100
AcDbArc
 50
66.44318499999747
 51
113.5568199999959
  0
ARC
  5
308B
330
21CC
100
AcDbEntity
  8
0
100
AcDbCircle
 10
81.99992999999995
 20
-17.90003999999953
 30
0.0
 40
7.7499999
100
AcDbArc
 50
158.0253899999868
 51
180.0
  0
ARC
  5
308C
330
21CC
100
AcDbEntity
  8
0
100
AcDbCircle
 10
0.0
 20
0.0
 30
0.0
 40
68.69999999999999
100
AcDbArc
 50
117.235590000003
 51
117.7299699999931
  0
ARC
  5
308D
330
21CC
100
AcDbEntity
  8
0
100
AcDbCircle
 10
-30.84045000000014
 20
56.46912000000066
 30
0.0
 40
1.000000019999999
100
AcDbArc
 50
174.9998100000015
 51
245.0010100000075
  0
ARC
  5
308E
330
21CC
100
AcDbEntity
  8
0
100
AcDbCircle
 10
-25.14449999999988
 20
-61.02254999999968
 30
0.0
 40
1.000000019999999
100
AcDbArc
 50
67.60731099999571
 51
185.0001899999984
  0
ARC
  5
308F
330
21CC
100
AcDbEntity
  8
0
100
AcDbCircle
 10
-43.77098999999998
 20
-59.74031999999988
 30
0.0
 40
1.000000019999999
100
AcDbArc
 50
205.0000999999898
 51
294.9989899999924
  0
ARC
  5
3090
330
21CC
100
AcDbEntity
  8
0
100
AcDbCircle
 10
-35.53638000000001
 20
-54.42578999999978
 30
0.0
 40
3.0
100
AcDbArc
 50
5.000187399992036
 51
56.85793399998569
  0
ARC
  5
3091
330
21CC
100
AcDbEntity
  8
0
100
AcDbCircle
 10
-26.17227000000048
 20
-73.47797999999966
 30
0.0
 40
4.9999998
100
AcDbArc
 50
70.39451700000666
 51
95.00014200000206
  0
ARC
  5
3092
330
21CC
100
AcDbEntity
  8
0
100
AcDbCircle
 10
-50.54763000000003
 20
-59.40482999999949
 30
0.0
 40
4.9999998
100
AcDbArc
 50
25.00012899998981
 51
49.60546700000705
  0
ARC
  5
3093
330
21CC
100
AcDbEntity
  8
0
100
AcDbCircle
 10
-46.60646999999971
 20
-49.51607999999942
 30
0.0
 40
3.0
100
AcDbArc
 50
5.000187399992036
 51
46.73368200001221
  0
ARC
  5
3094
330
21CC
100
AcDbEntity
  8
0
100
AcDbCircle
 10
-29.38184999999975
 20
-59.0991299999996
 30
0.0
 40
4.000000199999999
100
AcDbArc
 50
63.56543999998859
 51
114.9995400000056
  0
ARC
  5
3095
330
21CC
100
AcDbEntity
  8
0
100
AcDbCircle
 10
-37.0000200000004
 20
-64.08590999999979
 30
0.0
 40
5.3000004
100
AcDbArc
 50
114.9995199999932
 51
274.9995400000053
  0
ARC
  5
3096
330
21CC
100
AcDbEntity
  8
0
100
AcDbCircle
 10
-41.6324099999997
 20
-58.74302999999963
 30
0.0
 40
1.000000019999999
100
AcDbArc
 50
234.6730000000006
 51
294.9989899999924
  0
CIRCLE
  5
3097
330
21CC
100
AcDbEntity
  8
0
100
AcDbCircle
 10
-37.0000200000004
 20
-64.08590999999979
 30
0.0
 40
2.59999986
  0
ARC
  5
3098
330
21CC
100
AcDbEntity
  8
0
100
AcDbCircle
 10
0.0
 20
0.0
 30
0.0
 40
68.69999999999999
100
AcDbArc
 50
237.2355999999918
 51
237.7299099999943
  0
ARC
  5
3099
330
21CC
100
AcDbEntity
  8
0
100
AcDbCircle
 10
-33.48348000000032
 20
-54.9431999999997
 30
0.0
 40
1.000000019999999
100
AcDbArc
 50
294.9989899999924
 51
5.000187399992036
  0
ARC
  5
309A
330
21CC
100
AcDbEntity
  8
0
100
AcDbCircle
 10
87.99992999999995
 20
-13.99997999999959
 30
0.0
 40
1.000000019999999
100
AcDbArc
 50
270.0
 51
0.0
  0
ARC
  5
309B
330
21CC
100
AcDbEntity
  8
0
100
AcDbCircle
 10
65.54168999999956
 20
-13.90268999999989
 30
0.0
 40
2.00000007
100
AcDbArc
 50
59.99909399999321
 51
168.0239499999914
  0
ARC
  5
309C
330
21CC
100
AcDbEntity
  8
0
100
AcDbCircle
 10
0.0
 20
0.0
 30
0.0
 40
64.99999800000001
100
AcDbArc
 50
247.6057399999957
 51
348.0239399999979
  0
ARC
  5
309D
330
21CC
100
AcDbEntity
  8
0
100
AcDbCircle
 10
40.14998999999988
 20
-103.0743899999997
 30
0.0
 40
2.00000007
100
AcDbArc
 50
180.0
 51
249.998970000008
  0
ARC
  5
309E
330
21CC
100
AcDbEntity
  8
0
100
AcDbCircle
 10
-40.15008000000034
 20
-103.0743899999997
 30
0.0
 40
2.00000007
100
AcDbArc
 50
290.0010299999919
 51
0.0
  0
ARC
  5
309F
330
21CC
100
AcDbEntity
  8
0
100
AcDbCircle
 10
-44.70009000000027
 20
-107.7102599999998
 30
0.0
 40
0.8000000400000001
100
AcDbArc
 50
110.0027099999976
 51
180.0
  0
ARC
  5
30A0
330
21CC
100
AcDbEntity
  8
0
100
AcDbCircle
 10
44.69996999999966
 20
-107.7102599999998
 30
0.0
 40
0.8000000400000001
100
AcDbArc
 50
0.0
 51
69.99728599999868
  0
CIRCLE
  5
30A1
330
21CC
100
AcDbEntity
  8
0
100
AcDbCircle
 10
0.0
 20
0.0
 30
0.0
 40
55.383762
  0
ARC
  5
30A2
330
21CC
100
AcDbEntity
  8
0
100
AcDbCircle
 10
274.7683750801343
 20
-58.15010999999959
 30
0.0
 40
1.000000019999999
100
AcDbArc
 50
0.0
 51
90.0
  0
ARC
  5
30A3
330
21CC
100
AcDbEntity
  8
0
100
AcDbCircle
 10
353.0684050801342
 20
-58.15010999999959
 30
0.0
 40
1.000000019999999
100
AcDbArc
 50
90.0
 51
180.0
  0
ARC
  5
30A4
330
21CC
100
AcDbEntity
  8
0
100
AcDbCircle
 10
354.0684250801346
 20
-103.0743899999997
 30
0.0
 40
2.00000007
100
AcDbArc
 50
180.0
 51
250.0001999999961
  0
ARC
  5
30A5
330
21CC
100
AcDbEntity
  8
0
100
AcDbCircle
 10
273.7683550801339
 20
-103.0743899999997
 30
0.0
 40
2.00000007
100
AcDbArc
 50
290.0010299999919
 51
0.0
  0
ARC
  5
30A6
330
21CC
100
AcDbEntity
  8
0
100
AcDbCircle
 10
269.2183450801339
 20
-107.7102599999998
 30
0.0
 40
0.8000000400000001
100
AcDbArc
 50
110.0027099999976
 51
180.0
  0
ARC
  5
30A7
330
21CC
100
AcDbEntity
  8
0
100
AcDbCircle
 10
821.6784820801345
 20
-44.69999999999981
 30
0.0
 40
0.8000000400000001
100
AcDbArc
 50
199.9990699999906
 51
270.0
  0
ARC
  5
30A8
330
21CC
100
AcDbEntity
  8
0
100
AcDbCircle
 10
797.3027020801346
 20
-43.14998999999988
 30
0.0
 40
5.0000001
100
AcDbArc
 50
90.0
 51
120.0000899999961
  0
ARC
  5
30A9
330
21CC
100
AcDbEntity
  8
0
100
AcDbCircle
 10
761.7142300801342
 20
-52.14998999999989
 30
0.0
 40
5.0000001
100
AcDbArc
 50
270.0
 51
300.0000900000033
  0
ARC
  5
30AA
330
21CC
100
AcDbEntity
  8
0
100
AcDbCircle
 10
358.6184050801348
 20
-107.7102599999998
 30
0.0
 40
0.8000000400000001
100
AcDbArc
 50
0.0
 51
70.00036699999924
  0
ARC
  5
30AB
330
21CC
100
AcDbEntity
  8
0
100
AcDbCircle
 10
817.0427320801346
 20
-40.14998999999988
 30
0.0
 40
2.00000007
100
AcDbArc
 50
19.99979999999032
 51
90.0
  0
ARC
  5
30AC
330
21CC
100
AcDbEntity
  8
0
100
AcDbCircle
 10
313.9183750801344
 20
-99.70229999999993
 30
0.0
 40
57.149934
100
AcDbArc
 50
50.71768399999266
 51
129.2823500000067
  0
ARC
  5
30AD
330
21CC
100
AcDbEntity
  8
0
100
AcDbCircle
 10
203.7683950801342
 20
44.0000100000002
 30
0.0
 40
6.0
100
AcDbArc
 50
0.0
 51
180.0
  0
ARC
  5
30AE
330
21CC
100
AcDbEntity
  8
0
100
AcDbCircle
 10
203.7683950801342
 20
-43.9999799999996
 30
0.0
 40
6.0
100
AcDbArc
 50
180.0
 51
0.0
  0
LWPOLYLINE
  5
30AF
330
21CC
100
AcDbEntity
  8
0
100
AcDbPolyline
 90
        4
 70
     0
 43
0.0
 10
6.0
 20
-6.928169999999681
 10
9.0
 20
-5.196119999999609
 10
9.0
 20
5.196150000000216
 10
6.0
 20
6.928200000000288
  0
LWPOLYLINE
  5
30B0
330
21CC
100
AcDbEntity
  8
0
100
AcDbPolyline
 90
        2
 70
     0
 43
0.0
 10
-9.0
 20
-5.196119999999609
 10
-6.0
 20
-6.928169999999681
  0
LWPOLYLINE
  5
30B1
330
21CC
100
AcDbEntity
  8
0
100
AcDbPolyline
 90
        3
 70
     0
 43
0.0
 10
-6.0
 20
6.928200000000288
 10
-9.0
 20
5.196150000000216
 10
-9.0
 20
-5.196119999999609
  0
LINE
  5
30B2
330
21CC
100
AcDbEntity
  8
0
  6
CENTER
100
AcDbLine
 10
203.7683950801342
 20
0.0000150000003032
 30
0.0
 11
849.7149894729986
 21
0.0
 31
0.0
  0
LINE
  5
315F
330
21CC
100
AcDbEntity
  8
0
100
AcDbLine
 10
820.9267660801346
 20
44.97360000000026
 30
0.0
 11
818.9221510801349
 21
39.4659300000003
 31
0.0
  0
LINE
  5
3160
330
21CC
100
AcDbEntity
  8
0
100
AcDbLine
 10
823.9683310801343
 20
45.50007000000005
 30
0.0
 11
821.6784820801345
 21
45.50007000000005
 31
0.0
  0
LINE
  5
3161
330
21CC
100
AcDbEntity
  8
0
100
AcDbLine
 10
817.0427320801346
 20
38.15004000000044
 30
0.0
 11
797.2803191067064
 21
38.15004000000044
 31
0.0
  0
LINE
  5
3162
330
21CC
100
AcDbEntity
  8
0
100
AcDbLine
 10
823.9683310801343
 20
-45.50003999999989
 30
0.0
 11
823.9683310801343
 21
45.50007000000005
 31
0.0
  0
LINE
  5
3163
330
21CC
100
AcDbEntity
  8
0
100
AcDbLine
 10
273.5183050801342
 20
57.15005999999994
 30
0.0
 11
761.7142300801342
 21
57.15005999999994
 31
0.0
  0
LINE
  5
3164
330
21CC
100
AcDbEntity
  8
0
100
AcDbLine
 10
764.2141690801345
 20
56.48016000000007
 30
0.0
 11
794.8026940801346
 21
38.81988000000001
 31
0.0
  0
ARC
  5
3165
330
21CC
100
AcDbEntity
  8
0
100
AcDbCircle
 10
821.6784820801345
 20
44.70000000000027
 30
0.0
 40
0.8000000400000001
100
AcDbArc
 50
90.0
 51
160.0009300000093
  0
ARC
  5
3166
330
21CC
100
AcDbEntity
  8
0
100
AcDbCircle
 10
797.3027020801346
 20
43.14998999999988
 30
0.0
 40
5.0000001
100
AcDbArc
 50
239.9999100000031
 51
270.0
  0
ARC
  5
3167
330
21CC
100
AcDbEntity
  8
0
100
AcDbCircle
 10
761.7142300801342
 20
52.14998999999989
 30
0.0
 40
5.0000001
100
AcDbArc
 50
59.9999100000047
 51
90.0
  0
ARC
  5
3168
330
21CC
100
AcDbEntity
  8
0
100
AcDbCircle
 10
817.0427320801346
 20
40.14998999999988
 30
0.0
 40
2.00000007
100
AcDbArc
 50
270.0
 51
340.0002000000112
  0
LINE
  5
3307
330
21CC
100
AcDbEntity
  8
0
100
AcDbLine
 10
273.5183050801342
 20
-64.86837999999989
 30
0.0
 11
273.5183050801342
 21
6.399990000000343
 31
0.0
  0
LINE
  5
3308
330
21CC
100
AcDbEntity
  8
0
100
AcDbLine
 10
254.0183050801342
 20
-64.86837999999989
 30
0.0
 11
254.0183050801342
 21
6.266290000000481
 31
0.0
  0
LINE
  5
3309
330
21CC
100
AcDbEntity
  8
0
100
AcDbLine
 10
269.0727250801342
 20
72.99999700000035
 30
0.0
 11
258.4638950801342
 21
72.99999700000035
 31
0.0
  0
LINE
  5
330A
330
21CC
100
AcDbEntity
  8
0
100
AcDbLine
 10
259.5183050801342
 20
4.0
 30
0.0
 11
254.2683050801342
 21
4.0
 31
0.0
  0
LINE
  5
330B
330
21CC
100
AcDbEntity
  8
0
100
AcDbLine
 10
269.0727250801342
 20
-73.0000299999997
 30
0.0
 11
258.4638950801342
 21
-73.0000299999997
 31
0.0
  0
LINE
  5
330C
330
21CC
100
AcDbEntity
  8
0
100
AcDbLine
 10
254.0523750801344
 20
-65.12717999999949
 30
0.0
 11
255.5660950801343
 21
-70.77646999999979
 31
0.0
  0
LINE
  5
330D
330
21CC
100
AcDbEntity
  8
0
100
AcDbLine
 10
273.4842250801343
 20
-65.12717999999949
 30
0.0
 11
271.9705050801342
 21
-70.77646999999979
 31
0.0
  0
LINE
  5
330E
330
21CC
100
AcDbEntity
  8
0
100
AcDbLine
 10
271.9705150801341
 20
70.77645000000029
 30
0.0
 11
273.4842350801343
 21
65.12716300000011
 31
0.0
  0
LINE
  5
330F
330
21CC
100
AcDbEntity
  8
0
100
AcDbLine
 10
256.1618950801344
 20
15.0
 30
0.0
 11
256.1618950801344
 21
69.57964800000036
 31
0.0
  0
LINE
  5
3310
330
21CC
100
AcDbEntity
  8
0
100
AcDbLine
 10
271.3747250801343
 20
15.0
 30
0.0
 11
271.3747250801343
 21
69.95712000000003
 31
0.0
  0
LINE
  5
3311
330
21CC
100
AcDbEntity
  8
0
100
AcDbLine
 10
259.2684250801344
 20
-11.28499999999985
 30
0.0
 11
256.2917950801343
 21
-14.6613299999999
 31
0.0
  0
LINE
  5
3312
330
21CC
100
AcDbEntity
  8
0
100
AcDbLine
 10
268.2681850801343
 20
-11.28503
 30
0.0
 11
271.2448050801342
 21
-14.6613499999994
 31
0.0
  0
LINE
  5
3313
330
21CC
100
AcDbEntity
  8
0
100
AcDbLine
 10
261.9183350801342
 20
-52.0
 30
0.0
 11
265.6183150801343
 21
-52.0
 31
0.0
  0
LINE
  5
3314
330
21CC
100
AcDbEntity
  8
0
100
AcDbLine
 10
260.9183350801342
 20
-51.0
 30
0.0
 11
260.9183350801342
 21
-31.20000999999956
 31
0.0
  0
LINE
  5
3315
330
21CC
100
AcDbEntity
  8
0
100
AcDbLine
 10
255.5416850801343
 20
-15.0
 30
0.0
 11
254.2683050801342
 21
-15.0
 31
0.0
  0
LINE
  5
3316
330
21CC
100
AcDbEntity
  8
0
100
AcDbLine
 10
259.5183050801342
 20
-4.0
 30
0.0
 11
254.2683050801342
 21
-4.0
 31
0.0
  0
LINE
  5
3317
330
21CC
100
AcDbEntity
  8
0
100
AcDbLine
 10
259.5183050801342
 20
4.0
 30
0.0
 11
259.5183050801342
 21
15.0
 31
0.0
  0
LINE
  5
3318
330
21CC
100
AcDbEntity
  8
0
100
AcDbLine
 10
259.5183050801342
 20
15.0
 30
0.0
 11
254.2683050801342
 21
15.0
 31
0.0
  0
LINE
  5
3319
330
21CC
100
AcDbEntity
  8
0
100
AcDbLine
 10
259.5183050801342
 20
-10.62368999999944
 30
0.0
 11
259.5183050801342
 21
-4.0
 31
0.0
  0
LINE
  5
331A
330
21CC
100
AcDbEntity
  8
0
100
AcDbLine
 10
259.7683050801342
 20
-12.0
 30
0.0
 11
259.7683050801342
 21
14.42819000000054
 31
0.0
  0
LINE
  5
331B
330
21CC
100
AcDbEntity
  8
0
100
AcDbLine
 10
259.7683050801342
 20
-39.42822999999953
 30
0.0
 11
259.7683050801342
 21
-29.38961999999992
 31
0.0
  0
LINE
  5
331C
330
21CC
100
AcDbEntity
  8
0
100
AcDbLine
 10
256.0183050801342
 20
-27.20000999999956
 30
0.0
 11
256.0183050801342
 21
-17.89999999999963
 31
0.0
  0
LINE
  5
331D
330
21CC
100
AcDbEntity
  8
0
100
AcDbLine
 10
258.0183050801342
 20
-29.20000999999956
 30
0.0
 11
269.5183050801342
 21
-29.20000999999956
 31
0.0
  0
LINE
  5
331E
330
21CC
100
AcDbEntity
  8
0
100
AcDbLine
 10
258.7431350801344
 20
-12.0
 30
0.0
 11
268.7935150801342
 21
-12.0
 31
0.0
  0
LINE
  5
331F
330
21CC
100
AcDbEntity
  8
0
100
AcDbLine
 10
273.2683050801342
 20
12.60000000000036
 30
0.0
 11
273.7683050801342
 21
12.60000000000036
 31
0.0
  0
LINE
  5
3320
330
21CC
100
AcDbEntity
  8
0
100
AcDbLine
 10
273.2683050801342
 20
6.399990000000343
 30
0.0
 11
273.7683050801342
 21
6.399990000000343
 31
0.0
  0
LINE
  5
3321
330
21CC
100
AcDbEntity
  8
0
100
AcDbLine
 10
266.6183150801344
 20
-51.0
 30
0.0
 11
266.6183150801344
 21
-31.20000999999956
 31
0.0
  0
LINE
  5
3322
330
21CC
100
AcDbEntity
  8
0
100
AcDbLine
 10
271.9949350801343
 20
-15.0
 30
0.0
 11
273.2683050801342
 21
-15.0
 31
0.0
  0
LINE
  5
3323
330
21CC
100
AcDbEntity
  8
0
100
AcDbLine
 10
268.0183050801342
 20
-4.0
 30
0.0
 11
273.2683050801342
 21
-4.0
 31
0.0
  0
LINE
  5
3324
330
21CC
100
AcDbEntity
  8
0
100
AcDbLine
 10
268.0183050801342
 20
4.0
 30
0.0
 11
268.0183050801342
 21
15.0
 31
0.0
  0
LINE
  5
3325
330
21CC
100
AcDbEntity
  8
0
100
AcDbLine
 10
268.0183050801342
 20
4.0
 30
0.0
 11
273.2683050801342
 21
4.0
 31
0.0
  0
LINE
  5
3326
330
21CC
100
AcDbEntity
  8
0
100
AcDbLine
 10
268.0183050801342
 20
15.0
 30
0.0
 11
273.2683050801342
 21
15.0
 31
0.0
  0
LINE
  5
3327
330
21CC
100
AcDbEntity
  8
0
100
AcDbLine
 10
268.0183050801342
 20
-10.62368999999944
 30
0.0
 11
268.0183050801342
 21
-4.0
 31
0.0
  0
LINE
  5
3328
330
21CC
100
AcDbEntity
  8
0
100
AcDbLine
 10
267.7683050801342
 20
-12.0
 30
0.0
 11
267.7683050801342
 21
14.42819000000054
 31
0.0
  0
LINE
  5
3329
330
21CC
100
AcDbEntity
  8
0
100
AcDbLine
 10
267.7683050801342
 20
-39.42822999999953
 30
0.0
 11
267.7683050801342
 21
-29.38961999999992
 31
0.0
  0
LINE
  5
332A
330
21CC
100
AcDbEntity
  8
0
100
AcDbLine
 10
271.5183050801342
 20
-27.20000999999956
 30
0.0
 11
271.5183050801342
 21
-17.89999999999963
 31
0.0
  0
LINE
  5
332B
330
21CC
100
AcDbEntity
  8
0
100
AcDbLine
 10
271.3747250801343
 20
-28.39141999999992
 30
0.0
 11
271.3747250801343
 21
-69.95715999999993
 31
0.0
  0
LINE
  5
332C
330
21CC
100
AcDbEntity
  8
0
100
AcDbLine
 10
256.1618950801344
 20
-28.39141999999992
 30
0.0
 11
256.1618950801344
 21
-69.57964999999967
 31
0.0
  0
LINE
  5
332D
330
21CC
100
AcDbEntity
  8
0
100
AcDbLine
 10
274.2683050801342
 20
6.899990000000343
 30
0.0
 11
274.2683050801342
 21
12.10000000000036
 31
0.0
  0
LINE
  5
332E
330
21CC
100
AcDbEntity
  8
0
100
AcDbLine
 10
274.5183050801342
 20
61.22605600000042
 30
0.0
 11
274.5183050801342
 21
66.4260690000001
 31
0.0
  0
LINE
  5
332F
330
21CC
100
AcDbEntity
  8
0
100
AcDbLine
 10
273.0183050801342
 20
66.9260690000001
 30
0.0
 11
274.0183050801342
 21
66.9260690000001
 31
0.0
  0
LINE
  5
3330
330
21CC
100
AcDbEntity
  8
0
100
AcDbLine
 10
273.5183050801342
 20
60.72605600000042
 30
0.0
 11
274.0183050801342
 21
60.72605600000042
 31
0.0
  0
LINE
  5
3331
330
21CC
100
AcDbEntity
  8
0
100
AcDbLine
 10
274.5183050801342
 20
-61.22605999999996
 30
0.0
 11
274.5183050801342
 21
-66.42606999999952
 31
0.0
  0
LINE
  5
3332
330
21CC
100
AcDbEntity
  8
0
100
AcDbLine
 10
273.5183050801342
 20
-60.72605999999996
 30
0.0
 11
274.0183050801342
 21
-60.72605999999996
 31
0.0
  0
LINE
  5
3333
330
21CC
100
AcDbEntity
  8
0
100
AcDbLine
 10
273.0022250801344
 20
-66.92606999999952
 30
0.0
 11
274.0183050801342
 21
-66.92606999999952
 31
0.0
  0
LINE
  5
3334
330
21CC
100
AcDbEntity
  8
0
100
AcDbLine
 10
254.2683050801342
 20
-15.0
 30
0.0
 11
254.2683050801342
 21
15.0
 31
0.0
  0
LINE
  5
3335
330
21CC
100
AcDbEntity
  8
0
100
AcDbLine
 10
273.2683050801342
 20
-15.0
 30
0.0
 11
273.2683050801342
 21
15.0
 31
0.0
  0
LINE
  5
3336
330
21CC
100
AcDbEntity
  8
0
100
AcDbLine
 10
254.0183050801342
 20
12.73370000000022
 30
0.0
 11
254.0183050801342
 21
64.99999700000035
 31
0.0
  0
LINE
  5
3337
330
21CC
100
AcDbEntity
  8
0
100
AcDbLine
 10
273.5183050801342
 20
12.60000000000036
 30
0.0
 11
273.5183050801342
 21
64.86834500000032
 31
0.0
  0
LINE
  5
3338
330
21CC
100
AcDbEntity
  8
0
100
AcDbLine
 10
254.0183050801342
 20
67.07606300000043
 30
0.0
 11
254.5183050801342
 21
67.07606300000043
 31
0.0
  0
LINE
  5
3339
330
21CC
100
AcDbEntity
  8
0
100
AcDbLine
 10
254.0183050801342
 20
-67.07607000000007
 30
0.0
 11
254.5183050801342
 21
-67.07607000000007
 31
0.0
  0
LINE
  5
333A
330
21CC
100
AcDbEntity
  8
0
100
AcDbLine
 10
255.0183050801342
 20
68.82606300000043
 30
0.0
 11
255.0435050801343
 21
68.82606300000043
 31
0.0
  0
LINE
  5
333B
330
21CC
100
AcDbEntity
  8
0
100
AcDbLine
 10
254.0183050801342
 20
67.07606300000043
 30
0.0
 11
254.0183050801342
 21
67.82606300000043
 31
0.0
  0
LINE
  5
333C
330
21CC
100
AcDbEntity
  8
0
100
AcDbLine
 10
273.5183050801342
 20
66.9260690000001
 30
0.0
 11
273.5183050801342
 21
67.82606300000043
 31
0.0
  0
LINE
  5
333D
330
21CC
100
AcDbEntity
  8
0
100
AcDbLine
 10
272.4931150801342
 20
68.82606300000043
 30
0.0
 11
272.5183050801342
 21
68.82606300000043
 31
0.0
  0
LINE
  5
333E
330
21CC
100
AcDbEntity
  8
0
100
AcDbLine
 10
255.5661050801343
 20
70.77646000000004
 30
0.0
 11
254.0523850801343
 21
65.12715900000057
 31
0.0
  0
LINE
  5
333F
330
21CC
100
AcDbEntity
  8
0
100
AcDbLine
 10
254.0183050801342
 20
-67.07607000000007
 30
0.0
 11
254.0183050801342
 21
-67.82607000000007
 31
0.0
  0
LINE
  5
3340
330
21CC
100
AcDbEntity
  8
0
100
AcDbLine
 10
273.5183050801342
 20
-66.92606999999952
 30
0.0
 11
273.5183050801342
 21
-67.82607000000007
 31
0.0
  0
ARC
  5
3341
330
21CC
100
AcDbEntity
  8
0
100
AcDbCircle
 10
255.0183050801342
 20
-64.86837999999989
 30
0.0
 40
1.0
100
AcDbArc
 50
179.9999899999989
 51
195.0000100000155
  0
ARC
  5
3342
330
21CC
100
AcDbEntity
  8
0
100
AcDbCircle
 10
272.5183050801342
 20
-64.86837999999989
 30
0.0
 40
1.0
100
AcDbArc
 50
345.0000000000055
 51
0.0
  0
ARC
  5
3343
330
21CC
100
AcDbEntity
  8
0
100
AcDbCircle
 10
255.0183050801342
 20
64.86834500000032
 30
0.0
 40
1.0
100
AcDbArc
 50
165.0000000000055
 51
180.0000100000009
  0
ARC
  5
3344
330
21CC
100
AcDbEntity
  8
0
100
AcDbCircle
 10
272.5183050801342
 20
64.86834500000032
 30
0.0
 40
1.0
100
AcDbArc
 50
0.0
 51
14.99999999999445
  0
ARC
  5
3345
330
21CC
100
AcDbEntity
  8
0
100
AcDbCircle
 10
258.4638950801342
 20
-70.0000299999997
 30
0.0
 40
3.0
100
AcDbArc
 50
195.0000100000155
 51
269.9999970000023
  0
ARC
  5
3346
330
21CC
100
AcDbEntity
  8
0
100
AcDbCircle
 10
269.0727250801342
 20
-70.0000299999997
 30
0.0
 40
3.0
100
AcDbArc
 50
269.9999970000023
 51
345.0000000000055
  0
ARC
  5
3347
330
21CC
100
AcDbEntity
  8
0
100
AcDbCircle
 10
258.4638950801342
 20
69.99999700000035
 30
0.0
 40
3.0
100
AcDbArc
 50
90.0
 51
164.9999899999844
  0
ARC
  5
3348
330
21CC
100
AcDbEntity
  8
0
100
AcDbCircle
 10
269.0727250801342
 20
69.99999700000035
 30
0.0
 40
3.0
100
AcDbArc
 50
14.99999999999445
 51
90.0
  0
ARC
  5
3349
330
21CC
100
AcDbEntity
  8
0
100
AcDbCircle
 10
258.5183050801342
 20
-10.62368999999944
 30
0.0
 40
1.0
100
AcDbArc
 50
318.6000000000059
 51
0.0
  0
ARC
  5
334A
330
21CC
100
AcDbEntity
  8
0
100
AcDbCircle
 10
269.0183050801342
 20
-10.62368999999944
 30
0.0
 40
1.0
100
AcDbArc
 50
179.9999899999989
 51
221.3999999999941
  0
ARC
  5
334B
330
21CC
100
AcDbEntity
  8
0
100
AcDbCircle
 10
255.5416850801343
 20
-14.0
 30
0.0
 40
1.0
100
AcDbArc
 50
269.9999970000023
 51
318.6000000000059
  0
ARC
  5
334C
330
21CC
100
AcDbEntity
  8
0
100
AcDbCircle
 10
258.0183050801342
 20
-27.20000999999956
 30
0.0
 40
2.0
100
AcDbArc
 50
179.9999899999989
 51
270.0000040000056
  0
ARC
  5
334D
330
21CC
100
AcDbEntity
  8
0
100
AcDbCircle
 10
263.7683050801342
 20
-32.5
 30
0.0
 40
8.0
100
AcDbArc
 50
240.0000000000006
 51
249.1299300000056
  0
ARC
  5
334E
330
21CC
100
AcDbEntity
  8
0
100
AcDbCircle
 10
263.7683050801342
 20
-17.89999999999963
 30
0.0
 40
7.75
100
AcDbArc
 50
130.4219000000114
 51
179.9999899999989
  0
ARC
  5
334F
330
21CC
100
AcDbEntity
  8
0
100
AcDbCircle
 10
263.7683050801342
 20
7.5
 30
0.0
 40
8.0
100
AcDbArc
 50
60.00000000000068
 51
119.9999999999993
  0
ARC
  5
3350
330
21CC
100
AcDbEntity
  8
0
100
AcDbCircle
 10
258.9183350801342
 20
-31.20000999999956
 30
0.0
 40
2.0
100
AcDbArc
 50
359.9999949910625
 51
90.0
  0
ARC
  5
3351
330
21CC
100
AcDbEntity
  8
0
100
AcDbCircle
 10
261.9183350801342
 20
-51.0
 30
0.0
 40
1.0
100
AcDbArc
 50
179.9999899999989
 51
270.0000040000056
  0
ARC
  5
3352
330
21CC
100
AcDbEntity
  8
0
100
AcDbCircle
 10
265.6183150801343
 20
-51.0
 30
0.0
 40
1.0
100
AcDbArc
 50
269.9999970000023
 51
0.0
  0
ARC
  5
3353
330
21CC
100
AcDbEntity
  8
0
100
AcDbCircle
 10
268.6183150801344
 20
-31.20000999999956
 30
0.0
 40
2.0
100
AcDbArc
 50
90.0
 51
180.0000100000009
  0
ARC
  5
3354
330
21CC
100
AcDbEntity
  8
0
100
AcDbCircle
 10
269.5183050801342
 20
-27.20000999999956
 30
0.0
 40
2.0
100
AcDbArc
 50
269.9999970000023
 51
0.0
  0
ARC
  5
3355
330
21CC
100
AcDbEntity
  8
0
100
AcDbCircle
 10
263.7683050801342
 20
-32.5
 30
0.0
 40
8.0
100
AcDbArc
 50
290.8700709999917
 51
299.9999979999987
  0
ARC
  5
3356
330
21CC
100
AcDbEntity
  8
0
100
AcDbCircle
 10
263.7683050801342
 20
-17.89999999999963
 30
0.0
 40
7.75
100
AcDbArc
 50
0.0
 51
49.57807999998765
  0
ARC
  5
3357
330
21CC
100
AcDbEntity
  8
0
100
AcDbCircle
 10
273.7683050801342
 20
12.10000000000036
 30
0.0
 40
0.5
100
AcDbArc
 50
0.0
 51
90.0
  0
ARC
  5
3358
330
21CC
100
AcDbEntity
  8
0
100
AcDbCircle
 10
273.7683050801342
 20
6.899990000000343
 30
0.0
 40
0.5
100
AcDbArc
 50
269.9999970000023
 51
0.0
  0
ARC
  5
3359
330
21CC
100
AcDbEntity
  8
0
100
AcDbCircle
 10
271.9949350801343
 20
-14.0
 30
0.0
 40
1.0
100
AcDbArc
 50
221.3999999999941
 51
269.9999970000023
  0
ARC
  5
335A
330
21CC
100
AcDbEntity
  8
0
100
AcDbCircle
 10
274.0183050801342
 20
61.22605600000042
 30
0.0
 40
0.5
100
AcDbArc
 50
269.9999970000023
 51
0.0
  0
ARC
  5
335B
330
21CC
100
AcDbEntity
  8
0
100
AcDbCircle
 10
274.0183050801342
 20
66.4260690000001
 30
0.0
 40
0.5
100
AcDbArc
 50
0.0
 51
90.0
  0
ARC
  5
335C
330
21CC
100
AcDbEntity
  8
0
100
AcDbCircle
 10
274.0183050801342
 20
-61.22605999999996
 30
0.0
 40
0.5
100
AcDbArc
 50
0.0
 51
90.0
  0
ARC
  5
335D
330
21CC
100
AcDbEntity
  8
0
100
AcDbCircle
 10
274.0183050801342
 20
-66.42606999999952
 30
0.0
 40
0.5
100
AcDbArc
 50
269.9999970000023
 51
0.0
  0
ARC
  5
335E
330
21CC
100
AcDbEntity
  8
0
100
AcDbCircle
 10
255.0183050801342
 20
67.82606300000043
 30
0.0
 40
1.0
100
AcDbArc
 50
90.0
 51
180.0000100000009
  0
ARC
  5
335F
330
21CC
100
AcDbEntity
  8
0
100
AcDbCircle
 10
272.5183050801342
 20
67.82606300000043
 30
0.0
 40
1.0
100
AcDbArc
 50
0.0
 51
90.0
  0
ARC
  5
3360
330
21CC
100
AcDbEntity
  8
0
100
AcDbCircle
 10
255.0183050801342
 20
-67.82607000000007
 30
0.0
 40
1.0
100
AcDbArc
 50
179.9999899999989
 51
269.9999970000023
  0
ARC
  5
3361
330
21CC
100
AcDbEntity
  8
0
100
AcDbCircle
 10
272.5183050801342
 20
-67.82607000000007
 30
0.0
 40
1.0
100
AcDbArc
 50
269.9999970000023
 51
0.0
  0
ELLIPSE
  5
3362
330
21CC
100
AcDbEntity
  8
0
100
AcDbEllipse
 10
254.2683050801342
 20
9.5
 30
0.0
 11
0.0
 21
-3.250000099999999
 31
0.0
210
0.0
220
0.0
230
-1.0
 40
0.7692307400000001
 41
0.0
 42
3.1415927
  0
ELLIPSE
  5
3363
330
21CC
100
AcDbEntity
  8
0
100
AcDbEllipse
 10
254.0183050801342
 20
63.82606300000043
 30
0.0
 11
0.0
 21
-3.250000099999999
 31
0.0
210
0.0
220
0.0
230
-1.0
 40
0.7692307400000001
 41
0.0
 42
3.1415927
  0
ELLIPSE
  5
3364
330
21CC
100
AcDbEntity
  8
0
100
AcDbEllipse
 10
254.0183050801342
 20
-63.82607000000007
 30
0.0
 11
0.0
 21
3.250000099999999
 31
0.0
210
0.0
220
0.0
230
-1.0
 40
0.7692307400000001
 41
3.1415927
 42
6.283185299999999
  0
ENDSEC
  0
SECTION
  2
OBJECTS
  0
DICTIONARY
  5
21BA
330
0
100
AcDbDictionary
281
     1
  3
ACAD_GROUP
350
21BB
  3
ACAD_LAYOUT
350
21C7
  3
ACAD_MLINESTYLE
350
21C4
  3
ACAD_PLOTSETTINGS
350
21C6
  3
ACAD_PLOTSTYLENAME
350
21BC
  3
AcDbVariableDictionary
350
2238
  0
DICTIONARY
  5
2244
330
21B0
100
AcDbDictionary
280
     1
281
     1
  3
ACAD_LAYERSTATES
360
2245
  0
DICTIONARY
  5
21F8
330
21CC
100
AcDbDictionary
280
     1
281
     1
  3
ACAD_LAYOUTSELFREF
360
2227
  0
DICTIONARY
  5
21FA
330
21C8
100
AcDbDictionary
280
     1
281
     1
  3
ACAD_LAYOUTSELFREF
360
2226
  0
DICTIONARY
  5
21BB
102
{ACAD_REACTORS
330
21BA
102
}
330
21BA
100
AcDbDictionary
281
     1
  0
DICTIONARY
  5
21C7
102
{ACAD_REACTORS
330
21BA
102
}
330
21BA
100
AcDbDictionary
281
     1
  3
Model
350
21CF
  3
ﾚｲｱｳﾄ1
350
21CB
  0
DICTIONARY
  5
21C4
102
{ACAD_REACTORS
330
21BA
102
}
330
21BA
100
AcDbDictionary
281
     1
  3
Standard
350
21C5
  0
DICTIONARY
  5
21C6
102
{ACAD_REACTORS
330
21BA
102
}
330
21BA
100
AcDbDictionary
281
     1
  0
ACDBDICTIONARYWDFLT
  5
21BC
102
{ACAD_REACTORS
330
21BA
102
}
330
21BA
100
AcDbDictionary
281
     1
  3
Normal
350
21BD
100
AcDbDictionaryWithDefault
340
21BD
  0
DICTIONARY
  5
2238
102
{ACAD_REACTORS
330
21BA
102
}
330
21BA
100
AcDbDictionary
281
     1
  3
DIMASSOC
350
2239
  0
DICTIONARY
  5
2245
102
{ACAD_REACTORS
330
2244
102
}
330
2244
100
AcDbDictionary
281
     1
  0
XRECORD
  5
2227
102
{ACAD_REACTORS
330
21F8
102
}
330
21F8
100
AcDbXrecord
280
     1
340
21CC
  0
XRECORD
  5
2226
102
{ACAD_REACTORS
330
21FA
102
}
330
21FA
100
AcDbXrecord
280
     1
340
21C8
  0
LAYOUT
  5
21CF
102
{ACAD_REACTORS
330
21C7
102
}
330
21C7
100
AcDbPlotSettings
  1

  2
SII LP-2150 (D-SCAN C2)
  4

  6

 40
0.0
 41
0.0
 42
0.0
 43
0.0
 44
0.0
 45
0.0
 46
0.0
 47
0.0
 48
0.0
 49
0.0
140
0.0
141
0.0
142
1.0
143
1.0
 70
  1712
 72
     0
 73
     0
 74
     0
  7

 75
     0
147
1.0
148
0.0
149
0.0
100
AcDbLayout
  1
Model
 70
     1
 71
     0
 10
0.0
 20
0.0
 11
12.0
 21
9.0
 12
0.0
 22
0.0
 32
0.0
 14
0.0
 24
0.0
 34
0.0
 15
0.0
 25
0.0
 35
0.0
146
0.0
 13
0.0
 23
0.0
 33
0.0
 16
1.0
 26
0.0
 36
0.0
 17
0.0
 27
1.0
 37
0.0
 76
     0
330
21CC
  0
LAYOUT
  5
21CB
102
{ACAD_REACTORS
330
21C7
102
}
330
21C7
100
AcDbPlotSettings
  1

  2
SII LP-2150 (D-SCAN C2)
  4

  6

 40
0.0
 41
0.0
 42
0.0
 43
0.0
 44
0.0
 45
0.0
 46
0.0
 47
0.0
 48
0.0
 49
0.0
140
0.0
141
0.0
142
1.0
143
1.0
 70
   688
 72
     0
 73
     0
 74
     5
  7

 75
    16
147
1.0
148
0.0
149
0.0
100
AcDbLayout
  1
ﾚｲｱｳﾄ1
 70
     1
 71
     1
 10
0.0
 20
0.0
 11
12.0
 21
9.0
 12
0.0
 22
0.0
 32
0.0
 14
1.000000000000000E+20
 24
1.000000000000000E+20
 34
1.000000000000000E+20
 15
-1.000000000000000E+20
 25
-1.000000000000000E+20
 35
-1.000000000000000E+20
146
0.0
 13
0.0
 23
0.0
 33
0.0
 16
1.0
 26
0.0
 36
0.0
 17
0.0
 27
1.0
 37
0.0
 76
     0
330
21C8
  0
MLINESTYLE
  5
21C5
102
{ACAD_REACTORS
330
21C4
102
}
330
21C4
100
AcDbMlineStyle
  2
STANDARD
 70
     0
  3

 62
   256
 51
90.0
 52
90.0
 71
     2
 49
0.5
 62
   256
  6
BYLAYER
 49
-0.5
 62
   256
  6
BYLAYER
  0
ACDBPLACEHOLDER
  5
21BD
102
{ACAD_REACTORS
330
21BC
102
}
330
21BC
  0
DICTIONARYVAR
  5
2239
102
{ACAD_REACTORS
330
2238
102
}
330
2238
100
DictionaryVariables
280
     0
  1
1
  0
ENDSEC
  0
EOF
