  0
SECTION
  2
HEADER
  9
$ACADVER
  1
AC1015
  9
$ACADMAINTVER
 70
    14
  9
$DWGCODEPAGE
  3
ANSI_932
  9
$INSBASE
 10
0.0
 20
0.0
 30
0.0
  9
$EXTMIN
 10
-76.20671913267028
 20
-115.0028530574118
 30
-0.0000000000112498
  9
$EXTMAX
 10
838.1379419674622
 20
198.0014340037172
 30
0.0000000000002956
  9
$LIMMIN
 10
0.0
 20
0.0
  9
$LIMMAX
 10
12.0
 20
9.0
  9
$ORTHOMODE
 70
     0
  9
$REGENMODE
 70
     1
  9
$FILLMODE
 70
     1
  9
$QTEXTMODE
 70
     0
  9
$MIRRTEXT
 70
     1
  9
$LTSCALE
 40
1.0
  9
$ATTMODE
 70
     1
  9
$TEXTSIZE
 40
0.2
  9
$TRACEWID
 40
0.05
  9
$TEXTSTYLE
  7
STANDARD
  9
$CLAYER
  8
0
  9
$CELTYPE
  6
CONTINUOUS
  9
$CECOLOR
 62
   256
  9
$CELTSCALE
 40
1.0
  9
$DISPSILH
 70
     0
  9
$DIMSCALE
 40
1.0
  9
$DIMASZ
 40
1.0
  9
$DIMEXO
 40
2.54
  9
$DIMDLI
 40
0.38
  9
$DIMRND
 40
0.0
  9
$DIMDLE
 40
0.0
  9
$DIMEXE
 40
2.54
  9
$DIMTP
 40
0.0
  9
$DIMTM
 40
0.0
  9
$DIMTXT
 40
3.2
  9
$DIMCEN
 40
0.09
  9
$DIMTSZ
 40
0.0
  9
$DIMTOL
 70
     0
  9
$DIMLIM
 70
     0
  9
$DIMTIH
 70
     0
  9
$DIMTOH
 70
     0
  9
$DIMSE1
 70
     0
  9
$DIMSE2
 70
     0
  9
$DIMTAD
 70
     1
  9
$DIMZIN
 70
     0
  9
$DIMBLK
  1

  9
$DIMASO
 70
     1
  9
$DIMSHO
 70
     0
  9
$DIMPOST
  1

  9
$DIMAPOST
  1

  9
$DIMALT
 70
     0
  9
$DIMALTD
 70
     2
  9
$DIMALTF
 40
25.4
  9
$DIMLFAC
 40
1.0
  9
$DIMTOFL
 70
     0
  9
$DIMTVP
 40
1.0
  9
$DIMTIX
 70
     0
  9
$DIMSOXD
 70
     0
  9
$DIMSAH
 70
     1
  9
$DIMBLK1
  1

  9
$DIMBLK2
  1

  9
$DIMSTYLE
  2
STANDARD
  9
$DIMCLRD
 70
     0
  9
$DIMCLRE
 70
     0
  9
$DIMCLRT
 70
     0
  9
$DIMTFAC
 40
1.0
  9
$DIMGAP
 40
1.6
  9
$DIMJUST
 70
     0
  9
$DIMSD1
 70
     0
  9
$DIMSD2
 70
     0
  9
$DIMTOLJ
 70
     1
  9
$DIMTZIN
 70
     0
  9
$DIMALTZ
 70
     0
  9
$DIMALTTZ
 70
     0
  9
$DIMUPT
 70
     0
  9
$DIMDEC
 70
     4
  9
$DIMTDEC
 70
     4
  9
$DIMALTU
 70
     2
  9
$DIMALTTD
 70
     2
  9
$DIMTXSTY
  7
STANDARD
  9
$DIMAUNIT
 70
     0
  9
$DIMADEC
 70
     0
  9
$DIMALTRND
 40
0.0
  9
$DIMAZIN
 70
     0
  9
$DIMDSEP
 70
    46
  9
$DIMATFIT
 70
     3
  9
$DIMFRAC
 70
     0
  9
$DIMLDRBLK
  1

  9
$DIMLUNIT
 70
     2
  9
$DIMLWD
 70
    -2
  9
$DIMLWE
 70
    -2
  9
$DIMTMOVE
 70
     0
  9
$LUNITS
 70
     2
  9
$LUPREC
 70
     4
  9
$SKETCHINC
 40
0.1
  9
$FILLETRAD
 40
0.0
  9
$AUNITS
 70
     0
  9
$AUPREC
 70
     0
  9
$MENU
  1
.
  9
$ELEVATION
 40
0.0
  9
$PELEVATION
 40
0.0
  9
$THICKNESS
 40
0.0
  9
$LIMCHECK
 70
     0
  9
$CHAMFERA
 40
0.0
  9
$CHAMFERB
 40
0.0
  9
$CHAMFERC
 40
0.0
  9
$CHAMFERD
 40
0.0
  9
$SKPOLY
 70
     0
  9
$TDCREATE
 40
2452488.423138738
  9
$TDUCREATE
 40
2452488.048138738
  9
$TDUPDATE
 40
2456906.720997904
  9
$TDUUPDATE
 40
2456906.345997905
  9
$TDINDWG
 40
0.2832601389
  9
$TDUSRTIMER
 40
0.2832599537
  9
$USRTIMER
 70
     1
  9
$ANGBASE
 50
0.0
  9
$ANGDIR
 70
     0
  9
$PDMODE
 70
     3
  9
$PDSIZE
 40
0.0
  9
$PLINEWID
 40
0.0
  9
$SPLFRAME
 70
     0
  9
$SPLINETYPE
 70
     6
  9
$SPLINESEGS
 70
     8
  9
$HANDSEED
  5
33DE
  9
$SURFTAB1
 70
     6
  9
$SURFTAB2
 70
     6
  9
$SURFTYPE
 70
     6
  9
$SURFU
 70
     6
  9
$SURFV
 70
     6
  9
$UCSBASE
  2

  9
$UCSNAME
  2

  9
$UCSORG
 10
0.0
 20
0.0
 30
0.0
  9
$UCSXDIR
 10
1.0
 20
0.0
 30
0.0
  9
$UCSYDIR
 10
0.0
 20
1.0
 30
0.0
  9
$UCSORTHOREF
  2

  9
$UCSORTHOVIEW
 70
     0
  9
$UCSORGTOP
 10
0.0
 20
0.0
 30
0.0
  9
$UCSORGBOTTOM
 10
0.0
 20
0.0
 30
0.0
  9
$UCSORGLEFT
 10
0.0
 20
0.0
 30
0.0
  9
$UCSORGRIGHT
 10
0.0
 20
0.0
 30
0.0
  9
$UCSORGFRONT
 10
0.0
 20
0.0
 30
0.0
  9
$UCSORGBACK
 10
0.0
 20
0.0
 30
0.0
  9
$PUCSBASE
  2

  9
$PUCSNAME
  2

  9
$PUCSORG
 10
0.0
 20
0.0
 30
0.0
  9
$PUCSXDIR
 10
1.0
 20
0.0
 30
0.0
  9
$PUCSYDIR
 10
0.0
 20
1.0
 30
0.0
  9
$PUCSORTHOREF
  2

  9
$PUCSORTHOVIEW
 70
     0
  9
$PUCSORGTOP
 10
0.0
 20
0.0
 30
0.0
  9
$PUCSORGBOTTOM
 10
0.0
 20
0.0
 30
0.0
  9
$PUCSORGLEFT
 10
0.0
 20
0.0
 30
0.0
  9
$PUCSORGRIGHT
 10
0.0
 20
0.0
 30
0.0
  9
$PUCSORGFRONT
 10
0.0
 20
0.0
 30
0.0
  9
$PUCSORGBACK
 10
0.0
 20
0.0
 30
0.0
  9
$USERI1
 70
     0
  9
$USERI2
 70
     0
  9
$USERI3
 70
     0
  9
$USERI4
 70
     0
  9
$USERI5
 70
     0
  9
$USERR1
 40
0.0
  9
$USERR2
 40
0.0
  9
$USERR3
 40
0.0
  9
$USERR4
 40
0.0
  9
$USERR5
 40
0.0
  9
$WORLDVIEW
 70
     1
  9
$SHADEDGE
 70
     3
  9
$SHADEDIF
 70
    70
  9
$TILEMODE
 70
     1
  9
$MAXACTVP
 70
    48
  9
$PINSBASE
 10
0.0
 20
0.0
 30
0.0
  9
$PLIMCHECK
 70
     0
  9
$PEXTMIN
 10
1.000000000000000E+20
 20
1.000000000000000E+20
 30
1.000000000000000E+20
  9
$PEXTMAX
 10
-1.000000000000000E+20
 20
-1.000000000000000E+20
 30
-1.000000000000000E+20
  9
$PLIMMIN
 10
0.0
 20
0.0
  9
$PLIMMAX
 10
12.0
 20
9.0
  9
$UNITMODE
 70
     0
  9
$VISRETAIN
 70
     1
  9
$PLINEGEN
 70
     0
  9
$PSLTSCALE
 70
     1
  9
$TREEDEPTH
 70
  3020
  9
$CMLSTYLE
  2
Standard
  9
$CMLJUST
 70
     0
  9
$CMLSCALE
 40
1.0
  9
$PROXYGRAPHICS
 70
     1
  9
$MEASUREMENT
 70
     0
  9
$CELWEIGHT
370
    -1
  9
$ENDCAPS
280
     0
  9
$JOINSTYLE
280
     0
  9
$LWDISPLAY
290
     0
  9
$INSUNITS
 70
     0
  9
$HYPERLINKBASE
  1

  9
$STYLESHEET
  1

  9
$XEDIT
290
     1
  9
$CEPSNTYPE
380
     0
  9
$PSTYLEMODE
290
     1
  9
$FINGERPRINTGUID
  2
{FFE95C04-33D2-4560-80D0-1E2918E4EC86}
  9
$VERSIONGUID
  2
{A4909DB4-0509-4BF8-9D99-8CB8BAA3E4CD}
  9
$EXTNAMES
290
     1
  9
$PSVPSCALE
 40
0.0
  9
$OLESTARTUP
290
     0
  0
ENDSEC
  0
SECTION
  2
CLASSES
  0
CLASS
  1
ACDBDICTIONARYWDFLT
  2
AcDbDictionaryWithDefault
  3
AutoCAD 2000
 90
        0
280
     0
281
     0
  0
CLASS
  1
ACDBPLACEHOLDER
  2
AcDbPlaceHolder
  3
AutoCAD 2000
 90
        0
280
     0
281
     0
  0
CLASS
  1
LAYOUT
  2
AcDbLayout
  3
AutoCAD 2000
 90
        0
280
     0
281
     0
  0
CLASS
  1
DICTIONARYVAR
  2
AcDbDictionaryVar
  3
AutoCAD 2000
 90
        0
280
     0
281
     0
  0
CLASS
  1
LONG_TRANSACTION
  2
AcDbLongTransaction
  3
AutoCAD 2000
 90
    32768
280
     0
281
     0
  0
CLASS
  1
LWPOLYLINE
  2
AcDbPolyline
  3
AutoCAD 2000
 90
    32768
280
     0
281
     1
  0
CLASS
  1
HATCH
  2
AcDbHatch
  3
AutoCAD 2000
 90
    32768
280
     0
281
     1
  0
CLASS
  1
XRECORD
  2
AcDbXrecord
  3
AutoCAD 2000
 90
    32768
280
     0
281
     0
  0
ENDSEC
  0
SECTION
  2
TABLES
  0
TABLE
  2
VPORT
  5
21B6
330
0
100
AcDbSymbolTable
 70
     2
  0
VPORT
  5
33DD
330
21B6
100
AcDbSymbolTableRecord
100
AcDbViewportTableRecord
  2
*Active
 70
     0
 10
0.0
 20
0.0
 11
1.0
 21
1.0
 12
380.9656114173959
 22
41.4992904731527
 13
0.0
 23
0.0
 14
1.0
 24
1.0
 15
0.0
 25
0.0
 16
0.0
 26
0.0
 36
1.0
 17
0.0
 27
0.0
 37
0.0
 40
469.6024263139489
 41
1.953389830508474
 42
50.0
 43
0.0
 44
0.0
 50
0.0
 51
0.0
 71
     0
 72
   100
 73
     1
 74
     3
 75
     0
 76
     0
 77
     0
 78
     0
281
     0
 65
     1
110
0.0
120
0.0
130
0.0
111
1.0
121
0.0
131
0.0
112
0.0
122
1.0
132
0.0
 79
     0
146
0.0
  0
ENDTAB
  0
TABLE
  2
LTYPE
  5
21B3
330
0
100
AcDbSymbolTable
 70
     2
  0
LTYPE
  5
21C1
330
21B3
100
AcDbSymbolTableRecord
100
AcDbLinetypeTableRecord
  2
ByBlock
 70
     0
  3

 72
    65
 73
     0
 40
0.0
  0
LTYPE
  5
21C2
330
21B3
100
AcDbSymbolTableRecord
100
AcDbLinetypeTableRecord
  2
ByLayer
 70
     0
  3

 72
    65
 73
     0
 40
0.0
  0
LTYPE
  5
21C3
330
21B3
100
AcDbSymbolTableRecord
100
AcDbLinetypeTableRecord
  2
CONTINUOUS
 70
     0
  3
Solid line
 72
    65
 73
     0
 40
0.0
  0
LTYPE
  5
21D1
330
21B3
100
AcDbSymbolTableRecord
100
AcDbLinetypeTableRecord
  2
CENTER
 70
     0
  3
__ . __
 72
    65
 73
     4
 40
7.0
 49
4.0
 74
     0
 49
-1.0
 74
     0
 49
1.0
 74
     0
 49
-1.0
 74
     0
  0
ENDTAB
  0
TABLE
  2
LAYER
  5
21B0
102
{ACAD_XDICTIONARY
360
2244
102
}
330
0
100
AcDbSymbolTable
 70
     1
  0
LAYER
  5
21BE
330
21B0
100
AcDbSymbolTableRecord
100
AcDbLayerTableRecord
  2
0
 70
     0
 62
     7
  6
CONTINUOUS
370
    -3
390
21BD
  0
ENDTAB
  0
TABLE
  2
STYLE
  5
21B1
330
0
100
AcDbSymbolTable
 70
     1
  0
STYLE
  5
21BF
330
21B1
100
AcDbSymbolTableRecord
100
AcDbTextStyleTableRecord
  2
STANDARD
 70
     0
 40
0.0
 41
1.0
 50
0.0
 71
     0
 42
0.2
  3
txt
  4
BIGFONT
  0
ENDTAB
  0
TABLE
  2
VIEW
  5
21B4
330
0
100
AcDbSymbolTable
 70
     1
  0
VIEW
  5
21DE
330
21B4
100
AcDbSymbolTableRecord
100
AcDbViewTableRecord
  2
OLE1
 70
     0
 40
3692.141019219747
 10
1914.591370701856
 20
1272.206200738182
 41
4595.022665841169
 11
0.0
 21
0.0
 31
1.0
 12
0.0
 22
0.0
 32
0.0
 42
50.0
 43
0.0
 44
0.0
 50
0.0
 71
     0
281
     0
 72
     1
110
0.0
120
0.0
130
0.0
111
1.0
121
0.0
131
0.0
112
0.0
122
1.0
132
0.0
 79
     0
146
0.0
  0
ENDTAB
  0
TABLE
  2
UCS
  5
21B5
330
0
100
AcDbSymbolTable
 70
     0
  0
ENDTAB
  0
TABLE
  2
APPID
  5
21B7
330
0
100
AcDbSymbolTable
 70
     8
  0
APPID
  5
21C0
330
21B7
100
AcDbSymbolTableRecord
100
AcDbRegAppTableRecord
  2
ACAD
 70
     0
  0
APPID
  5
21DF
330
21B7
100
AcDbSymbolTableRecord
100
AcDbRegAppTableRecord
  2
MCAD_NO_VIS
 70
     0
  0
APPID
  5
21E0
330
21B7
100
AcDbSymbolTableRecord
100
AcDbRegAppTableRecord
  2
ACAD_TEMP_GRAPHIC
 70
     0
  0
APPID
  5
21E1
330
21B7
100
AcDbSymbolTableRecord
100
AcDbRegAppTableRecord
  2
ACATTRIBSERVICES
 70
     0
  0
APPID
  5
21E2
330
21B7
100
AcDbSymbolTableRecord
100
AcDbRegAppTableRecord
  2
CONTENTBLOCKICON
 70
     0
  0
APPID
  5
2241
330
21B7
100
AcDbSymbolTableRecord
100
AcDbRegAppTableRecord
  2
ACAD_DSTYLE_DIMJAG
 70
     0
  0
APPID
  5
2242
330
21B7
100
AcDbSymbolTableRecord
100
AcDbRegAppTableRecord
  2
ACAD_DSTYLE_DIMTALN
 70
     0
  0
APPID
  5
2243
330
21B7
100
AcDbSymbolTableRecord
100
AcDbRegAppTableRecord
  2
ACAD_PSEXT
 70
     0
  0
ENDTAB
  0
TABLE
  2
DIMSTYLE
  5
21B8
330
0
100
AcDbSymbolTable
 70
     1
100
AcDbDimStyleTable
 71
     0
  0
DIMSTYLE
105
21E3
330
21B8
100
AcDbSymbolTableRecord
100
AcDbDimStyleTableRecord
  2
STANDARD
 70
     0
279
     2
340
21BF
  0
ENDTAB
  0
TABLE
  2
BLOCK_RECORD
  5
21AF
330
0
100
AcDbSymbolTable
 70
     0
  0
BLOCK_RECORD
  5
21CC
102
{ACAD_XDICTIONARY
360
21F8
102
}
330
21AF
100
AcDbSymbolTableRecord
100
AcDbBlockTableRecord
  2
*Model_Space
340
21CF
  0
BLOCK_RECORD
  5
21C8
102
{ACAD_XDICTIONARY
360
21FA
102
}
330
21AF
100
AcDbSymbolTableRecord
100
AcDbBlockTableRecord
  2
*Paper_Space
340
21CB
  0
ENDTAB
  0
ENDSEC
  0
SECTION
  2
BLOCKS
  0
BLOCK
  5
21CD
330
21CC
100
AcDbEntity
  8
0
100
AcDbBlockBegin
  2
*Model_Space
 70
     0
 10
0.0
 20
0.0
 30
0.0
  3
*Model_Space
  1

  0
ENDBLK
  5
21CE
330
21CC
100
AcDbEntity
  8
0
100
AcDbBlockEnd
  0
BLOCK
  5
21C9
330
21C8
100
AcDbEntity
 67
     1
  8
0
100
AcDbBlockBegin
  2
*Paper_Space
 70
     0
 10
0.0
 20
0.0
 30
0.0
  3
*Paper_Space
  1

  0
ENDBLK
  5
21CA
330
21C8
100
AcDbEntity
 67
     1
  8
0
100
AcDbBlockEnd
  0
ENDSEC
  0
SECTION
  2
ENTITIES
  0
TEXT
  5
F6E
330
21CC
100
AcDbEntity
  8
0
  6
Continuous
100
AcDbText
 10
0.0
 20
150.0
 30
0.0
 40
48.000002
  1
STE 2.5S
 41
1.32095
100
AcDbText
  0
LINE
  5
2F5E
330
21CC
100
AcDbEntity
  8
0
100
AcDbLine
 10
81.0
 20
15.0
 30
0.0
 11
67.38880000000017
 21
15.0
 31
0.0
  0
LINE
  5
2F5F
330
21CC
100
AcDbEntity
  8
0
  6
CENTER
100
AcDbLine
 10
90.31916
 20
0.0
 30
0.0
 11
-76.14416000000028
 21
0.0
 31
0.0
  0
LINE
  5
2F60
330
21CC
100
AcDbEntity
  8
0
100
AcDbLine
 10
67.25
 20
-22.03009199999996
 30
0.0
 11
67.25
 21
-17.90002600000002
 31
0.0
  0
LINE
  5
2F61
330
21CC
100
AcDbEntity
  8
0
  6
CENTER
100
AcDbLine
 10
0.0
 20
74.28369599999996
 30
0.0
 11
0.0
 21
-115.0
 31
0.0
  0
LINE
  5
2F62
330
21CC
100
AcDbEntity
  8
0
100
AcDbLine
 10
81.0
 20
4.0
 30
0.0
 11
59.08680000000003
 21
4.0
 31
0.0
  0
LINE
  5
2F63
330
21CC
100
AcDbEntity
  8
0
100
AcDbLine
 10
81.0
 20
-4.0
 30
0.0
 11
59.08680000000003
 21
-4.0
 31
0.0
  0
LINE
  5
2F64
330
21CC
100
AcDbEntity
  8
0
100
AcDbLine
 10
-29.79881999999998
 20
49.38971600000013
 30
0.0
 11
-28.97022000000015
 21
58.86081599999989
 31
0.0
  0
LINE
  5
2F65
330
21CC
100
AcDbEntity
  8
0
100
AcDbLine
 10
80.0
 20
-43.00003199999991
 30
0.0
 11
80.0
 21
-31.20001400000001
 31
0.0
  0
LINE
  5
2F66
330
21CC
100
AcDbEntity
  8
0
100
AcDbLine
 10
-27.87336000000005
 20
50.50133600000004
 30
0.0
 11
-28.51306000000022
 21
50.79963599999996
 31
0.0
  0
LINE
  5
2F67
330
21CC
100
AcDbEntity
  8
0
100
AcDbLine
 10
-43.36792000000014
 20
52.31017599999995
 30
0.0
 11
-39.05346000000008
 21
61.56261600000016
 31
0.0
  0
LINE
  5
2F68
330
21CC
100
AcDbEntity
  8
0
100
AcDbLine
 10
-37.22222000000011
 20
48.26787599999988
 30
0.0
 11
-43.81860000000005
 21
51.34379600000011
 31
0.0
  0
LINE
  5
2F69
330
21CC
100
AcDbEntity
  8
0
100
AcDbLine
 10
-29.08660000000009
 20
51.79309599999988
 30
0.0
 11
-28.25469999999995
 21
61.30189599999994
 31
0.0
  0
LINE
  5
2F6A
330
21CC
100
AcDbEntity
  8
0
100
AcDbLine
 10
-17.87426000000005
 20
57.53449599999999
 30
0.0
 11
-27.08288000000038
 21
61.82855599999993
 31
0.0
  0
LINE
  5
2F6B
330
21CC
100
AcDbEntity
  8
0
100
AcDbLine
 10
88.9393399999999
 20
-52.00003199999992
 30
0.0
 11
61.06068000000004
 21
-52.00003199999992
 31
0.0
  0
LINE
  5
2F6C
330
21CC
100
AcDbEntity
  8
0
100
AcDbLine
 10
82.75
 20
-22.03009199999996
 30
0.0
 11
82.75
 21
-17.90002600000002
 31
0.0
  0
LINE
  5
2F6D
330
21CC
100
AcDbEntity
  8
0
100
AcDbLine
 10
79.0
 20
-1.287583999999924
 30
0.0
 11
78.30006000000003
 21
-2.499986000000035
 31
0.0
  0
LINE
  5
2F6E
330
21CC
100
AcDbEntity
  8
0
100
AcDbLine
 10
71.70001999999977
 20
-39.428224
 30
0.0
 11
71.70001999999977
 21
-29.22265800000014
 31
0.0
  0
LINE
  5
2F6F
330
21CC
100
AcDbEntity
  8
0
100
AcDbLine
 10
71.70001999999977
 20
-2.500015999999959
 30
0.0
 11
71.0
 21
-1.287597999999888
 31
0.0
  0
LINE
  5
2F70
330
21CC
100
AcDbEntity
  8
0
100
AcDbLine
 10
70.0
 20
-43.00003199999991
 30
0.0
 11
70.0
 21
-31.20001400000001
 31
0.0
  0
LINE
  5
2F71
330
21CC
100
AcDbEntity
  8
0
100
AcDbLine
 10
79.0
 20
-39.428224
 30
0.0
 11
79.0
 21
-29.46798799999987
 31
0.0
  0
LINE
  5
2F72
330
21CC
100
AcDbEntity
  8
0
100
AcDbLine
 10
71.0
 20
-39.428224
 30
0.0
 11
71.0
 21
-29.46798799999987
 31
0.0
  0
LINE
  5
2F73
330
21CC
100
AcDbEntity
  8
0
100
AcDbLine
 10
78.29997999999978
 20
-39.428224
 30
0.0
 11
78.29997999999978
 21
-29.22264199999995
 31
0.0
  0
LINE
  5
2F74
330
21CC
100
AcDbEntity
  8
0
100
AcDbLine
 10
79.0
 20
-39.428224
 30
0.0
 11
71.0
 21
-39.428224
 31
0.0
  0
LINE
  5
2F75
330
21CC
100
AcDbEntity
  8
0
100
AcDbLine
 10
82.0
 20
-5.0
 30
0.0
 11
82.0
 21
-14.0
 31
0.0
  0
LINE
  5
2F76
330
21CC
100
AcDbEntity
  8
0
100
AcDbLine
 10
82.0
 20
14.0
 30
0.0
 11
82.0
 21
5.0
 31
0.0
  0
LINE
  5
2F77
330
21CC
100
AcDbEntity
  8
0
100
AcDbLine
 10
-23.61803999999983
 20
63.71281599999997
 30
0.0
 11
-33.78808000000026
 21
64.602576
 31
0.0
  0
LINE
  5
2F78
330
21CC
100
AcDbEntity
  8
0
100
AcDbLine
 10
67.38880000000017
 20
-15.0
 30
0.0
 11
81.0
 21
-15.0
 31
0.0
  0
LINE
  5
2F79
330
21CC
100
AcDbEntity
  8
0
100
AcDbLine
 10
62.06428000000006
 20
12.83613400000013
 30
0.0
 11
66.33356000000003
 21
15.30101000000013
 31
0.0
  0
LINE
  5
2F7A
330
21CC
100
AcDbEntity
  8
0
100
AcDbLine
 10
79.0
 20
-2.500015999999959
 30
0.0
 11
71.0
 21
-2.500015999999959
 31
0.0
  0
LINE
  5
2F7B
330
21CC
100
AcDbEntity
  8
0
100
AcDbLine
 10
71.70001999999977
 20
-4.0
 30
0.0
 11
71.70001999999977
 21
-2.5
 31
0.0
  0
LINE
  5
2F7C
330
21CC
100
AcDbEntity
  8
0
100
AcDbLine
 10
71.0
 20
-4.0
 30
0.0
 11
71.0
 21
4.0
 31
0.0
  0
LINE
  5
2F7D
330
21CC
100
AcDbEntity
  8
0
100
AcDbLine
 10
78.29997999999978
 20
-4.0
 30
0.0
 11
78.29997999999978
 21
-2.5
 31
0.0
  0
LINE
  5
2F7E
330
21CC
100
AcDbEntity
  8
0
100
AcDbLine
 10
79.0
 20
-4.0
 30
0.0
 11
79.0
 21
4.0
 31
0.0
  0
LINE
  5
2F7F
330
21CC
100
AcDbEntity
  8
0
100
AcDbLine
 10
72.0
 20
-29.20001400000001
 30
0.0
 11
78.0
 21
-29.20001400000001
 31
0.0
  0
LINE
  5
2F80
330
21CC
100
AcDbEntity
  8
0
100
AcDbLine
 10
-40.88922000000002
 20
-44.24684200000001
 30
0.0
 11
-40.00365999999985
 21
-54.36873000000014
 31
0.0
  0
LINE
  5
2F81
330
21CC
100
AcDbEntity
  8
0
100
AcDbLine
 10
-30.31078000000025
 20
-51.0863119999999
 30
0.0
 11
-38.96160000000008
 21
-55.12024799999995
 31
0.0
  0
LINE
  5
2F82
330
21CC
100
AcDbEntity
  8
0
100
AcDbLine
 10
-23.19006000000035
 20
-56.36931800000002
 30
0.0
 11
-22.55571999999983
 21
-63.61988199999996
 31
0.0
  0
LINE
  5
2F83
330
21CC
100
AcDbEntity
  8
0
100
AcDbLine
 10
-27.87336000000005
 20
-50.5013899999999
 30
0.0
 11
-36.48986000000013
 21
-54.51933400000007
 31
0.0
  0
LINE
  5
2F84
330
21CC
100
AcDbEntity
  8
0
100
AcDbLine
 10
-23.61797999999998
 20
-63.71281599999997
 30
0.0
 11
-33.78808000000026
 21
-64.60258599999997
 31
0.0
  0
LINE
  5
2F85
330
21CC
100
AcDbEntity
  8
0
100
AcDbLine
 10
-29.79876000000013
 20
-49.3897179999999
 30
0.0
 11
-29.73723999999993
 21
-50.09284400000002
 31
0.0
  0
LINE
  5
2F86
330
21CC
100
AcDbEntity
  8
0
100
AcDbLine
 10
-43.36785999999984
 20
-52.3101959999999
 30
0.0
 11
-39.05340000000023
 21
-61.56262199999992
 31
0.0
  0
LINE
  5
2F87
330
21CC
100
AcDbEntity
  8
0
100
AcDbLine
 10
62.0643399999999
 20
-12.83615199999985
 30
0.0
 11
66.33361999999988
 21
-15.30102600000009
 31
0.0
  0
LINE
  5
2F88
330
21CC
100
AcDbEntity
  8
0
100
AcDbLine
 10
6.0
 20
-44.0
 30
0.0
 11
6.0
 21
43.99999600000001
 31
0.0
  0
LINE
  5
2F89
330
21CC
100
AcDbEntity
  8
0
100
AcDbLine
 10
-6.0
 20
-44.0
 30
0.0
 11
-6.0
 21
43.99999600000001
 31
0.0
  0
LINE
  5
2F8A
330
21CC
100
AcDbEntity
  8
0
100
AcDbLine
 10
-36.41094000000021
 20
-102.1499939999998
 30
0.0
 11
36.4109599999997
 21
-102.1499939999998
 31
0.0
  0
LINE
  5
2F8B
330
21CC
100
AcDbEntity
  8
0
100
AcDbLine
 10
-31.32538000000022
 20
-99.60220400000004
 30
0.0
 11
31.32537999999977
 21
-99.60220400000004
 31
0.0
  0
LINE
  5
2F8C
330
21CC
100
AcDbEntity
  8
0
100
AcDbLine
 10
38.2236399999997
 20
-101.9584159999999
 30
0.0
 11
33.06597999999985
 21
-100.0811899999998
 31
0.0
  0
LINE
  5
2F8D
330
21CC
100
AcDbEntity
  8
0
100
AcDbLine
 10
38.75
 20
-105.0
 30
0.0
 11
38.75
 21
-102.71016
 31
0.0
  0
LINE
  5
2F8E
330
21CC
100
AcDbEntity
  8
0
100
AcDbLine
 10
-38.75
 20
-105.0
 30
0.0
 11
38.75
 21
-105.0
 31
0.0
  0
LINE
  5
2F8F
330
21CC
100
AcDbEntity
  8
0
100
AcDbLine
 10
-38.75
 20
-105.0
 30
0.0
 11
-38.75
 21
-102.71016
 31
0.0
  0
LINE
  5
2F90
330
21CC
100
AcDbEntity
  8
0
100
AcDbLine
 10
-38.22358000000031
 20
-101.95839
 30
0.0
 11
-33.06592
 21
-100.0811619999999
 31
0.0
  0
LINE
  5
2F91
330
21CC
100
AcDbEntity
  8
0
100
AcDbLine
 10
31.75
 20
-59.56666599999994
 30
0.0
 11
31.75
 21
-98.20178399999987
 31
0.0
  0
LINE
  5
2F92
330
21CC
100
AcDbEntity
  8
0
100
AcDbLine
 10
-31.75
 20
-64.42427199999997
 30
0.0
 11
-31.75
 21
-98.20178399999987
 31
0.0
  0
LINE
  5
2F93
330
21CC
100
AcDbEntity
  8
0
100
AcDbLine
 10
810.1722797844118
 20
-38.75
 30
0.0
 11
807.8824397844119
 21
-38.75
 31
0.0
  0
LINE
  5
2F94
330
21CC
100
AcDbEntity
  8
0
100
AcDbLine
 10
281.4683917844117
 20
-105.0
 30
0.0
 11
281.4683917844117
 21
-102.7101400000001
 31
0.0
  0
LINE
  5
2F95
330
21CC
100
AcDbEntity
  8
0
100
AcDbLine
 10
281.4683917844117
 20
-105.0
 30
0.0
 11
358.9683917844117
 21
-105.0
 31
0.0
  0
LINE
  5
2F96
330
21CC
100
AcDbEntity
  8
0
100
AcDbLine
 10
358.9683917844117
 20
-105.0
 30
0.0
 11
358.9683917844117
 21
-102.7101400000001
 31
0.0
  0
LINE
  5
2F97
330
21CC
100
AcDbEntity
  8
0
100
AcDbLine
 10
358.4419717844121
 20
-101.9583999999999
 30
0.0
 11
353.2843117844117
 21
-100.0811600000001
 31
0.0
  0
LINE
  5
2F98
330
21CC
100
AcDbEntity
  8
0
100
AcDbLine
 10
288.893011784412
 20
-99.60220000000004
 30
0.0
 11
351.543771784412
 21
-99.60220000000004
 31
0.0
  0
LINE
  5
2F99
330
21CC
100
AcDbEntity
  8
0
100
AcDbLine
 10
283.807451784412
 20
-102.1499800000001
 30
0.0
 11
356.6293517844119
 21
-102.1499800000001
 31
0.0
  0
LINE
  5
2F9A
330
21CC
100
AcDbEntity
  8
0
100
AcDbLine
 10
807.1306837844117
 20
-38.22360000000003
 30
0.0
 11
805.2534577844117
 21
-33.06593999999995
 31
0.0
  0
LINE
  5
2F9B
330
21CC
100
AcDbEntity
  8
0
100
AcDbLine
 10
803.3740617844118
 20
-31.75
 30
0.0
 11
783.793861784412
 21
-31.75
 31
0.0
  0
LINE
  5
2F9C
330
21CC
100
AcDbEntity
  8
0
100
AcDbLine
 10
750.6187517844118
 20
-50.13012000000003
 30
0.0
 11
781.2938477844117
 21
-32.41985999999997
 31
0.0
  0
LINE
  5
2F9D
330
21CC
100
AcDbEntity
  8
0
100
AcDbLine
 10
804.774483784412
 20
31.32537999999999
 30
0.0
 11
804.774483784412
 21
-31.32537999999999
 31
0.0
  0
LINE
  5
2F9E
330
21CC
100
AcDbEntity
  8
0
100
AcDbLine
 10
807.3222737844115
 20
36.41093999999998
 30
0.0
 11
807.3222737844115
 21
-36.41093999999998
 31
0.0
  0
LINE
  5
2F9F
330
21CC
100
AcDbEntity
  8
0
100
AcDbLine
 10
749.4632037844117
 20
48.50072
 30
0.0
 11
749.4632037844117
 21
-48.50072
 31
0.0
  0
LINE
  5
2FA0
330
21CC
100
AcDbEntity
  8
0
100
AcDbLine
 10
782.4587797844119
 20
30.63738000000012
 30
0.0
 11
782.4587797844119
 21
-30.63738000000012
 31
0.0
  0
LINE
  5
2FA1
330
21CC
100
AcDbEntity
  8
0
  6
CENTER
100
AcDbLine
 10
320.2183917844117
 20
-115.0
 30
0.0
 11
320.2183917844117
 21
0.0
 31
0.0
  0
LINE
  5
2FA2
330
21CC
100
AcDbEntity
  8
0
100
AcDbLine
 10
288.4683917844117
 20
-53.69726000000014
 30
0.0
 11
288.4683917844117
 21
-98.2017800000001
 31
0.0
  0
LINE
  5
2FA3
330
21CC
100
AcDbEntity
  8
0
100
AcDbLine
 10
351.9683917844117
 20
-54.5
 30
0.0
 11
351.9683917844117
 21
-98.2017800000001
 31
0.0
  0
LINE
  5
2FA4
330
21CC
100
AcDbEntity
  8
0
100
AcDbLine
 10
377.4683917844118
 20
-50.51510000000007
 30
0.0
 11
377.4683917844118
 21
50.51510000000007
 31
0.0
  0
LINE
  5
2FA5
330
21CC
100
AcDbEntity
  8
0
100
AcDbLine
 10
377.2140517844118
 20
-50.86815999999998
 30
0.0
 11
371.3781917844116
 21
-52.43184000000019
 31
0.0
  0
LINE
  5
2FA6
330
21CC
100
AcDbEntity
  8
0
100
AcDbLine
 10
371.123911784412
 20
-52.17946000000006
 30
0.0
 11
371.123911784412
 21
52.17946000000006
 31
0.0
  0
LINE
  5
2FA7
330
21CC
100
AcDbEntity
  8
0
100
AcDbLine
 10
281.994751784412
 20
-101.9583999999999
 30
0.0
 11
287.1524117844119
 21
-100.0811600000001
 31
0.0
  0
LINE
  5
2FA8
330
21CC
100
AcDbEntity
  8
0
100
AcDbLine
 10
287.268371784412
 20
-52.5
 30
0.0
 11
285.9683917844117
 21
-52.5
 31
0.0
  0
LINE
  5
2FA9
330
21CC
100
AcDbEntity
  8
0
100
AcDbLine
 10
353.9683917844117
 20
-52.5
 30
0.0
 11
370.8606117844119
 21
-52.5
 31
0.0
  0
LINE
  5
2FAA
330
21CC
100
AcDbEntity
  8
0
100
AcDbLine
 10
377.7316917844118
 20
-50.80002000000013
 30
0.0
 11
748.1187677844118
 21
-50.80002000000013
 31
0.0
  0
LINE
  5
2FAB
330
21CC
100
AcDbEntity
  8
0
100
AcDbLine
 10
276.4683917844117
 20
-59.4999600000001
 30
0.0
 11
276.4683917844117
 21
55.97749174895944
 31
0.0
  0
LINE
  5
2FAC
330
21CC
100
AcDbEntity
  8
0
100
AcDbLine
 10
218.4683917844117
 20
-6.0
 30
0.0
 11
266.9683917844117
 21
-6.0
 31
0.0
  0
LINE
  5
2FAD
330
21CC
100
AcDbEntity
  8
0
  6
CENTER
100
AcDbLine
 10
216.4683917844117
 20
55.0
 30
0.0
 11
216.4683917844117
 21
-55.0
 31
0.0
  0
LINE
  5
2FAE
330
21CC
100
AcDbEntity
  8
0
100
AcDbLine
 10
218.4683917844117
 20
6.0
 30
0.0
 11
281.4683917844117
 21
6.0
 31
0.0
  0
LINE
  5
2FAF
330
21CC
100
AcDbEntity
  8
0
100
AcDbLine
 10
222.4683917844117
 20
44.0
 30
0.0
 11
222.4683917844117
 21
6.0
 31
0.0
  0
LINE
  5
2FB0
330
21CC
100
AcDbEntity
  8
0
100
AcDbLine
 10
210.4683917844117
 20
44.0
 30
0.0
 11
210.4683917844117
 21
-44.0
 31
0.0
  0
LINE
  5
2FB1
330
21CC
100
AcDbEntity
  8
0
100
AcDbLine
 10
222.4683917844117
 20
-6.0
 30
0.0
 11
222.4683917844117
 21
-44.0
 31
0.0
  0
ARC
  5
2FB2
330
21CC
100
AcDbEntity
  8
0
100
AcDbCircle
 10
0.0
 20
0.0
 30
0.0
 40
59.450042
100
AcDbArc
 50
356.142029999999
 51
3.857969499990779
  0
ARC
  5
2FB3
330
21CC
100
AcDbEntity
  8
0
100
AcDbCircle
 10
0.0
 20
0.0
 30
0.0
 40
56.5
100
AcDbArc
 50
123.4389500000023
 51
236.5610499999977
  0
ARC
  5
2FB4
330
21CC
100
AcDbEntity
  8
0
100
AcDbCircle
 10
0.0
 20
0.0
 30
0.0
 40
59.5
100
AcDbArc
 50
128.479050000011
 51
225.4087199999944
  0
ARC
  5
2FB5
330
21CC
100
AcDbEntity
  8
0
100
AcDbCircle
 10
0.0
 20
0.0
 30
0.0
 40
63.2
100
AcDbArc
 50
116.9990100000059
 51
117.5351099999973
  0
ARC
  5
2FB6
330
21CC
100
AcDbEntity
  8
0
100
AcDbCircle
 10
0.0
 20
0.0
 30
0.0
 40
59.5
100
AcDbArc
 50
14.29096300000042
 51
105.4087299999989
  0
ARC
  5
2FB7
330
21CC
100
AcDbEntity
  8
0
100
AcDbCircle
 10
-28.09045999999989
 20
51.70595600000002
 30
0.0
 40
1.0
100
AcDbArc
 50
174.999970000011
 51
245.0006400000019
  0
ARC
  5
2FB8
330
21CC
100
AcDbEntity
  8
0
100
AcDbCircle
 10
-34.25005999999985
 20
59.32273600000008
 30
0.0
 40
5.3000002
100
AcDbArc
 50
354.999970000011
 51
154.9998199999977
  0
ARC
  5
2FB9
330
21CC
100
AcDbEntity
  8
0
100
AcDbCircle
 10
67.38880000000017
 20
17.0
 30
0.0
 40
2.0
100
AcDbArc
 50
194.1583800000014
 51
270.0
  0
ARC
  5
2FBA
330
21CC
100
AcDbEntity
  8
0
100
AcDbCircle
 10
-32.78742000000011
 20
49.65117600000008
 30
0.0
 40
3.0
100
AcDbArc
 50
303.4388600000005
 51
354.9998600000038
  0
ARC
  5
2FBB
330
21CC
100
AcDbEntity
  8
0
100
AcDbCircle
 10
0.0
 20
0.0
 30
0.0
 40
56.5
100
AcDbArc
 50
6.756335899999181
 51
116.5610500000032
  0
ARC
  5
2FBC
330
21CC
100
AcDbEntity
  8
0
100
AcDbCircle
 10
-26.60552000000007
 20
53.22027600000001
 30
0.0
 40
3.0
100
AcDbArc
 50
244.9994600000028
 51
296.560619999994
  0
ARC
  5
2FBD
330
21CC
100
AcDbEntity
  8
0
100
AcDbCircle
 10
60.5643399999999
 20
15.43420400000013
 30
0.0
 40
3.0
100
AcDbArc
 50
194.2969099999973
 51
299.999930000002
  0
ARC
  5
2FBE
330
21CC
100
AcDbEntity
  8
0
100
AcDbCircle
 10
0.0
 20
0.0
 30
0.0
 40
67.5
100
AcDbArc
 50
131.3519299999905
 51
234.7455200000019
  0
CIRCLE
  5
2FBF
330
21CC
100
AcDbEntity
  8
0
100
AcDbCircle
 10
-34.25005999999985
 20
59.32273600000008
 30
0.0
 40
2.6
  0
ARC
  5
2FC0
330
21CC
100
AcDbEntity
  8
0
100
AcDbCircle
 10
0.0
 20
0.0
 30
0.0
 40
67.5
100
AcDbArc
 50
14.15845399999847
 51
114.745479999996
  0
ARC
  5
2FC1
330
21CC
100
AcDbEntity
  8
0
100
AcDbCircle
 10
59.08680000000003
 20
-7.0
 30
0.0
 40
3.0
100
AcDbArc
 50
90.0
 51
173.2438199999999
  0
ARC
  5
2FC2
330
21CC
100
AcDbEntity
  8
0
100
AcDbCircle
 10
-37.64483999999993
 20
47.36155600000006
 30
0.0
 40
1.0
100
AcDbArc
 50
308.4801299999995
 51
65.00064200000584
  0
ARC
  5
2FC3
330
21CC
100
AcDbEntity
  8
0
100
AcDbCircle
 10
0.0
 20
0.0
 30
0.0
 40
67.5
100
AcDbArc
 50
251.3519199999993
 51
345.8415499999953
  0
CIRCLE
  5
2FC4
330
21CC
100
AcDbEntity
  8
0
100
AcDbCircle
 10
75.0
 20
9.5
 30
0.0
 40
2.6
  0
ARC
  5
2FC5
330
21CC
100
AcDbEntity
  8
0
100
AcDbCircle
 10
-47.89948000000004
 20
54.42327599999998
 30
0.0
 40
5.0
100
AcDbArc
 50
311.351890000001
 51
335.000010000002
  0
ARC
  5
2FC6
330
21CC
100
AcDbEntity
  8
0
100
AcDbCircle
 10
-16.60644000000002
 20
60.25345599999991
 30
0.0
 40
3.0
100
AcDbArc
 50
244.9994600000028
 51
285.4089100000056
  0
ARC
  5
2FC7
330
21CC
100
AcDbEntity
  8
0
100
AcDbCircle
 10
56.0
 20
-48.00003199999991
 30
0.0
 40
35.0
100
AcDbArc
 50
356.5254100000094
 51
35.24752500000502
  0
ARC
  5
2FC8
330
21CC
100
AcDbEntity
  8
0
100
AcDbCircle
 10
81.0
 20
14.0
 30
0.0
 40
1.0
100
AcDbArc
 50
0.0
 51
90.0
  0
ARC
  5
2FC9
330
21CC
100
AcDbEntity
  8
0
100
AcDbCircle
 10
92.75
 20
-22.03009199999996
 30
0.0
 40
10.0
100
AcDbArc
 50
180.0
 51
215.2473999999974
  0
ARC
  5
2FCA
330
21CC
100
AcDbEntity
  8
0
100
AcDbCircle
 10
75.0
 20
-43.00003199999991
 30
0.0
 40
5.0
100
AcDbArc
 50
180.0
 51
0.0
  0
ARC
  5
2FCB
330
21CC
100
AcDbEntity
  8
0
100
AcDbCircle
 10
81.0
 20
5.0
 30
0.0
 40
1.0
100
AcDbArc
 50
270.0
 51
0.0
  0
ARC
  5
2FCC
330
21CC
100
AcDbEntity
  8
0
100
AcDbCircle
 10
94.0
 20
-48.00003199999991
 30
0.0
 40
35.0
100
AcDbArc
 50
144.7524699999958
 51
183.4745899999905
  0
ARC
  5
2FCD
330
21CC
100
AcDbEntity
  8
0
100
AcDbCircle
 10
57.25
 20
-22.03009199999996
 30
0.0
 40
10.0
100
AcDbArc
 50
324.7525300000003
 51
0.0
  0
ARC
  5
2FCE
330
21CC
100
AcDbEntity
  8
0
100
AcDbCircle
 10
-23.18224000000009
 20
68.69377600000007
 30
0.0
 40
5.0
100
AcDbArc
 50
264.9998600000037
 51
288.6478800000054
  0
ARC
  5
2FCF
330
21CC
100
AcDbEntity
  8
0
100
AcDbCircle
 10
59.08680000000003
 20
7.0
 30
0.0
 40
3.0
100
AcDbArc
 50
186.75618
 51
270.0
  0
ARC
  5
2FD0
330
21CC
100
AcDbEntity
  8
0
100
AcDbCircle
 10
61.06068000000004
 20
-50.00003199999992
 30
0.0
 40
2.0
100
AcDbArc
 50
183.4744599999946
 51
270.0
  0
CIRCLE
  5
2FD1
330
21CC
100
AcDbEntity
  8
0
100
AcDbCircle
 10
75.0
 20
9.5
 30
0.0
 40
3.5
  0
ARC
  5
2FD2
330
21CC
100
AcDbEntity
  8
0
100
AcDbCircle
 10
78.0
 20
-31.20001400000001
 30
0.0
 40
2.0
100
AcDbArc
 50
0.0
 51
90.0
  0
ARC
  5
2FD3
330
21CC
100
AcDbEntity
  8
0
100
AcDbCircle
 10
72.0
 20
-31.20001400000001
 30
0.0
 40
2.0
100
AcDbArc
 50
90.0
 51
180.0
  0
ARC
  5
2FD4
330
21CC
100
AcDbEntity
  8
0
100
AcDbCircle
 10
81.0
 20
-5.0
 30
0.0
 40
1.0
100
AcDbArc
 50
0.0
 51
90.0
  0
ARC
  5
2FD5
330
21CC
100
AcDbEntity
  8
0
100
AcDbCircle
 10
75.0
 20
-17.90002600000002
 30
0.0
 40
7.75
100
AcDbArc
 50
0.0
 51
26.83102100000784
  0
ARC
  5
2FD6
330
21CC
100
AcDbEntity
  8
0
100
AcDbCircle
 10
88.9393399999999
 20
-50.00003199999992
 30
0.0
 40
2.0
100
AcDbArc
 50
270.0
 51
356.5255400000054
  0
ARC
  5
2FD7
330
21CC
100
AcDbEntity
  8
0
100
AcDbCircle
 10
75.0
 20
9.5
 30
0.0
 40
6.0
100
AcDbArc
 50
66.44377699999194
 51
113.5562200000002
  0
ARC
  5
2FD8
330
21CC
100
AcDbEntity
  8
0
100
AcDbCircle
 10
75.0
 20
-17.90002600000002
 30
0.0
 40
7.75
100
AcDbArc
 50
158.0253099999995
 51
180.0
  0
ARC
  5
2FD9
330
21CC
100
AcDbEntity
  8
0
100
AcDbCircle
 10
67.38880000000017
 20
-17.0
 30
0.0
 40
2.0
100
AcDbArc
 50
90.0
 51
165.8416199999985
  0
ARC
  5
2FDA
330
21CC
100
AcDbEntity
  8
0
100
AcDbCircle
 10
81.0
 20
-14.0
 30
0.0
 40
1.0
100
AcDbArc
 50
270.0
 51
0.0
  0
ARC
  5
2FDB
330
21CC
100
AcDbEntity
  8
0
100
AcDbCircle
 10
0.0
 20
0.0
 30
0.0
 40
63.2
100
AcDbArc
 50
236.9989999999976
 51
237.5350899999919
  0
ARC
  5
2FDC
330
21CC
100
AcDbEntity
  8
0
100
AcDbCircle
 10
-30.73345999999992
 20
-50.17999400000007
 30
0.0
 40
1.0
100
AcDbArc
 50
294.999359999998
 51
5.000034999996219
  0
ARC
  5
2FDD
330
21CC
100
AcDbEntity
  8
0
100
AcDbCircle
 10
-34.25
 20
-59.32276999999999
 30
0.0
 40
5.3000002
100
AcDbArc
 50
114.9999299999967
 51
274.9998800000042
  0
ARC
  5
2FDE
330
21CC
100
AcDbEntity
  8
0
100
AcDbCircle
 10
-26.60546000000022
 20
-53.22029199999997
 30
0.0
 40
3.0
100
AcDbArc
 50
63.43931500000035
 51
115.0004799999989
  0
ARC
  5
2FDF
330
21CC
100
AcDbEntity
  8
0
100
AcDbCircle
 10
-32.78736000000026
 20
-49.65117800000007
 30
0.0
 40
3.0
100
AcDbArc
 50
4.999991399991441
 51
56.56113999999939
  0
CIRCLE
  5
2FE0
330
21CC
100
AcDbEntity
  8
0
100
AcDbCircle
 10
-34.25
 20
-59.32276999999999
 30
0.0
 40
2.6
  0
ARC
  5
2FE1
330
21CC
100
AcDbEntity
  8
0
100
AcDbCircle
 10
-22.19390000000021
 20
-56.28216599999996
 30
0.0
 40
1.0
100
AcDbArc
 50
68.48010300000774
 51
185.0000299999889
  0
ARC
  5
2FE2
330
21CC
100
AcDbEntity
  8
0
100
AcDbCircle
 10
-23.18218000000024
 20
-68.69380200000001
 30
0.0
 40
5.0
100
AcDbArc
 50
71.35211599999961
 51
95.00014200000206
  0
ARC
  5
2FE3
330
21CC
100
AcDbEntity
  8
0
100
AcDbCircle
 10
-43.8778000000002
 20
-44.5083239999999
 30
0.0
 40
3.0
100
AcDbArc
 50
4.999991399991441
 51
45.40863200000857
  0
ARC
  5
2FE4
330
21CC
100
AcDbEntity
  8
0
100
AcDbCircle
 10
-47.89948000000004
 20
-54.42328799999995
 30
0.0
 40
5.0
100
AcDbArc
 50
24.99991299999579
 51
48.64810599999072
  0
ARC
  5
2FE5
330
21CC
100
AcDbEntity
  8
0
100
AcDbCircle
 10
60.5643399999999
 20
-15.4342059999999
 30
0.0
 40
3.0
100
AcDbArc
 50
60.00006999999801
 51
165.7030900000026
  0
ARC
  5
2FE6
330
21CC
100
AcDbEntity
  8
0
100
AcDbCircle
 10
0.0
 20
43.99999600000001
 30
0.0
 40
6.0
100
AcDbArc
 50
0.0
 51
180.0
  0
ARC
  5
2FE7
330
21CC
100
AcDbEntity
  8
0
100
AcDbCircle
 10
0.0
 20
0.0
 30
0.0
 40
59.5
100
AcDbArc
 50
248.4790900000034
 51
345.7090400000107
  0
ARC
  5
2FE8
330
21CC
100
AcDbEntity
  8
0
100
AcDbCircle
 10
0.0
 20
0.0
 30
0.0
 40
56.5
100
AcDbArc
 50
243.4389600000005
 51
353.2436600000007
  0
ARC
  5
2FE9
330
21CC
100
AcDbEntity
  8
0
100
AcDbCircle
 10
0.0
 20
0.0
 30
0.0
 40
22.49996799999999
100
AcDbArc
 50
105.4660399999983
 51
254.5339600000018
  0
ARC
  5
2FEA
330
21CC
100
AcDbEntity
  8
0
100
AcDbCircle
 10
0.0
 20
0.0
 30
0.0
 40
9.0
100
AcDbArc
 50
311.8103099999919
 51
48.18969500000678
  0
ARC
  5
2FEB
330
21CC
100
AcDbEntity
  8
0
100
AcDbCircle
 10
0.0
 20
0.0
 30
0.0
 40
9.0
100
AcDbArc
 50
131.8103099999919
 51
228.1896900000079
  0
ARC
  5
2FEC
330
21CC
100
AcDbEntity
  8
0
100
AcDbCircle
 10
0.0
 20
0.0
 30
0.0
 40
42.499984
100
AcDbArc
 50
98.1159319999938
 51
261.8840700000037
  0
ARC
  5
2FED
330
21CC
100
AcDbEntity
  8
0
100
AcDbCircle
 10
0.0
 20
0.0
 30
0.0
 40
49.834072
100
AcDbArc
 50
91.71467699999453
 51
268.2853200000062
  0
ARC
  5
2FEE
330
21CC
100
AcDbEntity
  8
0
100
AcDbCircle
 10
0.0
 20
0.0
 30
0.0
 40
22.49996799999999
100
AcDbArc
 50
285.4660399999981
 51
74.533965000002
  0
ARC
  5
2FEF
330
21CC
100
AcDbEntity
  8
0
100
AcDbCircle
 10
0.0
 20
0.0
 30
0.0
 40
42.499984
100
AcDbArc
 50
278.1159299999962
 51
81.88406800000619
  0
ARC
  5
2FF0
330
21CC
100
AcDbEntity
  8
0
100
AcDbCircle
 10
0.0
 20
0.0
 30
0.0
 40
49.834072
100
AcDbArc
 50
271.7146799999937
 51
88.28532300000544
  0
ARC
  5
2FF1
330
21CC
100
AcDbEntity
  8
0
100
AcDbCircle
 10
-37.95002000000022
 20
-102.71016
 30
0.0
 40
0.80000002
100
AcDbArc
 50
110.0002900000004
 51
180.0
  0
ARC
  5
2FF2
330
21CC
100
AcDbEntity
  8
0
100
AcDbCircle
 10
37.95001999999977
 20
-102.71016
 30
0.0
 40
0.80000002
100
AcDbArc
 50
0.0
 51
69.99971399999754
  0
ARC
  5
2FF3
330
21CC
100
AcDbEntity
  8
0
100
AcDbCircle
 10
-33.75
 20
-98.20178399999987
 30
0.0
 40
2.0
100
AcDbArc
 50
289.9994600000019
 51
0.0
  0
ARC
  5
2FF4
330
21CC
100
AcDbEntity
  8
0
100
AcDbCircle
 10
33.75
 20
-98.20178399999987
 30
0.0
 40
2.0
100
AcDbArc
 50
180.0
 51
250.000539999998
  0
ARC
  5
2FF5
330
21CC
100
AcDbEntity
  8
0
100
AcDbCircle
 10
31.70001999999977
 20
-84.94999800000005
 30
0.0
 40
0.05
100
AcDbArc
 50
270.0
 51
0.0
  0
ARC
  5
2FF6
330
21CC
100
AcDbEntity
  8
0
100
AcDbCircle
 10
0.0
 20
-44.0
 30
0.0
 40
6.0
100
AcDbArc
 50
180.0
 51
0.0
  0
ARC
  5
2FF7
330
21CC
100
AcDbEntity
  8
0
100
AcDbCircle
 10
370.8606117844119
 20
-50.5
 30
0.0
 40
2.0
100
AcDbArc
 50
270.0
 51
285.0000100000021
  0
ARC
  5
2FF8
330
21CC
100
AcDbEntity
  8
0
100
AcDbCircle
 10
353.9683917844117
 20
-54.5
 30
0.0
 40
2.0
100
AcDbArc
 50
90.0
 51
180.0
  0
ARC
  5
2FF9
330
21CC
100
AcDbEntity
  8
0
100
AcDbCircle
 10
287.268371784412
 20
-53.70000000000004
 30
0.0
 40
1.200000039999999
100
AcDbArc
 50
0.0
 51
90.0
  0
ARC
  5
2FFA
330
21CC
100
AcDbEntity
  8
0
100
AcDbCircle
 10
377.7316917844118
 20
-52.79998
 30
0.0
 40
2.0
100
AcDbArc
 50
90.0
 51
105.0000100000019
  0
ARC
  5
2FFB
330
21CC
100
AcDbEntity
  8
0
100
AcDbCircle
 10
320.2183917844117
 20
-94.31133999999998
 30
0.0
 40
52.5
100
AcDbArc
 50
55.17493599999409
 51
124.465739999995
  0
ARC
  5
2FFC
330
21CC
100
AcDbEntity
  8
0
100
AcDbCircle
 10
358.1684117844119
 20
-102.7101400000001
 30
0.0
 40
0.80000002
100
AcDbArc
 50
0.0
 51
69.99933999999914
  0
ARC
  5
2FFD
330
21CC
100
AcDbEntity
  8
0
100
AcDbCircle
 10
353.9683917844117
 20
-98.2017800000001
 30
0.0
 40
2.0
100
AcDbArc
 50
180.0
 51
250.0006100000034
  0
ARC
  5
2FFE
330
21CC
100
AcDbEntity
  8
0
100
AcDbCircle
 10
282.268371784412
 20
-102.7101400000001
 30
0.0
 40
0.80000002
100
AcDbArc
 50
110.0006600000008
 51
180.0
  0
ARC
  5
2FFF
330
21CC
100
AcDbEntity
  8
0
100
AcDbCircle
 10
286.4683917844117
 20
-98.2017800000001
 30
0.0
 40
2.0
100
AcDbArc
 50
289.9993899999965
 51
0.0
  0
ARC
  5
3000
330
21CC
100
AcDbEntity
  8
0
100
AcDbCircle
 10
807.8824397844119
 20
-37.95000000000004
 30
0.0
 40
0.80000002
100
AcDbArc
 50
200.0002900000005
 51
270.0
  0
ARC
  5
3001
330
21CC
100
AcDbEntity
  8
0
100
AcDbCircle
 10
803.3740617844118
 20
-33.75
 30
0.0
 40
2.0
100
AcDbArc
 50
20.00036099999151
 51
90.0
  0
ARC
  5
3002
330
21CC
100
AcDbEntity
  8
0
100
AcDbCircle
 10
783.793861784412
 20
-36.75
 30
0.0
 40
5.0
100
AcDbArc
 50
90.0
 51
119.9999300000019
  0
ARC
  5
3003
330
21CC
100
AcDbEntity
  8
0
100
AcDbCircle
 10
748.1187677844118
 20
-45.80002000000013
 30
0.0
 40
5.0
100
AcDbArc
 50
270.0
 51
299.999930000002
  0
ARC
  5
3004
330
21CC
100
AcDbEntity
  8
0
100
AcDbCircle
 10
216.4683917844117
 20
-44.0
 30
0.0
 40
6.0
100
AcDbArc
 50
180.0
 51
0.0
  0
ARC
  5
3005
330
21CC
100
AcDbEntity
  8
0
100
AcDbCircle
 10
216.4683917844117
 20
44.0
 30
0.0
 40
6.0
100
AcDbArc
 50
0.0
 51
180.0
  0
LWPOLYLINE
  5
3006
330
21CC
100
AcDbEntity
  8
0
100
AcDbPolyline
 90
        3
 70
     0
 43
0.0
 10
-6.0
 20
6.928206000000045
 10
-9.0
 20
5.196165999999948
 10
-9.0
 20
-5.196138000000019
  0
LWPOLYLINE
  5
3007
330
21CC
100
AcDbEntity
  8
0
100
AcDbPolyline
 90
        2
 70
     0
 43
0.0
 10
-9.0
 20
-5.196138000000019
 10
-6.0
 20
-6.928194000000075
  0
LWPOLYLINE
  5
3008
330
21CC
100
AcDbEntity
  8
0
100
AcDbPolyline
 90
        4
 70
     0
 43
0.0
 10
6.0
 20
-6.928194000000075
 10
9.0
 20
-5.196138000000019
 10
9.0
 20
5.196165999999948
 10
6.0
 20
6.928206000000045
  0
ARC
  5
3009
330
21CC
100
AcDbEntity
  8
0
100
AcDbCircle
 10
75.0
 20
-32.50004161337665
 30
0.0
 40
7.999981948874508
100
AcDbArc
 50
239.9999253589979
 51
300.000074641002
  0
LINE
  5
300A
330
21CC
100
AcDbEntity
  8
0
  6
CENTER
100
AcDbLine
 10
205.4683917844117
 20
0.0
 30
0.0
 11
838.0938837824333
 21
0.0
 31
0.0
  0
LINE
  5
3169
330
21CC
100
AcDbEntity
  8
0
100
AcDbLine
 10
810.1722797844118
 20
38.75
 30
0.0
 11
807.8824397844119
 21
38.75
 31
0.0
  0
LINE
  5
316A
330
21CC
100
AcDbEntity
  8
0
100
AcDbLine
 10
810.1722797844118
 20
-38.75
 30
0.0
 11
810.1722797844118
 21
38.75
 31
0.0
  0
LINE
  5
316B
330
21CC
100
AcDbEntity
  8
0
100
AcDbLine
 10
807.1306837844117
 20
38.22360000000003
 30
0.0
 11
805.2534577844117
 21
33.06593999999995
 31
0.0
  0
LINE
  5
316C
330
21CC
100
AcDbEntity
  8
0
100
AcDbLine
 10
803.3740617844118
 20
31.75
 30
0.0
 11
783.793861784412
 21
31.75
 31
0.0
  0
LINE
  5
316D
330
21CC
100
AcDbEntity
  8
0
100
AcDbLine
 10
750.6187517844118
 20
50.13012000000003
 30
0.0
 11
781.2938477844117
 21
32.41985999999997
 31
0.0
  0
LINE
  5
316E
330
21CC
100
AcDbEntity
  8
0
100
AcDbLine
 10
377.7316917844118
 20
50.80002000000013
 30
0.0
 11
748.1187677844118
 21
50.80002000000013
 31
0.0
  0
ARC
  5
316F
330
21CC
100
AcDbEntity
  8
0
100
AcDbCircle
 10
807.8824397844119
 20
37.95000000000004
 30
0.0
 40
0.80000002
100
AcDbArc
 50
90.0
 51
159.9997099999995
  0
ARC
  5
3170
330
21CC
100
AcDbEntity
  8
0
100
AcDbCircle
 10
803.3740617844118
 20
33.75
 30
0.0
 40
2.0
100
AcDbArc
 50
270.0
 51
339.9996390000084
  0
ARC
  5
3171
330
21CC
100
AcDbEntity
  8
0
100
AcDbCircle
 10
783.793861784412
 20
36.75
 30
0.0
 40
5.0
100
AcDbArc
 50
240.0000699999972
 51
270.0
  0
ARC
  5
3172
330
21CC
100
AcDbEntity
  8
0
100
AcDbCircle
 10
748.1187677844118
 20
45.80002000000013
 30
0.0
 40
5.0
100
AcDbArc
 50
60.00006999999719
 51
90.0
  0
LINE
  5
32AA
330
21CC
100
AcDbEntity
  8
0
100
AcDbLine
 10
285.9683917844117
 20
-59.49999000000025
 30
0.0
 11
285.9683917844117
 21
6.399989999999888
 31
0.0
  0
LINE
  5
32AB
330
21CC
100
AcDbEntity
  8
0
100
AcDbLine
 10
266.9683917844117
 20
-59.5000500000001
 30
0.0
 11
266.9683917844117
 21
6.266290000000026
 31
0.0
  0
LINE
  5
32AC
330
21CC
100
AcDbEntity
  8
0
100
AcDbLine
 10
281.5228117844117
 20
67.49998899999991
 30
0.0
 11
271.4139817844115
 21
67.49998899999991
 31
0.0
  0
LINE
  5
32AD
330
21CC
100
AcDbEntity
  8
0
100
AcDbLine
 10
285.9683917844117
 20
4.0
 30
0.0
 11
280.7183917844117
 21
4.0
 31
0.0
  0
LINE
  5
32AE
330
21CC
100
AcDbEntity
  8
0
100
AcDbLine
 10
285.9683917844117
 20
15.0
 30
0.0
 11
280.7183917844117
 21
15.0
 31
0.0
  0
LINE
  5
32AF
330
21CC
100
AcDbEntity
  8
0
100
AcDbLine
 10
272.2183917844117
 20
4.0
 30
0.0
 11
267.2183917844118
 21
4.0
 31
0.0
  0
LINE
  5
32B0
330
21CC
100
AcDbEntity
  8
0
100
AcDbLine
 10
281.5228117844117
 20
-67.50003000000015
 30
0.0
 11
271.4139817844115
 21
-67.50003000000015
 31
0.0
  0
LINE
  5
32B1
330
21CC
100
AcDbEntity
  8
0
100
AcDbLine
 10
267.0024717844116
 20
-59.62719000000015
 30
0.0
 11
268.5161917844116
 21
-65.27647000000024
 31
0.0
  0
LINE
  5
32B2
330
21CC
100
AcDbEntity
  8
0
100
AcDbLine
 10
285.9343217844116
 20
-59.62717999999995
 30
0.0
 11
284.4205917844119
 21
-65.27647000000024
 31
0.0
  0
LINE
  5
32B3
330
21CC
100
AcDbEntity
  8
0
100
AcDbLine
 10
284.4205917844119
 20
65.27644099999998
 30
0.0
 11
285.9343117844118
 21
59.6271499999998
 31
0.0
  0
LINE
  5
32B4
330
21CC
100
AcDbEntity
  8
0
100
AcDbLine
 10
269.1119817844119
 20
15.0
 30
0.0
 11
269.1119817844119
 21
64.98863600000004
 31
0.0
  0
LINE
  5
32B5
330
21CC
100
AcDbEntity
  8
0
100
AcDbLine
 10
283.8248117844118
 20
15.0
 30
0.0
 11
283.8248117844118
 21
65.30692700000009
 31
0.0
  0
LINE
  5
32B6
330
21CC
100
AcDbEntity
  8
0
100
AcDbLine
 10
271.9685117844119
 20
-11.28501000000005
 30
0.0
 11
268.9918817844118
 21
-14.6613299999999
 31
0.0
  0
LINE
  5
32B7
330
21CC
100
AcDbEntity
  8
0
100
AcDbLine
 10
280.9682717844116
 20
-11.2850400000002
 30
0.0
 11
283.9448917844119
 21
-14.66136000000005
 31
0.0
  0
LINE
  5
32B8
330
21CC
100
AcDbEntity
  8
0
100
AcDbLine
 10
274.618421784412
 20
-52.0
 30
0.0
 11
278.3184017844118
 21
-52.0
 31
0.0
  0
LINE
  5
32B9
330
21CC
100
AcDbEntity
  8
0
100
AcDbLine
 10
273.618421784412
 20
-51.0
 30
0.0
 11
273.618421784412
 21
-31.20002000000022
 31
0.0
  0
LINE
  5
32BA
330
21CC
100
AcDbEntity
  8
0
100
AcDbLine
 10
268.2417717844118
 20
-15.0
 30
0.0
 11
267.2183917844118
 21
-15.0
 31
0.0
  0
LINE
  5
32BB
330
21CC
100
AcDbEntity
  8
0
100
AcDbLine
 10
272.2183917844117
 20
-4.0
 30
0.0
 11
267.2183917844118
 21
-4.0
 31
0.0
  0
LINE
  5
32BC
330
21CC
100
AcDbEntity
  8
0
100
AcDbLine
 10
272.2183917844117
 20
4.0
 30
0.0
 11
272.2183917844117
 21
15.0
 31
0.0
  0
LINE
  5
32BD
330
21CC
100
AcDbEntity
  8
0
100
AcDbLine
 10
272.2183917844117
 20
15.0
 30
0.0
 11
267.2183917844118
 21
15.0
 31
0.0
  0
LINE
  5
32BE
330
21CC
100
AcDbEntity
  8
0
100
AcDbLine
 10
272.2183917844117
 20
-10.62368999999989
 30
0.0
 11
272.2183917844117
 21
-4.0
 31
0.0
  0
LINE
  5
32BF
330
21CC
100
AcDbEntity
  8
0
100
AcDbLine
 10
272.4683917844117
 20
-12.0
 30
0.0
 11
272.4683917844117
 21
14.42819000000008
 31
0.0
  0
LINE
  5
32C0
330
21CC
100
AcDbEntity
  8
0
100
AcDbLine
 10
272.4683917844117
 20
-39.42822999999998
 30
0.0
 11
272.4683917844117
 21
-29.38961999999992
 31
0.0
  0
LINE
  5
32C1
330
21CC
100
AcDbEntity
  8
0
100
AcDbLine
 10
268.7183917844117
 20
-27.20002000000022
 30
0.0
 11
268.7183917844117
 21
-17.90000000000009
 31
0.0
  0
LINE
  5
32C2
330
21CC
100
AcDbEntity
  8
0
100
AcDbLine
 10
270.7183917844117
 20
-29.20002000000022
 30
0.0
 11
282.2183917844117
 21
-29.20002000000022
 31
0.0
  0
LINE
  5
32C3
330
21CC
100
AcDbEntity
  8
0
100
AcDbLine
 10
271.4432217844119
 20
-12.0
 30
0.0
 11
281.4936017844115
 21
-12.0
 31
0.0
  0
LINE
  5
32C4
330
21CC
100
AcDbEntity
  8
0
100
AcDbLine
 10
285.7183917844117
 20
12.5999999999999
 30
0.0
 11
286.2183917844117
 21
12.5999999999999
 31
0.0
  0
LINE
  5
32C5
330
21CC
100
AcDbEntity
  8
0
100
AcDbLine
 10
285.7183917844117
 20
6.399989999999888
 30
0.0
 11
286.2183917844117
 21
6.399989999999888
 31
0.0
  0
LINE
  5
32C6
330
21CC
100
AcDbEntity
  8
0
100
AcDbLine
 10
279.3184017844118
 20
-51.0
 30
0.0
 11
279.3184017844118
 21
-31.20002000000022
 31
0.0
  0
LINE
  5
32C7
330
21CC
100
AcDbEntity
  8
0
100
AcDbLine
 10
284.6950217844118
 20
-15.0
 30
0.0
 11
285.7183917844117
 21
-15.0
 31
0.0
  0
LINE
  5
32C8
330
21CC
100
AcDbEntity
  8
0
100
AcDbLine
 10
280.7183917844117
 20
-4.0
 30
0.0
 11
285.7183917844117
 21
-4.0
 31
0.0
  0
LINE
  5
32C9
330
21CC
100
AcDbEntity
  8
0
100
AcDbLine
 10
280.7183917844117
 20
4.0
 30
0.0
 11
280.7183917844117
 21
15.0
 31
0.0
  0
LINE
  5
32CA
330
21CC
100
AcDbEntity
  8
0
100
AcDbLine
 10
280.7183917844117
 20
-10.62368999999989
 30
0.0
 11
280.7183917844117
 21
-4.0
 31
0.0
  0
LINE
  5
32CB
330
21CC
100
AcDbEntity
  8
0
100
AcDbLine
 10
280.4683917844117
 20
-12.0
 30
0.0
 11
280.4683917844117
 21
14.42819000000008
 31
0.0
  0
LINE
  5
32CC
330
21CC
100
AcDbEntity
  8
0
100
AcDbLine
 10
280.4683917844117
 20
-39.42822999999998
 30
0.0
 11
280.4683917844117
 21
-29.38961999999992
 31
0.0
  0
LINE
  5
32CD
330
21CC
100
AcDbEntity
  8
0
100
AcDbLine
 10
284.2183917844117
 20
-27.20002000000022
 30
0.0
 11
284.2183917844117
 21
-17.90000000000009
 31
0.0
  0
LINE
  5
32CE
330
21CC
100
AcDbEntity
  8
0
100
AcDbLine
 10
283.8248117844118
 20
-28.39141999999992
 30
0.0
 11
283.8248117844118
 21
-65.39607999999998
 31
0.0
  0
LINE
  5
32CF
330
21CC
100
AcDbEntity
  8
0
100
AcDbLine
 10
269.1119817844119
 20
-28.39141999999992
 30
0.0
 11
269.1119817844119
 21
-65.39607999999998
 31
0.0
  0
LINE
  5
32D0
330
21CC
100
AcDbEntity
  8
0
100
AcDbLine
 10
286.7183917844117
 20
6.899989999999888
 30
0.0
 11
286.7183917844117
 21
12.09999999999991
 31
0.0
  0
LINE
  5
32D1
330
21CC
100
AcDbEntity
  8
0
100
AcDbLine
 10
286.9683917844117
 20
55.72604999999976
 30
0.0
 11
286.9683917844117
 21
60.92605999999978
 31
0.0
  0
LINE
  5
32D2
330
21CC
100
AcDbEntity
  8
0
100
AcDbLine
 10
285.4683917844117
 20
61.42605999999978
 30
0.0
 11
286.4683917844117
 21
61.42605999999978
 31
0.0
  0
LINE
  5
32D3
330
21CC
100
AcDbEntity
  8
0
100
AcDbLine
 10
285.9683917844117
 20
55.22604999999976
 30
0.0
 11
286.4683917844117
 21
55.22604999999976
 31
0.0
  0
LINE
  5
32D4
330
21CC
100
AcDbEntity
  8
0
100
AcDbLine
 10
286.9683917844117
 20
-55.72605999999996
 30
0.0
 11
286.9683917844117
 21
-60.92608000000018
 31
0.0
  0
LINE
  5
32D5
330
21CC
100
AcDbEntity
  8
0
100
AcDbLine
 10
285.9683917844117
 20
-55.22605999999996
 30
0.0
 11
286.4683917844117
 21
-55.22605999999996
 31
0.0
  0
LINE
  5
32D6
330
21CC
100
AcDbEntity
  8
0
100
AcDbLine
 10
285.4523117844119
 20
-61.42608000000018
 30
0.0
 11
286.4683917844117
 21
-61.42608000000018
 31
0.0
  0
LINE
  5
32D7
330
21CC
100
AcDbEntity
  8
0
100
AcDbLine
 10
267.2183917844118
 20
-15.0
 30
0.0
 11
267.2183917844118
 21
15.0
 31
0.0
  0
LINE
  5
32D8
330
21CC
100
AcDbEntity
  8
0
100
AcDbLine
 10
285.7183917844117
 20
-15.0
 30
0.0
 11
285.7183917844117
 21
15.0
 31
0.0
  0
LINE
  5
32D9
330
21CC
100
AcDbEntity
  8
0
100
AcDbLine
 10
266.9683917844117
 20
12.73369999999977
 30
0.0
 11
266.9683917844117
 21
59.36833999999999
 31
0.0
  0
LINE
  5
32DA
330
21CC
100
AcDbEntity
  8
0
100
AcDbLine
 10
285.9683917844117
 20
12.5999999999999
 30
0.0
 11
285.9683917844117
 21
59.36833999999999
 31
0.0
  0
LINE
  5
32DB
330
21CC
100
AcDbEntity
  8
0
100
AcDbLine
 10
266.9683917844117
 20
61.57605000000012
 30
0.0
 11
267.4683917844117
 21
61.57605000000012
 31
0.0
  0
LINE
  5
32DC
330
21CC
100
AcDbEntity
  8
0
100
AcDbLine
 10
266.9683917844117
 20
-61.57607000000007
 30
0.0
 11
267.4683917844117
 21
-61.57607000000007
 31
0.0
  0
LINE
  5
32DD
330
21CC
100
AcDbEntity
  8
0
100
AcDbLine
 10
267.9683917844117
 20
63.32605000000012
 30
0.0
 11
267.9935917844118
 21
63.32605000000012
 31
0.0
  0
LINE
  5
32DE
330
21CC
100
AcDbEntity
  8
0
100
AcDbLine
 10
266.9683917844117
 20
61.57605000000012
 30
0.0
 11
266.9683917844117
 21
62.32605000000012
 31
0.0
  0
LINE
  5
32DF
330
21CC
100
AcDbEntity
  8
0
100
AcDbLine
 10
285.9683917844117
 20
61.42605999999978
 30
0.0
 11
285.9683917844117
 21
62.32605000000012
 31
0.0
  0
LINE
  5
32E0
330
21CC
100
AcDbEntity
  8
0
100
AcDbLine
 10
268.5161917844116
 20
65.27644599999985
 30
0.0
 11
267.0024717844116
 21
59.62714000000005
 31
0.0
  0
LINE
  5
32E1
330
21CC
100
AcDbEntity
  8
0
100
AcDbLine
 10
266.9683917844117
 20
-61.57607000000007
 30
0.0
 11
266.9683917844117
 21
-62.32607000000007
 31
0.0
  0
LINE
  5
32E2
330
21CC
100
AcDbEntity
  8
0
100
AcDbLine
 10
285.9683917844117
 20
-61.42608000000018
 30
0.0
 11
285.9683917844117
 21
-62.32607000000007
 31
0.0
  0
ARC
  5
32E3
330
21CC
100
AcDbEntity
  8
0
100
AcDbCircle
 10
267.9683917844117
 20
-59.36837999999989
 30
0.0
 40
1.0
100
AcDbArc
 50
179.9999899999989
 51
195.0000099999886
  0
ARC
  5
32E4
330
21CC
100
AcDbEntity
  8
0
100
AcDbCircle
 10
284.9683917844117
 20
-59.36837999999989
 30
0.0
 40
1.0
100
AcDbArc
 50
345.0000000000055
 51
0.0
  0
ARC
  5
32E5
330
21CC
100
AcDbEntity
  8
0
100
AcDbCircle
 10
267.9683917844117
 20
59.36833999999999
 30
0.0
 40
1.0
100
AcDbArc
 50
165.0000000000055
 51
180.0000100000009
  0
ARC
  5
32E6
330
21CC
100
AcDbEntity
  8
0
100
AcDbCircle
 10
284.9683917844117
 20
59.36833999999999
 30
0.0
 40
1.0
100
AcDbArc
 50
0.0
 51
14.99999999999445
  0
ARC
  5
32E7
330
21CC
100
AcDbEntity
  8
0
100
AcDbCircle
 10
271.4139817844115
 20
-64.50003000000015
 30
0.0
 40
3.0
100
AcDbArc
 50
195.0000099999886
 51
269.9999970000153
  0
ARC
  5
32E8
330
21CC
100
AcDbEntity
  8
0
100
AcDbCircle
 10
281.5228117844117
 20
-64.50003000000015
 30
0.0
 40
3.0
100
AcDbArc
 50
269.9999970000153
 51
345.0000000000055
  0
ARC
  5
32E9
330
21CC
100
AcDbEntity
  8
0
100
AcDbCircle
 10
271.4139817844115
 20
64.49998899999991
 30
0.0
 40
3.0
100
AcDbArc
 50
90.0
 51
164.9999900000113
  0
ARC
  5
32EA
330
21CC
100
AcDbEntity
  8
0
100
AcDbCircle
 10
281.5228117844117
 20
64.49998899999991
 30
0.0
 40
3.0
100
AcDbArc
 50
14.99999999999445
 51
90.0
  0
ARC
  5
32EB
330
21CC
100
AcDbEntity
  8
0
100
AcDbCircle
 10
271.2183917844118
 20
-10.62368999999989
 30
0.0
 40
1.0
100
AcDbArc
 50
318.6000000000059
 51
0.0
  0
ARC
  5
32EC
330
21CC
100
AcDbEntity
  8
0
100
AcDbCircle
 10
281.7183917844118
 20
-10.62368999999989
 30
0.0
 40
1.0
100
AcDbArc
 50
179.9999899999989
 51
221.3999999999941
  0
ARC
  5
32ED
330
21CC
100
AcDbEntity
  8
0
100
AcDbCircle
 10
268.2417717844118
 20
-14.0
 30
0.0
 40
1.0
100
AcDbArc
 50
269.9999970000153
 51
318.6000000000059
  0
ARC
  5
32EE
330
21CC
100
AcDbEntity
  8
0
100
AcDbCircle
 10
270.7183917844117
 20
-27.20002000000022
 30
0.0
 40
2.0
100
AcDbArc
 50
179.9999899999989
 51
270.0000040000056
  0
ARC
  5
32EF
330
21CC
100
AcDbEntity
  8
0
100
AcDbCircle
 10
276.4683917844117
 20
-32.5
 30
0.0
 40
8.0
100
AcDbArc
 50
240.0000000000006
 51
249.1299299999913
  0
ARC
  5
32F0
330
21CC
100
AcDbEntity
  8
0
100
AcDbCircle
 10
276.4683917844117
 20
-17.90000000000009
 30
0.0
 40
7.75
100
AcDbArc
 50
130.42189999998
 51
179.9999899999989
  0
ARC
  5
32F1
330
21CC
100
AcDbEntity
  8
0
100
AcDbCircle
 10
276.4683917844117
 20
7.5
 30
0.0
 40
8.0
100
AcDbArc
 50
60.00000000000068
 51
119.9999999999993
  0
ARC
  5
32F2
330
21CC
100
AcDbEntity
  8
0
100
AcDbCircle
 10
271.618421784412
 20
-31.20002000000022
 30
0.0
 40
2.0
100
AcDbArc
 50
359.9999949910625
 51
90.0
  0
ARC
  5
32F3
330
21CC
100
AcDbEntity
  8
0
100
AcDbCircle
 10
274.618421784412
 20
-51.0
 30
0.0
 40
1.0
100
AcDbArc
 50
179.9999899999989
 51
270.0000040000056
  0
ARC
  5
32F4
330
21CC
100
AcDbEntity
  8
0
100
AcDbCircle
 10
278.3184017844118
 20
-51.0
 30
0.0
 40
1.0
100
AcDbArc
 50
269.9999970000153
 51
0.0
  0
ARC
  5
32F5
330
21CC
100
AcDbEntity
  8
0
100
AcDbCircle
 10
281.3184017844118
 20
-31.20002000000022
 30
0.0
 40
2.0
100
AcDbArc
 50
90.0
 51
180.0000100000009
  0
ARC
  5
32F6
330
21CC
100
AcDbEntity
  8
0
100
AcDbCircle
 10
282.2183917844117
 20
-27.20002000000022
 30
0.0
 40
2.0
100
AcDbArc
 50
269.9999970000153
 51
0.0
  0
ARC
  5
32F7
330
21CC
100
AcDbEntity
  8
0
100
AcDbCircle
 10
276.4683917844117
 20
-32.5
 30
0.0
 40
8.0
100
AcDbArc
 50
290.8700710000053
 51
299.999998000014
  0
ARC
  5
32F8
330
21CC
100
AcDbEntity
  8
0
100
AcDbCircle
 10
276.4683917844117
 20
-17.90000000000009
 30
0.0
 40
7.75
100
AcDbArc
 50
0.0
 51
49.57807999998817
  0
ARC
  5
32F9
330
21CC
100
AcDbEntity
  8
0
100
AcDbCircle
 10
286.2183917844117
 20
12.09999999999991
 30
0.0
 40
0.5
100
AcDbArc
 50
0.0
 51
90.0
  0
ARC
  5
32FA
330
21CC
100
AcDbEntity
  8
0
100
AcDbCircle
 10
286.2183917844117
 20
6.899989999999888
 30
0.0
 40
0.5
100
AcDbArc
 50
269.9999970000153
 51
0.0
  0
ARC
  5
32FB
330
21CC
100
AcDbEntity
  8
0
100
AcDbCircle
 10
284.6950217844118
 20
-14.0
 30
0.0
 40
1.0
100
AcDbArc
 50
221.3999999999941
 51
269.9999970000153
  0
ARC
  5
32FC
330
21CC
100
AcDbEntity
  8
0
100
AcDbCircle
 10
286.4683917844117
 20
55.72604999999976
 30
0.0
 40
0.5
100
AcDbArc
 50
269.9999970000153
 51
0.0
  0
ARC
  5
32FD
330
21CC
100
AcDbEntity
  8
0
100
AcDbCircle
 10
286.4683917844117
 20
60.92605999999978
 30
0.0
 40
0.5
100
AcDbArc
 50
0.0
 51
90.0
  0
ARC
  5
32FE
330
21CC
100
AcDbEntity
  8
0
100
AcDbCircle
 10
286.4683917844117
 20
-55.72605999999996
 30
0.0
 40
0.5
100
AcDbArc
 50
0.0
 51
90.0
  0
ARC
  5
32FF
330
21CC
100
AcDbEntity
  8
0
100
AcDbCircle
 10
286.4683917844117
 20
-60.92608000000018
 30
0.0
 40
0.5
100
AcDbArc
 50
269.9999970000153
 51
0.0
  0
ARC
  5
3300
330
21CC
100
AcDbEntity
  8
0
100
AcDbCircle
 10
267.9683917844117
 20
62.32605000000012
 30
0.0
 40
1.0
100
AcDbArc
 50
90.0
 51
180.0000100000009
  0
ARC
  5
3301
330
21CC
100
AcDbEntity
  8
0
100
AcDbCircle
 10
284.9683917844117
 20
62.32605000000012
 30
0.0
 40
1.0
100
AcDbArc
 50
0.0
 51
90.0
  0
ARC
  5
3302
330
21CC
100
AcDbEntity
  8
0
100
AcDbCircle
 10
267.9683917844117
 20
-62.32607000000007
 30
0.0
 40
1.0
100
AcDbArc
 50
179.9999899999989
 51
269.9999970000153
  0
ARC
  5
3303
330
21CC
100
AcDbEntity
  8
0
100
AcDbCircle
 10
284.9683917844117
 20
-62.32607000000007
 30
0.0
 40
1.0
100
AcDbArc
 50
269.9999970000153
 51
0.0
  0
ELLIPSE
  5
3304
330
21CC
100
AcDbEntity
  8
0
100
AcDbEllipse
 10
267.2183917844118
 20
9.500000000000454
 30
0.0
 11
0.0
 21
-3.250000099999999
 31
0.0
210
0.0
220
0.0
230
-1.0
 40
0.7692307400000001
 41
0.0
 42
3.1415927
  0
ELLIPSE
  5
3305
330
21CC
100
AcDbEntity
  8
0
100
AcDbEllipse
 10
266.9683917844126
 20
58.32605000000035
 30
0.0
 11
0.0
 21
-3.250000099999999
 31
0.0
210
0.0
220
0.0
230
-1.0
 40
0.7692307400000001
 41
0.0
 42
3.1415927
  0
ELLIPSE
  5
3306
330
21CC
100
AcDbEntity
  8
0
100
AcDbEllipse
 10
266.9683917844122
 20
-58.32607000000007
 30
0.0
 11
0.0
 21
3.250000099999999
 31
0.0
210
0.0
220
0.0
230
-1.0
 40
0.7692307400000001
 41
3.1415927
 42
6.283185299999999
  0
LINE
  5
33CA
330
21CC
100
AcDbEntity
  8
0
100
AcDbLine
 10
377.2140517844118
 20
50.86815999999998
 30
0.0
 11
371.3781917844116
 21
52.43184000000019
 31
0.0
  0
LINE
  5
33CB
330
21CC
100
AcDbEntity
  8
0
100
AcDbLine
 10
285.9683917844117
 20
52.5
 30
0.0
 11
370.8606117844119
 21
52.5
 31
0.0
  0
ARC
  5
33CC
330
21CC
100
AcDbEntity
  8
0
100
AcDbCircle
 10
370.8606117844119
 20
50.5
 30
0.0
 40
2.0
100
AcDbArc
 50
74.99998999999809
 51
90.0
  0
ARC
  5
33CD
330
21CC
100
AcDbEntity
  8
0
100
AcDbCircle
 10
377.7316917844118
 20
52.79998
 30
0.0
 40
2.0
100
AcDbArc
 50
254.9999899999979
 51
270.0
  0
ENDSEC
  0
SECTION
  2
OBJECTS
  0
DICTIONARY
  5
21BA
330
0
100
AcDbDictionary
281
     1
  3
ACAD_GROUP
350
21BB
  3
ACAD_LAYOUT
350
21C7
  3
ACAD_MLINESTYLE
350
21C4
  3
ACAD_PLOTSETTINGS
350
21C6
  3
ACAD_PLOTSTYLENAME
350
21BC
  3
AcDbVariableDictionary
350
2238
  0
DICTIONARY
  5
2244
330
21B0
100
AcDbDictionary
280
     1
281
     1
  3
ACAD_LAYERSTATES
360
2245
  0
DICTIONARY
  5
21F8
330
21CC
100
AcDbDictionary
280
     1
281
     1
  3
ACAD_LAYOUTSELFREF
360
2227
  0
DICTIONARY
  5
21FA
330
21C8
100
AcDbDictionary
280
     1
281
     1
  3
ACAD_LAYOUTSELFREF
360
2226
  0
DICTIONARY
  5
21BB
102
{ACAD_REACTORS
330
21BA
102
}
330
21BA
100
AcDbDictionary
281
     1
  0
DICTIONARY
  5
21C7
102
{ACAD_REACTORS
330
21BA
102
}
330
21BA
100
AcDbDictionary
281
     1
  3
Model
350
21CF
  3
ﾚｲｱｳﾄ1
350
21CB
  0
DICTIONARY
  5
21C4
102
{ACAD_REACTORS
330
21BA
102
}
330
21BA
100
AcDbDictionary
281
     1
  3
Standard
350
21C5
  0
DICTIONARY
  5
21C6
102
{ACAD_REACTORS
330
21BA
102
}
330
21BA
100
AcDbDictionary
281
     1
  0
ACDBDICTIONARYWDFLT
  5
21BC
102
{ACAD_REACTORS
330
21BA
102
}
330
21BA
100
AcDbDictionary
281
     1
  3
Normal
350
21BD
100
AcDbDictionaryWithDefault
340
21BD
  0
DICTIONARY
  5
2238
102
{ACAD_REACTORS
330
21BA
102
}
330
21BA
100
AcDbDictionary
281
     1
  3
DIMASSOC
350
2239
  0
DICTIONARY
  5
2245
102
{ACAD_REACTORS
330
2244
102
}
330
2244
100
AcDbDictionary
281
     1
  0
XRECORD
  5
2227
102
{ACAD_REACTORS
330
21F8
102
}
330
21F8
100
AcDbXrecord
280
     1
340
21CC
  0
XRECORD
  5
2226
102
{ACAD_REACTORS
330
21FA
102
}
330
21FA
100
AcDbXrecord
280
     1
340
21C8
  0
LAYOUT
  5
21CF
102
{ACAD_REACTORS
330
21C7
102
}
330
21C7
100
AcDbPlotSettings
  1

  2
SII LP-2150 (D-SCAN C2)
  4

  6

 40
0.0
 41
0.0
 42
0.0
 43
0.0
 44
0.0
 45
0.0
 46
0.0
 47
0.0
 48
0.0
 49
0.0
140
0.0
141
0.0
142
1.0
143
1.0
 70
  1712
 72
     0
 73
     0
 74
     0
  7

 75
     0
147
1.0
148
0.0
149
0.0
100
AcDbLayout
  1
Model
 70
     1
 71
     0
 10
0.0
 20
0.0
 11
12.0
 21
9.0
 12
0.0
 22
0.0
 32
0.0
 14
0.0
 24
0.0
 34
0.0
 15
0.0
 25
0.0
 35
0.0
146
0.0
 13
0.0
 23
0.0
 33
0.0
 16
1.0
 26
0.0
 36
0.0
 17
0.0
 27
1.0
 37
0.0
 76
     0
330
21CC
  0
LAYOUT
  5
21CB
102
{ACAD_REACTORS
330
21C7
102
}
330
21C7
100
AcDbPlotSettings
  1

  2
SII LP-2150 (D-SCAN C2)
  4

  6

 40
0.0
 41
0.0
 42
0.0
 43
0.0
 44
0.0
 45
0.0
 46
0.0
 47
0.0
 48
0.0
 49
0.0
140
0.0
141
0.0
142
1.0
143
1.0
 70
   688
 72
     0
 73
     0
 74
     5
  7

 75
    16
147
1.0
148
0.0
149
0.0
100
AcDbLayout
  1
ﾚｲｱｳﾄ1
 70
     1
 71
     1
 10
0.0
 20
0.0
 11
12.0
 21
9.0
 12
0.0
 22
0.0
 32
0.0
 14
1.000000000000000E+20
 24
1.000000000000000E+20
 34
1.000000000000000E+20
 15
-1.000000000000000E+20
 25
-1.000000000000000E+20
 35
-1.000000000000000E+20
146
0.0
 13
0.0
 23
0.0
 33
0.0
 16
1.0
 26
0.0
 36
0.0
 17
0.0
 27
1.0
 37
0.0
 76
     0
330
21C8
  0
MLINESTYLE
  5
21C5
102
{ACAD_REACTORS
330
21C4
102
}
330
21C4
100
AcDbMlineStyle
  2
STANDARD
 70
     0
  3

 62
   256
 51
90.0
 52
90.0
 71
     2
 49
0.5
 62
   256
  6
BYLAYER
 49
-0.5
 62
   256
  6
BYLAYER
  0
ACDBPLACEHOLDER
  5
21BD
102
{ACAD_REACTORS
330
21BC
102
}
330
21BC
  0
DICTIONARYVAR
  5
2239
102
{ACAD_REACTORS
330
2238
102
}
330
2238
100
DictionaryVariables
280
     0
  1
1
  0
ENDSEC
  0
EOF
