  0
SECTION
  2
HEADER
  9
$ACADVER
  1
AC1015
  9
$ACADMAINTVER
 70
    14
  9
$DWGCODEPAGE
  3
ANSI_932
  9
$INSBASE
 10
0.0
 20
0.0
 30
0.0
  9
$EXTMIN
 10
-59.44073516492949
 20
-86.70875357388718
 30
-0.0000000349181948
  9
$EXTMAX
 10
684.2370600615573
 20
198.018582722962
 30
0.0000000814935746
  9
$LIMMIN
 10
0.0
 20
0.0
  9
$LIMMAX
 10
12.0
 20
9.0
  9
$ORTHOMODE
 70
     0
  9
$REGENMODE
 70
     1
  9
$FILLMODE
 70
     1
  9
$QTEXTMODE
 70
     0
  9
$MIRRTEXT
 70
     1
  9
$LTSCALE
 40
1.0
  9
$ATTMODE
 70
     1
  9
$TEXTSIZE
 40
0.2
  9
$TRACEWID
 40
0.05
  9
$TEXTSTYLE
  7
STANDARD
  9
$CLAYER
  8
0
  9
$CELTYPE
  6
CONTINUOUS
  9
$CECOLOR
 62
   256
  9
$CELTSCALE
 40
1.0
  9
$DISPSILH
 70
     0
  9
$DIMSCALE
 40
1.0
  9
$DIMASZ
 40
1.0
  9
$DIMEXO
 40
2.54
  9
$DIMDLI
 40
0.38
  9
$DIMRND
 40
0.0
  9
$DIMDLE
 40
0.0
  9
$DIMEXE
 40
2.54
  9
$DIMTP
 40
0.0
  9
$DIMTM
 40
0.0
  9
$DIMTXT
 40
3.2
  9
$DIMCEN
 40
0.09
  9
$DIMTSZ
 40
0.0
  9
$DIMTOL
 70
     0
  9
$DIMLIM
 70
     0
  9
$DIMTIH
 70
     0
  9
$DIMTOH
 70
     0
  9
$DIMSE1
 70
     0
  9
$DIMSE2
 70
     0
  9
$DIMTAD
 70
     1
  9
$DIMZIN
 70
     0
  9
$DIMBLK
  1

  9
$DIMASO
 70
     1
  9
$DIMSHO
 70
     0
  9
$DIMPOST
  1

  9
$DIMAPOST
  1

  9
$DIMALT
 70
     0
  9
$DIMALTD
 70
     2
  9
$DIMALTF
 40
25.4
  9
$DIMLFAC
 40
1.0
  9
$DIMTOFL
 70
     0
  9
$DIMTVP
 40
1.0
  9
$DIMTIX
 70
     0
  9
$DIMSOXD
 70
     0
  9
$DIMSAH
 70
     1
  9
$DIMBLK1
  1

  9
$DIMBLK2
  1

  9
$DIMSTYLE
  2
STANDARD
  9
$DIMCLRD
 70
     0
  9
$DIMCLRE
 70
     0
  9
$DIMCLRT
 70
     0
  9
$DIMTFAC
 40
1.0
  9
$DIMGAP
 40
1.6
  9
$DIMJUST
 70
     0
  9
$DIMSD1
 70
     0
  9
$DIMSD2
 70
     0
  9
$DIMTOLJ
 70
     1
  9
$DIMTZIN
 70
     0
  9
$DIMALTZ
 70
     0
  9
$DIMALTTZ
 70
     0
  9
$DIMUPT
 70
     0
  9
$DIMDEC
 70
     4
  9
$DIMTDEC
 70
     4
  9
$DIMALTU
 70
     2
  9
$DIMALTTD
 70
     2
  9
$DIMTXSTY
  7
STANDARD
  9
$DIMAUNIT
 70
     0
  9
$DIMADEC
 70
     0
  9
$DIMALTRND
 40
0.0
  9
$DIMAZIN
 70
     0
  9
$DIMDSEP
 70
    46
  9
$DIMATFIT
 70
     3
  9
$DIMFRAC
 70
     0
  9
$DIMLDRBLK
  1

  9
$DIMLUNIT
 70
     2
  9
$DIMLWD
 70
    -2
  9
$DIMLWE
 70
    -2
  9
$DIMTMOVE
 70
     0
  9
$LUNITS
 70
     2
  9
$LUPREC
 70
     4
  9
$SKETCHINC
 40
0.1
  9
$FILLETRAD
 40
0.0
  9
$AUNITS
 70
     0
  9
$AUPREC
 70
     0
  9
$MENU
  1
.
  9
$ELEVATION
 40
0.0
  9
$PELEVATION
 40
0.0
  9
$THICKNESS
 40
0.0
  9
$LIMCHECK
 70
     0
  9
$CHAMFERA
 40
0.0
  9
$CHAMFERB
 40
0.0
  9
$CHAMFERC
 40
0.0
  9
$CHAMFERD
 40
0.0
  9
$SKPOLY
 70
     0
  9
$TDCREATE
 40
2452488.423138738
  9
$TDUCREATE
 40
2452488.048138738
  9
$TDUPDATE
 40
2456906.721005601
  9
$TDUUPDATE
 40
2456906.346005601
  9
$TDINDWG
 40
0.2833677894
  9
$TDUSRTIMER
 40
0.2833676042
  9
$USRTIMER
 70
     1
  9
$ANGBASE
 50
0.0
  9
$ANGDIR
 70
     0
  9
$PDMODE
 70
     3
  9
$PDSIZE
 40
0.0
  9
$PLINEWID
 40
0.0
  9
$SPLFRAME
 70
     0
  9
$SPLINETYPE
 70
     6
  9
$SPLINESEGS
 70
     8
  9
$HANDSEED
  5
33DE
  9
$SURFTAB1
 70
     6
  9
$SURFTAB2
 70
     6
  9
$SURFTYPE
 70
     6
  9
$SURFU
 70
     6
  9
$SURFV
 70
     6
  9
$UCSBASE
  2

  9
$UCSNAME
  2

  9
$UCSORG
 10
0.0
 20
0.0
 30
0.0
  9
$UCSXDIR
 10
1.0
 20
0.0
 30
0.0
  9
$UCSYDIR
 10
0.0
 20
1.0
 30
0.0
  9
$UCSORTHOREF
  2

  9
$UCSORTHOVIEW
 70
     0
  9
$UCSORGTOP
 10
0.0
 20
0.0
 30
0.0
  9
$UCSORGBOTTOM
 10
0.0
 20
0.0
 30
0.0
  9
$UCSORGLEFT
 10
0.0
 20
0.0
 30
0.0
  9
$UCSORGRIGHT
 10
0.0
 20
0.0
 30
0.0
  9
$UCSORGFRONT
 10
0.0
 20
0.0
 30
0.0
  9
$UCSORGBACK
 10
0.0
 20
0.0
 30
0.0
  9
$PUCSBASE
  2

  9
$PUCSNAME
  2

  9
$PUCSORG
 10
0.0
 20
0.0
 30
0.0
  9
$PUCSXDIR
 10
1.0
 20
0.0
 30
0.0
  9
$PUCSYDIR
 10
0.0
 20
1.0
 30
0.0
  9
$PUCSORTHOREF
  2

  9
$PUCSORTHOVIEW
 70
     0
  9
$PUCSORGTOP
 10
0.0
 20
0.0
 30
0.0
  9
$PUCSORGBOTTOM
 10
0.0
 20
0.0
 30
0.0
  9
$PUCSORGLEFT
 10
0.0
 20
0.0
 30
0.0
  9
$PUCSORGRIGHT
 10
0.0
 20
0.0
 30
0.0
  9
$PUCSORGFRONT
 10
0.0
 20
0.0
 30
0.0
  9
$PUCSORGBACK
 10
0.0
 20
0.0
 30
0.0
  9
$USERI1
 70
     0
  9
$USERI2
 70
     0
  9
$USERI3
 70
     0
  9
$USERI4
 70
     0
  9
$USERI5
 70
     0
  9
$USERR1
 40
0.0
  9
$USERR2
 40
0.0
  9
$USERR3
 40
0.0
  9
$USERR4
 40
0.0
  9
$USERR5
 40
0.0
  9
$WORLDVIEW
 70
     1
  9
$SHADEDGE
 70
     3
  9
$SHADEDIF
 70
    70
  9
$TILEMODE
 70
     1
  9
$MAXACTVP
 70
    48
  9
$PINSBASE
 10
0.0
 20
0.0
 30
0.0
  9
$PLIMCHECK
 70
     0
  9
$PEXTMIN
 10
1.000000000000000E+20
 20
1.000000000000000E+20
 30
1.000000000000000E+20
  9
$PEXTMAX
 10
-1.000000000000000E+20
 20
-1.000000000000000E+20
 30
-1.000000000000000E+20
  9
$PLIMMIN
 10
0.0
 20
0.0
  9
$PLIMMAX
 10
12.0
 20
9.0
  9
$UNITMODE
 70
     0
  9
$VISRETAIN
 70
     1
  9
$PLINEGEN
 70
     0
  9
$PSLTSCALE
 70
     1
  9
$TREEDEPTH
 70
  3020
  9
$CMLSTYLE
  2
Standard
  9
$CMLJUST
 70
     0
  9
$CMLSCALE
 40
1.0
  9
$PROXYGRAPHICS
 70
     1
  9
$MEASUREMENT
 70
     0
  9
$CELWEIGHT
370
    -1
  9
$ENDCAPS
280
     0
  9
$JOINSTYLE
280
     0
  9
$LWDISPLAY
290
     0
  9
$INSUNITS
 70
     0
  9
$HYPERLINKBASE
  1

  9
$STYLESHEET
  1

  9
$XEDIT
290
     1
  9
$CEPSNTYPE
380
     0
  9
$PSTYLEMODE
290
     1
  9
$FINGERPRINTGUID
  2
{FFE95C04-33D2-4560-80D0-1E2918E4EC86}
  9
$VERSIONGUID
  2
{58F67D8B-81B8-48F1-81C7-ED3430FAF7AF}
  9
$EXTNAMES
290
     1
  9
$PSVPSCALE
 40
0.0
  9
$OLESTARTUP
290
     0
  0
ENDSEC
  0
SECTION
  2
CLASSES
  0
CLASS
  1
ACDBDICTIONARYWDFLT
  2
AcDbDictionaryWithDefault
  3
AutoCAD 2000
 90
        0
280
     0
281
     0
  0
CLASS
  1
ACDBPLACEHOLDER
  2
AcDbPlaceHolder
  3
AutoCAD 2000
 90
        0
280
     0
281
     0
  0
CLASS
  1
LAYOUT
  2
AcDbLayout
  3
AutoCAD 2000
 90
        0
280
     0
281
     0
  0
CLASS
  1
DICTIONARYVAR
  2
AcDbDictionaryVar
  3
AutoCAD 2000
 90
        0
280
     0
281
     0
  0
CLASS
  1
LONG_TRANSACTION
  2
AcDbLongTransaction
  3
AutoCAD 2000
 90
    32768
280
     0
281
     0
  0
CLASS
  1
LWPOLYLINE
  2
AcDbPolyline
  3
AutoCAD 2000
 90
    32768
280
     0
281
     1
  0
CLASS
  1
HATCH
  2
AcDbHatch
  3
AutoCAD 2000
 90
    32768
280
     0
281
     1
  0
CLASS
  1
XRECORD
  2
AcDbXrecord
  3
AutoCAD 2000
 90
    32768
280
     0
281
     0
  0
ENDSEC
  0
SECTION
  2
TABLES
  0
TABLE
  2
VPORT
  5
21B6
330
0
100
AcDbSymbolTable
 70
     2
  0
VPORT
  5
33DD
330
21B6
100
AcDbSymbolTableRecord
100
AcDbViewportTableRecord
  2
*Active
 70
     0
 10
0.0
 20
0.0
 11
1.0
 21
1.0
 12
312.3981624483138
 22
55.65491457453743
 13
0.0
 23
0.0
 14
1.0
 24
1.0
 15
0.0
 25
0.0
 16
0.0
 26
0.0
 36
1.0
 17
0.0
 27
0.0
 37
0.0
 40
381.9488557126497
 41
1.953389830508474
 42
50.0
 43
0.0
 44
0.0
 50
0.0
 51
0.0
 71
     0
 72
   100
 73
     1
 74
     3
 75
     0
 76
     0
 77
     0
 78
     0
281
     0
 65
     1
110
0.0
120
0.0
130
0.0
111
1.0
121
0.0
131
0.0
112
0.0
122
1.0
132
0.0
 79
     0
146
0.0
  0
ENDTAB
  0
TABLE
  2
LTYPE
  5
21B3
330
0
100
AcDbSymbolTable
 70
     2
  0
LTYPE
  5
21C1
330
21B3
100
AcDbSymbolTableRecord
100
AcDbLinetypeTableRecord
  2
ByBlock
 70
     0
  3

 72
    65
 73
     0
 40
0.0
  0
LTYPE
  5
21C2
330
21B3
100
AcDbSymbolTableRecord
100
AcDbLinetypeTableRecord
  2
ByLayer
 70
     0
  3

 72
    65
 73
     0
 40
0.0
  0
LTYPE
  5
21C3
330
21B3
100
AcDbSymbolTableRecord
100
AcDbLinetypeTableRecord
  2
CONTINUOUS
 70
     0
  3
Solid line
 72
    65
 73
     0
 40
0.0
  0
LTYPE
  5
21D1
330
21B3
100
AcDbSymbolTableRecord
100
AcDbLinetypeTableRecord
  2
CENTER
 70
     0
  3
__ . __
 72
    65
 73
     4
 40
7.0
 49
4.0
 74
     0
 49
-1.0
 74
     0
 49
1.0
 74
     0
 49
-1.0
 74
     0
  0
ENDTAB
  0
TABLE
  2
LAYER
  5
21B0
102
{ACAD_XDICTIONARY
360
2244
102
}
330
0
100
AcDbSymbolTable
 70
     1
  0
LAYER
  5
21BE
330
21B0
100
AcDbSymbolTableRecord
100
AcDbLayerTableRecord
  2
0
 70
     0
 62
     7
  6
CONTINUOUS
370
    -3
390
21BD
  0
ENDTAB
  0
TABLE
  2
STYLE
  5
21B1
330
0
100
AcDbSymbolTable
 70
     1
  0
STYLE
  5
21BF
330
21B1
100
AcDbSymbolTableRecord
100
AcDbTextStyleTableRecord
  2
STANDARD
 70
     0
 40
0.0
 41
1.0
 50
0.0
 71
     0
 42
0.2
  3
txt
  4
BIGFONT
  0
ENDTAB
  0
TABLE
  2
VIEW
  5
21B4
330
0
100
AcDbSymbolTable
 70
     1
  0
VIEW
  5
21DE
330
21B4
100
AcDbSymbolTableRecord
100
AcDbViewTableRecord
  2
OLE1
 70
     0
 40
3692.141019219747
 10
1914.591370701856
 20
1272.206200738182
 41
4595.022665841169
 11
0.0
 21
0.0
 31
1.0
 12
0.0
 22
0.0
 32
0.0
 42
50.0
 43
0.0
 44
0.0
 50
0.0
 71
     0
281
     0
 72
     1
110
0.0
120
0.0
130
0.0
111
1.0
121
0.0
131
0.0
112
0.0
122
1.0
132
0.0
 79
     0
146
0.0
  0
ENDTAB
  0
TABLE
  2
UCS
  5
21B5
330
0
100
AcDbSymbolTable
 70
     0
  0
ENDTAB
  0
TABLE
  2
APPID
  5
21B7
330
0
100
AcDbSymbolTable
 70
     8
  0
APPID
  5
21C0
330
21B7
100
AcDbSymbolTableRecord
100
AcDbRegAppTableRecord
  2
ACAD
 70
     0
  0
APPID
  5
21DF
330
21B7
100
AcDbSymbolTableRecord
100
AcDbRegAppTableRecord
  2
MCAD_NO_VIS
 70
     0
  0
APPID
  5
21E0
330
21B7
100
AcDbSymbolTableRecord
100
AcDbRegAppTableRecord
  2
ACAD_TEMP_GRAPHIC
 70
     0
  0
APPID
  5
21E1
330
21B7
100
AcDbSymbolTableRecord
100
AcDbRegAppTableRecord
  2
ACATTRIBSERVICES
 70
     0
  0
APPID
  5
21E2
330
21B7
100
AcDbSymbolTableRecord
100
AcDbRegAppTableRecord
  2
CONTENTBLOCKICON
 70
     0
  0
APPID
  5
2241
330
21B7
100
AcDbSymbolTableRecord
100
AcDbRegAppTableRecord
  2
ACAD_DSTYLE_DIMJAG
 70
     0
  0
APPID
  5
2242
330
21B7
100
AcDbSymbolTableRecord
100
AcDbRegAppTableRecord
  2
ACAD_DSTYLE_DIMTALN
 70
     0
  0
APPID
  5
2243
330
21B7
100
AcDbSymbolTableRecord
100
AcDbRegAppTableRecord
  2
ACAD_PSEXT
 70
     0
  0
ENDTAB
  0
TABLE
  2
DIMSTYLE
  5
21B8
330
0
100
AcDbSymbolTable
 70
     1
100
AcDbDimStyleTable
 71
     0
  0
DIMSTYLE
105
21E3
330
21B8
100
AcDbSymbolTableRecord
100
AcDbDimStyleTableRecord
  2
STANDARD
 70
     0
279
     2
340
21BF
  0
ENDTAB
  0
TABLE
  2
BLOCK_RECORD
  5
21AF
330
0
100
AcDbSymbolTable
 70
     0
  0
BLOCK_RECORD
  5
21CC
102
{ACAD_XDICTIONARY
360
21F8
102
}
330
21AF
100
AcDbSymbolTableRecord
100
AcDbBlockTableRecord
  2
*Model_Space
340
21CF
  0
BLOCK_RECORD
  5
21C8
102
{ACAD_XDICTIONARY
360
21FA
102
}
330
21AF
100
AcDbSymbolTableRecord
100
AcDbBlockTableRecord
  2
*Paper_Space
340
21CB
  0
ENDTAB
  0
ENDSEC
  0
SECTION
  2
BLOCKS
  0
BLOCK
  5
21CD
330
21CC
100
AcDbEntity
  8
0
100
AcDbBlockBegin
  2
*Model_Space
 70
     0
 10
0.0
 20
0.0
 30
0.0
  3
*Model_Space
  1

  0
ENDBLK
  5
21CE
330
21CC
100
AcDbEntity
  8
0
100
AcDbBlockEnd
  0
BLOCK
  5
21C9
330
21C8
100
AcDbEntity
 67
     1
  8
0
100
AcDbBlockBegin
  2
*Paper_Space
 70
     0
 10
0.0
 20
0.0
 30
0.0
  3
*Paper_Space
  1

  0
ENDBLK
  5
21CA
330
21C8
100
AcDbEntity
 67
     1
  8
0
100
AcDbBlockEnd
  0
ENDSEC
  0
SECTION
  2
ENTITIES
  0
TEXT
  5
F6E
330
21CC
100
AcDbEntity
  8
0
  6
Continuous
100
AcDbText
 10
0.0
 20
150.0
 30
0.0
 40
48.000002
  1
STE 2S
 41
1.32095
100
AcDbText
  0
ARC
  5
2EB1
330
21CC
100
AcDbEntity
  8
0
100
AcDbCircle
 10
0.0
 20
0.0
 30
0.0
 40
9.0
100
AcDbArc
 50
131.8103099999931
 51
228.1896900000068
  0
LWPOLYLINE
  5
2EB2
330
21CC
100
AcDbEntity
  8
0
100
AcDbPolyline
 90
        3
 70
     0
 43
0.0
 10
-6.0
 20
6.92820000000006
 10
-9.0
 20
5.196165000000064
 10
-9.0
 20
-5.196149999999988
  0
LWPOLYLINE
  5
2EB3
330
21CC
100
AcDbEntity
  8
0
100
AcDbPolyline
 90
        2
 70
     0
 43
0.0
 10
-9.0
 20
-5.196149999999988
 10
-6.0
 20
-6.928184999999984
  0
ARC
  5
2EB4
330
21CC
100
AcDbEntity
  8
0
100
AcDbCircle
 10
0.0
 20
0.0
 30
0.0
 40
9.0
100
AcDbArc
 50
311.8103099999931
 51
48.18969500000569
  0
LWPOLYLINE
  5
2EB5
330
21CC
100
AcDbEntity
  8
0
100
AcDbPolyline
 90
        4
 70
     0
 43
0.0
 10
6.0
 20
-6.928184999999984
 10
9.0
 20
-5.196149999999988
 10
9.0
 20
5.196165000000064
 10
6.0
 20
6.92820000000006
  0
LINE
  5
2EB6
330
21CC
100
AcDbEntity
  8
0
100
AcDbLine
 10
674.9987422280628
 20
30.54475999999999
 30
0.0
 11
674.9987422280628
 21
-30.54475999999999
 31
0.0
  0
LINE
  5
2EB7
330
21CC
100
AcDbEntity
  8
0
100
AcDbLine
 10
677.8487802280628
 20
-32.0
 30
0.0
 11
675.5589242280629
 21
-32.0
 31
0.0
  0
LINE
  5
2EB8
330
21CC
100
AcDbEntity
  8
0
100
AcDbLine
 10
674.8071762280629
 20
-31.47363999999993
 30
0.0
 11
673.0755322280629
 21
-26.71597999999994
 31
0.0
  0
LINE
  5
2EB9
330
21CC
100
AcDbEntity
  8
0
100
AcDbLine
 10
672.5965822280632
 20
-25.39999999999986
 30
0.0
 11
672.5965822280632
 21
25.39999999999986
 31
0.0
  0
LINE
  5
2EBA
330
21CC
100
AcDbEntity
  8
0
100
AcDbLine
 10
620.6613322280632
 20
-37.74808000000007
 30
0.0
 11
641.3526182280629
 21
-25.80197999999995
 31
0.0
  0
LINE
  5
2EBB
330
21CC
100
AcDbEntity
  8
0
100
AcDbLine
 10
671.1961302280628
 20
-25.39999999999986
 30
0.0
 11
642.852602228063
 21
-25.40002000000004
 31
0.0
  0
LINE
  5
2EBC
330
21CC
100
AcDbEntity
  8
0
100
AcDbLine
 10
619.965150228063
 20
37.87959999999998
 30
0.0
 11
619.965150228063
 21
-37.87959999999998
 31
0.0
  0
LINE
  5
2EBD
330
21CC
100
AcDbEntity
  8
0
100
AcDbLine
 10
642.0487682280631
 20
25.50973999999996
 30
0.0
 11
642.0487682280631
 21
-25.50973999999996
 31
0.0
  0
LINE
  5
2EBE
330
21CC
100
AcDbEntity
  8
0
100
AcDbLine
 10
279.2565382280631
 20
-38.14999999999986
 30
0.0
 11
619.1613182280629
 21
-38.14999999999986
 31
0.0
  0
LINE
  5
2EBF
330
21CC
100
AcDbEntity
  8
0
100
AcDbLine
 10
284.8487782280631
 20
-82.0
 30
0.0
 11
220.848798228063
 21
-82.0
 31
0.0
  0
LINE
  5
2EC0
330
21CC
100
AcDbEntity
  8
0
100
AcDbLine
 10
220.848798228063
 20
-82.0
 30
0.0
 11
220.848798228063
 21
-79.71011999999996
 31
0.0
  0
LINE
  5
2EC1
330
21CC
100
AcDbEntity
  8
0
100
AcDbLine
 10
221.3751182280629
 20
-78.9583399999999
 30
0.0
 11
226.1327382280628
 21
-77.22667999999998
 31
0.0
  0
LINE
  5
2EC2
330
21CC
100
AcDbEntity
  8
0
100
AcDbLine
 10
284.8487782280631
 20
-82.0
 30
0.0
 11
284.8487782280631
 21
-79.71011999999996
 31
0.0
  0
LINE
  5
2EC3
330
21CC
100
AcDbEntity
  8
0
  6
CENTER
100
AcDbLine
 10
252.848798228063
 20
-86.70543999999996
 30
0.0
 11
252.848798228063
 21
0.0
 31
0.0
  0
LINE
  5
2EC4
330
21CC
100
AcDbEntity
  8
0
100
AcDbLine
 10
278.2487382280628
 20
-75.34735999999998
 30
0.0
 11
278.2487382280628
 21
-39.14995999999996
 31
0.0
  0
LINE
  5
2EC5
330
21CC
100
AcDbEntity
  8
0
100
AcDbLine
 10
284.3223782280629
 20
-78.95839999999998
 30
0.0
 11
279.5647182280631
 21
-77.22674000000006
 31
0.0
  0
LINE
  5
2EC6
330
21CC
100
AcDbEntity
  8
0
100
AcDbLine
 10
223.8365382280631
 20
-38.14994000000001
 30
0.0
 11
226.448778228063
 21
-38.14994000000001
 31
0.0
  0
LINE
  5
2EC7
330
21CC
100
AcDbEntity
  8
0
100
AcDbLine
 10
227.448778228063
 20
-75.34735999999998
 30
0.0
 11
227.448778228063
 21
-39.14995999999996
 31
0.0
  0
LINE
  5
2EC8
330
21CC
100
AcDbEntity
  8
0
100
AcDbLine
 10
221.0776782280631
 20
-79.14990000000011
 30
0.0
 11
284.6199182280629
 21
-79.14990000000011
 31
0.0
  0
LINE
  5
2EC9
330
21CC
100
AcDbEntity
  8
0
100
AcDbLine
 10
226.876698228063
 20
-76.74772000000007
 30
0.0
 11
278.820898228063
 21
-76.74772000000007
 31
0.0
  0
LINE
  5
2ECA
330
21CC
100
AcDbEntity
  8
0
100
AcDbLine
 10
32.0
 20
-82.0
 30
0.0
 11
-32.0
 21
-82.0
 31
0.0
  0
LINE
  5
2ECB
330
21CC
100
AcDbEntity
  8
0
100
AcDbLine
 10
-32.0
 20
-82.0
 30
0.0
 11
-32.0
 21
-79.71011999999996
 31
0.0
  0
LINE
  5
2ECC
330
21CC
100
AcDbEntity
  8
0
100
AcDbLine
 10
-31.47364000000016
 20
-78.95831999999995
 30
0.0
 11
-26.71594000000004
 21
-77.22667999999998
 31
0.0
  0
LINE
  5
2ECD
330
21CC
100
AcDbEntity
  8
0
100
AcDbLine
 10
32.0
 20
-82.0
 30
0.0
 11
32.0
 21
-79.71011999999996
 31
0.0
  0
LINE
  5
2ECE
330
21CC
100
AcDbEntity
  8
0
  6
CENTER
100
AcDbLine
 10
0.0
 20
-86.70543999999996
 30
0.0
 11
0.0
 21
64.7637400000001
 31
0.0
  0
LINE
  5
2ECF
330
21CC
100
AcDbEntity
  8
0
100
AcDbLine
 10
25.39995999999973
 20
-75.34735999999998
 30
0.0
 11
25.39995999999973
 21
-47.16370000000006
 31
0.0
  0
LINE
  5
2ED0
330
21CC
100
AcDbEntity
  8
0
100
AcDbLine
 10
31.47364000000016
 20
-78.95839999999998
 30
0.0
 11
26.71594000000004
 21
-77.22674000000006
 31
0.0
  0
LINE
  5
2ED1
330
21CC
100
AcDbEntity
  8
0
100
AcDbLine
 10
-25.40002000000004
 20
-75.34735999999998
 30
0.0
 11
-25.40002000000004
 21
-52.36703999999986
 31
0.0
  0
LINE
  5
2ED2
330
21CC
100
AcDbEntity
  8
0
100
AcDbLine
 10
-25.97209999999995
 20
-76.74772000000007
 30
0.0
 11
25.97209999999995
 21
-76.74772000000007
 31
0.0
  0
LINE
  5
2ED3
330
21CC
100
AcDbEntity
  8
0
100
AcDbLine
 10
-31.77111999999988
 20
-79.14990000000011
 30
0.0
 11
31.77111999999988
 21
-79.14990000000011
 31
0.0
  0
LINE
  5
2ED4
330
21CC
100
AcDbEntity
  8
0
100
AcDbLine
 10
57.70002000000022
 20
-39.42822000000001
 30
0.0
 11
57.70002000000022
 21
-29.22266000000013
 31
0.0
  0
LINE
  5
2ED5
330
21CC
100
AcDbEntity
  8
0
100
AcDbLine
 10
68.0
 20
14.0
 30
0.0
 11
68.0
 21
5.0
 31
0.0
  0
LINE
  5
2ED6
330
21CC
100
AcDbEntity
  8
0
100
AcDbLine
 10
68.0
 20
-5.0
 30
0.0
 11
68.0
 21
-14.57397999999989
 31
0.0
  0
LINE
  5
2ED7
330
21CC
100
AcDbEntity
  8
0
100
AcDbLine
 10
65.0
 20
-39.42822000000001
 30
0.0
 11
57.0
 21
-39.42822000000001
 31
0.0
  0
LINE
  5
2ED8
330
21CC
100
AcDbEntity
  8
0
100
AcDbLine
 10
64.29997999999978
 20
-39.42822000000001
 30
0.0
 11
64.29997999999978
 21
-29.22266000000013
 31
0.0
  0
LINE
  5
2ED9
330
21CC
100
AcDbEntity
  8
0
100
AcDbLine
 10
65.0
 20
-1.287559999999984
 30
0.0
 11
64.30004000000008
 21
-2.499959999999873
 31
0.0
  0
LINE
  5
2EDA
330
21CC
100
AcDbEntity
  8
0
100
AcDbLine
 10
57.70002000000022
 20
-2.5
 30
0.0
 11
57.0
 21
-1.287559999999984
 31
0.0
  0
LINE
  5
2EDB
330
21CC
100
AcDbEntity
  8
0
100
AcDbLine
 10
65.0
 20
-39.42822000000001
 30
0.0
 11
65.0
 21
-29.4679799999999
 31
0.0
  0
LINE
  5
2EDC
330
21CC
100
AcDbEntity
  8
0
100
AcDbLine
 10
57.0
 20
-39.42822000000001
 30
0.0
 11
57.0
 21
-29.4679799999999
 31
0.0
  0
LINE
  5
2EDD
330
21CC
100
AcDbEntity
  8
0
100
AcDbLine
 10
56.0
 20
-43.00004000000012
 30
0.0
 11
56.0
 21
-31.20001999999999
 31
0.0
  0
LINE
  5
2EDE
330
21CC
100
AcDbEntity
  8
0
100
AcDbLine
 10
66.0
 20
-43.00004000000012
 30
0.0
 11
66.0
 21
-31.20001999999999
 31
0.0
  0
LINE
  5
2EDF
330
21CC
100
AcDbEntity
  8
0
100
AcDbLine
 10
53.25
 20
-22.03009999999995
 30
0.0
 11
53.25
 21
-17.90002000000004
 31
0.0
  0
LINE
  5
2EE0
330
21CC
100
AcDbEntity
  8
0
100
AcDbLine
 10
68.75
 20
-22.03009999999995
 30
0.0
 11
68.75
 21
-17.90002000000004
 31
0.0
  0
LINE
  5
2EE1
330
21CC
100
AcDbEntity
  8
0
100
AcDbLine
 10
74.9393399999999
 20
-52.00004000000013
 30
0.0
 11
47.06066000000009
 21
-52.00004000000013
 31
0.0
  0
LINE
  5
2EE2
330
21CC
100
AcDbEntity
  8
0
100
AcDbLine
 10
67.0
 20
4.0
 30
0.0
 11
44.95832000000018
 21
4.0
 31
0.0
  0
LINE
  5
2EE3
330
21CC
100
AcDbEntity
  8
0
100
AcDbLine
 10
67.0
 20
15.0
 30
0.0
 11
52.83228000000008
 21
15.0
 31
0.0
  0
LINE
  5
2EE4
330
21CC
100
AcDbEntity
  8
0
100
AcDbLine
 10
-22.08660000000008
 20
39.66874000000007
 30
0.0
 11
-21.26202000000012
 21
49.09356000000002
 31
0.0
  0
LINE
  5
2EE5
330
21CC
100
AcDbEntity
  8
0
100
AcDbLine
 10
-15.65625999999974
 20
51.50433999999996
 30
0.0
 11
-26.78808000000026
 21
52.47824000000014
 31
0.0
  0
LINE
  5
2EE6
330
21CC
100
AcDbEntity
  8
0
100
AcDbLine
 10
-20.83465999999998
 20
38.3589199999999
 30
0.0
 11
-21.51306000000022
 21
38.67525999999998
 31
0.0
  0
LINE
  5
2EE7
330
21CC
100
AcDbEntity
  8
0
100
AcDbLine
 10
-22.80249999999978
 20
37.22278000000005
 30
0.0
 11
-21.97015999999984
 21
46.73646000000007
 31
0.0
  0
LINE
  5
2EE8
330
21CC
100
AcDbEntity
  8
0
100
AcDbLine
 10
-36.77593999999999
 20
39.31087999999999
 30
0.0
 11
-32.05346000000008
 21
49.4382599999999
 31
0.0
  0
LINE
  5
2EE9
330
21CC
100
AcDbEntity
  8
0
100
AcDbLine
 10
-9.978579999999965
 20
44.99245999999994
 30
0.0
 11
-19.94880000000011
 21
49.64166
 31
0.0
  0
LINE
  5
2EEA
330
21CC
100
AcDbEntity
  8
0
100
AcDbLine
 10
-30.68316000000004
 20
35.4704200000001
 30
0.0
 11
-37.1587599999998
 21
38.49001999999996
 31
0.0
  0
LINE
  5
2EEB
330
21CC
100
AcDbEntity
  8
0
100
AcDbLine
 10
47.49931999999989
 20
12.77443999999991
 30
0.0
 11
51.35411999999996
 21
15.00004000000012
 31
0.0
  0
LINE
  5
2EEC
330
21CC
100
AcDbEntity
  8
0
100
AcDbLine
 10
47.49931999999989
 20
-12.77441999999996
 30
0.0
 11
51.35411999999996
 21
-15.0
 31
0.0
  0
LINE
  5
2EED
330
21CC
100
AcDbEntity
  8
0
100
AcDbLine
 10
-30.68321999999989
 20
-35.4704200000001
 30
0.0
 11
-37.15869999999995
 21
-38.49001999999996
 31
0.0
  0
LINE
  5
2EEE
330
21CC
100
AcDbEntity
  8
0
100
AcDbLine
 10
-9.978520000000116
 20
-44.99239999999986
 30
0.0
 11
-19.94885999999996
 21
-49.64164000000005
 31
0.0
  0
LINE
  5
2EEF
330
21CC
100
AcDbEntity
  8
0
100
AcDbLine
 10
-36.77593999999999
 20
-39.31086000000004
 30
0.0
 11
-32.05346000000008
 21
-49.43823999999995
 31
0.0
  0
LINE
  5
2EF0
330
21CC
100
AcDbEntity
  8
0
100
AcDbLine
 10
-22.80249999999978
 20
-37.22278000000005
 30
0.0
 11
-21.97015999999984
 21
-46.73646000000007
 31
0.0
  0
LINE
  5
2EF1
330
21CC
100
AcDbEntity
  8
0
100
AcDbLine
 10
-20.83465999999998
 20
-38.3589199999999
 30
0.0
 11
-21.51306000000022
 21
-38.67525999999998
 31
0.0
  0
LINE
  5
2EF2
330
21CC
100
AcDbEntity
  8
0
100
AcDbLine
 10
-15.65625999999974
 20
-51.50430000000006
 30
0.0
 11
-26.78814000000011
 21
-52.47823999999991
 31
0.0
  0
LINE
  5
2EF3
330
21CC
100
AcDbEntity
  8
0
100
AcDbLine
 10
-22.08660000000008
 20
-39.66874000000007
 30
0.0
 11
-21.26202000000012
 21
-49.09354000000007
 31
0.0
  0
LINE
  5
2EF4
330
21CC
100
AcDbEntity
  8
0
100
AcDbLine
 10
67.0
 20
-15.0
 30
0.0
 11
52.83228000000008
 21
-15.0
 31
0.0
  0
LINE
  5
2EF5
330
21CC
100
AcDbEntity
  8
0
100
AcDbLine
 10
67.0
 20
-4.0
 30
0.0
 11
44.95832000000018
 21
-4.0
 31
0.0
  0
LINE
  5
2EF6
330
21CC
100
AcDbEntity
  8
0
  6
CENTER
100
AcDbLine
 10
76.31916000000001
 20
0.0
 30
0.0
 11
-59.42645999999967
 21
0.0
 31
0.0
  0
LINE
  5
2EF7
330
21CC
100
AcDbEntity
  8
0
100
AcDbLine
 10
57.0
 20
-4.0
 30
0.0
 11
57.0
 21
4.0
 31
0.0
  0
LINE
  5
2EF8
330
21CC
100
AcDbEntity
  8
0
100
AcDbLine
 10
57.70002000000022
 20
-4.0
 30
0.0
 11
57.70002000000022
 21
-2.5
 31
0.0
  0
LINE
  5
2EF9
330
21CC
100
AcDbEntity
  8
0
100
AcDbLine
 10
64.29997999999978
 20
-4.0
 30
0.0
 11
64.29997999999978
 21
-2.5
 31
0.0
  0
LINE
  5
2EFA
330
21CC
100
AcDbEntity
  8
0
100
AcDbLine
 10
65.0
 20
-4.0
 30
0.0
 11
65.0
 21
4.0
 31
0.0
  0
LINE
  5
2EFB
330
21CC
100
AcDbEntity
  8
0
100
AcDbLine
 10
57.69990000000007
 20
-29.22266000000013
 30
0.0
 11
64.30009999999993
 21
-29.22266000000013
 31
0.0
  0
LINE
  5
2EFC
330
21CC
100
AcDbEntity
  8
0
100
AcDbLine
 10
215.0487582280629
 20
-45.36838000000011
 30
0.0
 11
215.0487582280629
 21
35.21949470680124
 31
0.0
  0
LINE
  5
2EFD
330
21CC
100
AcDbEntity
  8
0
100
AcDbLine
 10
147.5487582280629
 20
6.0
 30
0.0
 11
212.5487582280629
 21
6.0
 31
0.0
  0
LINE
  5
2EFE
330
21CC
100
AcDbEntity
  8
0
100
AcDbLine
 10
205.5487582280629
 20
39.25
 30
0.0
 11
205.5487582280629
 21
-39.25
 31
0.0
  0
LINE
  5
2EFF
330
21CC
100
AcDbEntity
  8
0
  6
CENTER
100
AcDbLine
 10
145.5487582280629
 20
55.68565999999987
 30
0.0
 11
145.5487582280629
 21
-59.12164000000007
 31
0.0
  0
LINE
  5
2F00
330
21CC
100
AcDbEntity
  8
0
100
AcDbLine
 10
151.5487582280629
 20
44.0
 30
0.0
 11
151.5487582280629
 21
6.0
 31
0.0
  0
LINE
  5
2F01
330
21CC
100
AcDbEntity
  8
0
100
AcDbLine
 10
151.5487582280629
 20
-44.0
 30
0.0
 11
151.5487582280629
 21
-6.0
 31
0.0
  0
LINE
  5
2F02
330
21CC
100
AcDbEntity
  8
0
100
AcDbLine
 10
139.5487582280629
 20
-44.0
 30
0.0
 11
139.5487582280629
 21
44.0
 31
0.0
  0
LINE
  5
2F03
330
21CC
100
AcDbEntity
  8
0
100
AcDbLine
 10
147.5487582280629
 20
-6.0
 30
0.0
 11
205.5487582280629
 21
-6.0
 31
0.0
  0
LINE
  5
2F04
330
21CC
100
AcDbEntity
  8
0
100
AcDbLine
 10
-6.0
 20
-44.0
 30
0.0
 11
-6.0
 21
44.0
 31
0.0
  0
LINE
  5
2F05
330
21CC
100
AcDbEntity
  8
0
100
AcDbLine
 10
6.0
 20
-44.0
 30
0.0
 11
6.0
 21
44.0
 31
0.0
  0
ARC
  5
2F06
330
21CC
100
AcDbEntity
  8
0
100
AcDbCircle
 10
206.548758228063
 20
-39.25
 30
0.0
 40
1.0
100
AcDbArc
 50
180.0
 51
256.890840000002
  0
ARC
  5
2F07
330
21CC
100
AcDbEntity
  8
0
100
AcDbCircle
 10
675.5589242280629
 20
-31.20001999999999
 30
0.0
 40
0.80000002
100
AcDbArc
 50
200.0002899999997
 51
270.0
  0
ARC
  5
2F08
330
21CC
100
AcDbEntity
  8
0
100
AcDbCircle
 10
671.1961302280628
 20
-27.39999999999986
 30
0.0
 40
2.0
100
AcDbArc
 50
20.00028600000189
 51
90.0
  0
ARC
  5
2F09
330
21CC
100
AcDbEntity
  8
0
100
AcDbCircle
 10
642.852602228063
 20
-28.40002000000004
 30
0.0
 40
3.0
100
AcDbArc
 50
90.0
 51
119.9999300000023
  0
ARC
  5
2F0A
330
21CC
100
AcDbEntity
  8
0
100
AcDbCircle
 10
619.1613182280629
 20
-35.14999999999986
 30
0.0
 40
3.0
100
AcDbArc
 50
270.0
 51
299.9999300000023
  0
ARC
  5
2F0B
330
21CC
100
AcDbEntity
  8
0
100
AcDbCircle
 10
279.2487382280628
 20
-39.14995999999996
 30
0.0
 40
1.0
100
AcDbArc
 50
90.0
 51
180.0
  0
ARC
  5
2F0C
330
21CC
100
AcDbEntity
  8
0
100
AcDbCircle
 10
226.448778228063
 20
-39.14995999999996
 30
0.0
 40
1.0
100
AcDbArc
 50
0.0
 51
90.0
  0
ARC
  5
2F0D
330
21CC
100
AcDbEntity
  8
0
100
AcDbCircle
 10
284.0487782280629
 20
-79.71011999999996
 30
0.0
 40
0.80000002
100
AcDbArc
 50
0.0
 51
69.99934000000526
  0
ARC
  5
2F0E
330
21CC
100
AcDbEntity
  8
0
100
AcDbCircle
 10
280.2487382280628
 20
-75.34735999999998
 30
0.0
 40
2.0
100
AcDbArc
 50
180.0
 51
249.999790000003
  0
ARC
  5
2F0F
330
21CC
100
AcDbEntity
  8
0
100
AcDbCircle
 10
225.448778228063
 20
-75.34735999999998
 30
0.0
 40
2.0
100
AcDbArc
 50
289.9993899999965
 51
0.0
  0
ARC
  5
2F10
330
21CC
100
AcDbEntity
  8
0
100
AcDbCircle
 10
221.6487982280632
 20
-79.71011999999996
 30
0.0
 40
0.80000002
100
AcDbArc
 50
110.0006599999947
 51
180.0
  0
ARC
  5
2F11
330
21CC
100
AcDbEntity
  8
0
100
AcDbCircle
 10
31.20002000000022
 20
-79.71011999999996
 30
0.0
 40
0.80000002
100
AcDbArc
 50
0.0
 51
69.99934000000526
  0
ARC
  5
2F12
330
21CC
100
AcDbEntity
  8
0
100
AcDbCircle
 10
27.39995999999973
 20
-75.34735999999998
 30
0.0
 40
2.0
100
AcDbArc
 50
180.0
 51
250.0006100000034
  0
ARC
  5
2F13
330
21CC
100
AcDbEntity
  8
0
100
AcDbCircle
 10
-27.40002000000004
 20
-75.34735999999998
 30
0.0
 40
2.0
100
AcDbArc
 50
289.9993899999965
 51
0.0
  0
ARC
  5
2F14
330
21CC
100
AcDbEntity
  8
0
100
AcDbCircle
 10
-31.20002000000022
 20
-79.71011999999996
 30
0.0
 40
0.80000002
100
AcDbArc
 50
110.0006599999947
 51
180.0
  0
CIRCLE
  5
2F15
330
21CC
100
AcDbEntity
  8
0
100
AcDbCircle
 10
61.0
 20
9.5
 30
0.0
 40
2.6
  0
ARC
  5
2F16
330
21CC
100
AcDbEntity
  8
0
100
AcDbCircle
 10
67.0
 20
14.0
 30
0.0
 40
1.0
100
AcDbArc
 50
0.0
 51
90.0
  0
ARC
  5
2F17
330
21CC
100
AcDbEntity
  8
0
100
AcDbCircle
 10
67.0
 20
5.0
 30
0.0
 40
1.0
100
AcDbArc
 50
270.0
 51
0.0
  0
ARC
  5
2F18
330
21CC
100
AcDbEntity
  8
0
100
AcDbCircle
 10
67.0
 20
-5.0
 30
0.0
 40
1.0
100
AcDbArc
 50
0.0
 51
90.0
  0
CIRCLE
  5
2F19
330
21CC
100
AcDbEntity
  8
0
100
AcDbCircle
 10
61.0
 20
9.5
 30
0.0
 40
3.5
  0
ARC
  5
2F1A
330
21CC
100
AcDbEntity
  8
0
100
AcDbCircle
 10
64.0
 20
-31.20001999999999
 30
0.0
 40
2.0
100
AcDbArc
 50
0.0
 51
81.369893000002
  0
ARC
  5
2F1B
330
21CC
100
AcDbEntity
  8
0
100
AcDbCircle
 10
58.0
 20
-31.20001999999999
 30
0.0
 40
2.0
100
AcDbArc
 50
81.369893000002
 51
180.0
  0
ARC
  5
2F1C
330
21CC
100
AcDbEntity
  8
0
100
AcDbCircle
 10
61.0
 20
-43.00004000000012
 30
0.0
 40
5.0
100
AcDbArc
 50
180.0
 51
0.0
  0
ARC
  5
2F1D
330
21CC
100
AcDbEntity
  8
0
100
AcDbCircle
 10
42.0
 20
-48.00004000000012
 30
0.0
 40
35.0
100
AcDbArc
 50
356.5253900000064
 51
35.24754600000285
  0
ARC
  5
2F1E
330
21CC
100
AcDbEntity
  8
0
100
AcDbCircle
 10
78.75
 20
-22.03009999999995
 30
0.0
 40
10.0
100
AcDbArc
 50
180.0
 51
215.2473999999974
  0
ARC
  5
2F1F
330
21CC
100
AcDbEntity
  8
0
100
AcDbCircle
 10
43.25
 20
-22.03009999999995
 30
0.0
 40
10.0
100
AcDbArc
 50
324.7526000000025
 51
0.0
  0
ARC
  5
2F20
330
21CC
100
AcDbEntity
  8
0
100
AcDbCircle
 10
80.0
 20
-48.00004000000012
 30
0.0
 40
35.0
100
AcDbArc
 50
144.752449999999
 51
183.4746099999936
  0
ARC
  5
2F21
330
21CC
100
AcDbEntity
  8
0
100
AcDbCircle
 10
61.0
 20
-17.90002000000004
 30
0.0
 40
7.75
100
AcDbArc
 50
158.0253099999995
 51
180.0
  0
ARC
  5
2F22
330
21CC
100
AcDbEntity
  8
0
100
AcDbCircle
 10
61.0
 20
-17.90002000000004
 30
0.0
 40
7.75
100
AcDbArc
 50
0.0
 51
26.83102100000784
  0
ARC
  5
2F23
330
21CC
100
AcDbEntity
  8
0
100
AcDbCircle
 10
61.0
 20
9.5
 30
0.0
 40
6.0
100
AcDbArc
 50
66.44377699999194
 51
113.5562200000005
  0
ARC
  5
2F24
330
21CC
100
AcDbEntity
  8
0
100
AcDbCircle
 10
74.93933801070852
 20
-50.00004285409272
 30
0.0
 40
2.0
100
AcDbArc
 50
270.0
 51
356.5253200000058
  0
ARC
  5
2F25
330
21CC
100
AcDbEntity
  8
0
100
AcDbCircle
 10
47.06066000000009
 20
-50.00004000000012
 30
0.0
 40
2.0
100
AcDbArc
 50
183.4746799999941
 51
270.0
  0
ARC
  5
2F26
330
21CC
100
AcDbEntity
  8
0
100
AcDbCircle
 10
0.0
 20
0.0
 30
0.0
 40
53.5
100
AcDbArc
 50
134.9193499999959
 51
225.0578219273952
  0
ARC
  5
2F27
330
21CC
100
AcDbEntity
  8
0
100
AcDbCircle
 10
0.0
 20
0.0
 30
0.0
 40
42.5
100
AcDbArc
 50
124.5299699999905
 51
235.4856537987685
  0
ARC
  5
2F28
330
21CC
100
AcDbEntity
  8
0
100
AcDbCircle
 10
44.95832000000018
 20
7.0
 30
0.0
 40
3.0
100
AcDbArc
 50
188.8500299999954
 51
270.0
  0
ARC
  5
2F29
330
21CC
100
AcDbEntity
  8
0
100
AcDbCircle
 10
-21.09045999999989
 20
39.58158000000003
 30
0.0
 40
1.0
100
AcDbArc
 50
174.999970000011
 51
245.0006400000022
  0
ARC
  5
2F2A
330
21CC
100
AcDbEntity
  8
0
100
AcDbCircle
 10
-19.5667800000001
 20
41.0778600000001
 30
0.0
 40
3.0
100
AcDbArc
 50
244.9995899999977
 51
295.4697100000021
  0
ARC
  5
2F2B
330
21CC
100
AcDbEntity
  8
0
100
AcDbCircle
 10
-41.30749999999989
 20
41.42396000000007
 30
0.0
 40
5.0
100
AcDbArc
 50
314.919630000001
 51
335.0000100000012
  0
ARC
  5
2F2C
330
21CC
100
AcDbEntity
  8
0
100
AcDbCircle
 10
-27.25
 20
47.19836000000009
 30
0.0
 40
5.3000002
100
AcDbArc
 50
355.000139999993
 51
154.9999699999944
  0
ARC
  5
2F2D
330
21CC
100
AcDbEntity
  8
0
100
AcDbCircle
 10
-15.22051999999985
 20
56.48530000000005
 30
0.0
 40
5.0
100
AcDbArc
 50
264.9998700000063
 51
285.0808099999964
  0
ARC
  5
2F2E
330
21CC
100
AcDbEntity
  8
0
100
AcDbCircle
 10
-25.79114000000027
 20
37.48425999999994
 30
0.0
 40
3.0
100
AcDbArc
 50
304.5297200000118
 51
354.9998600000038
  0
CIRCLE
  5
2F2F
330
21CC
100
AcDbEntity
  8
0
100
AcDbCircle
 10
-27.25
 20
47.19836000000009
 30
0.0
 40
2.6
  0
ARC
  5
2F30
330
21CC
100
AcDbEntity
  8
0
100
AcDbCircle
 10
0.0
 20
0.0
 30
0.0
 40
49.2
100
AcDbArc
 50
116.1632700000062
 51
116.8461899999995
  0
ARC
  5
2F31
330
21CC
100
AcDbEntity
  8
0
100
AcDbCircle
 10
0.0
 20
0.0
 30
0.0
 40
45.49999999999999
100
AcDbArc
 50
131.9854200000022
 51
228.0372024620719
  0
ARC
  5
2F32
330
21CC
100
AcDbEntity
  8
0
100
AcDbCircle
 10
0.0
 20
0.0
 30
0.0
 40
45.49999999999999
100
AcDbArc
 50
18.47907399999515
 51
82.42244199999957
  0
ARC
  5
2F33
330
21CC
100
AcDbEntity
  8
0
100
AcDbCircle
 10
-8.710700000000088
 20
47.71136000000001
 30
0.0
 40
3.0
100
AcDbArc
 50
244.9995899999977
 51
280.3467599999982
  0
ARC
  5
2F34
330
21CC
100
AcDbEntity
  8
0
100
AcDbCircle
 10
-31.10584000000017
 20
34.56412
 30
0.0
 40
1.0
100
AcDbArc
 50
311.9855200000004
 51
65.00064200000584
  0
ARC
  5
2F35
330
21CC
100
AcDbEntity
  8
0
100
AcDbCircle
 10
0.0
 20
0.0
 30
0.0
 40
42.5
100
AcDbArc
 50
8.849872899997285
 51
81.88407099999592
  0
ARC
  5
2F36
330
21CC
100
AcDbEntity
  8
0
100
AcDbCircle
 10
0.0
 20
0.0
 30
0.0
 40
53.5
100
AcDbArc
 50
17.83677800000607
 51
113.417120000006
  0
ARC
  5
2F37
330
21CC
100
AcDbEntity
  8
0
100
AcDbCircle
 10
52.83228000000008
 20
17.0
 30
0.0
 40
2.0
100
AcDbArc
 50
197.8366599999954
 51
270.0
  0
ARC
  5
2F38
330
21CC
100
AcDbEntity
  8
0
100
AcDbCircle
 10
45.99926000000005
 20
15.37249999999994
 30
0.0
 40
3.0
100
AcDbArc
 50
198.4788099999896
 51
299.9999300000023
  0
ARC
  5
2F39
330
21CC
100
AcDbEntity
  8
0
100
AcDbCircle
 10
252.3524582280629
 20
-96.20386000000008
 30
0.0
 40
67.03653
100
AcDbArc
 50
67.27545100000371
 51
111.8077999999936
  0
ARC
  5
2F3A
330
21CC
100
AcDbEntity
  8
0
100
AcDbCircle
 10
-31.10584000000017
 20
-34.56412
 30
0.0
 40
1.0
100
AcDbArc
 50
294.9993599999977
 51
48.01447700000472
  0
ARC
  5
2F3B
330
21CC
100
AcDbEntity
  8
0
100
AcDbCircle
 10
-8.710700000000088
 20
-47.71136000000001
 30
0.0
 40
3.0
100
AcDbArc
 50
79.65324000000176
 51
115.0004100000022
  0
ARC
  5
2F3C
330
21CC
100
AcDbEntity
  8
0
100
AcDbCircle
 10
0.0
 20
0.0
 30
0.0
 40
45.49999999999999
100
AcDbArc
 50
259.6534400000037
 51
262.5555499999981
  0
ARC
  5
2F3D
330
21CC
100
AcDbEntity
  8
0
100
AcDbCircle
 10
0.0
 20
0.0
 30
0.0
 40
49.2
100
AcDbArc
 50
243.1538100000004
 51
243.8367299999937
  0
CIRCLE
  5
2F3E
330
21CC
100
AcDbEntity
  8
0
100
AcDbCircle
 10
-27.25
 20
-47.19836000000009
 30
0.0
 40
2.6
  0
ARC
  5
2F3F
330
21CC
100
AcDbEntity
  8
0
100
AcDbCircle
 10
-25.79114000000027
 20
-37.48425999999994
 30
0.0
 40
3.0
100
AcDbArc
 50
5.000136599998109
 51
55.47028399999856
  0
ARC
  5
2F40
330
21CC
100
AcDbEntity
  8
0
100
AcDbCircle
 10
-15.22051999999985
 20
-56.48530000000005
 30
0.0
 40
5.0
100
AcDbArc
 50
74.91918600000331
 51
95.00012599999532
  0
ARC
  5
2F41
330
21CC
100
AcDbEntity
  8
0
100
AcDbCircle
 10
-27.25
 20
-47.19836000000009
 30
0.0
 40
5.3000002
100
AcDbArc
 50
205.0000300000055
 51
4.999863999991046
  0
ARC
  5
2F42
330
21CC
100
AcDbEntity
  8
0
100
AcDbCircle
 10
-41.30749999999989
 20
-41.42396000000007
 30
0.0
 40
5.0
100
AcDbArc
 50
24.99999199998637
 51
45.0803660000075
  0
ARC
  5
2F43
330
21CC
100
AcDbEntity
  8
0
100
AcDbCircle
 10
-19.5667800000001
 20
-41.0778600000001
 30
0.0
 40
3.0
100
AcDbArc
 50
64.53028999999887
 51
115.0004100000022
  0
ARC
  5
2F44
330
21CC
100
AcDbEntity
  8
0
100
AcDbCircle
 10
-21.09045999999989
 20
-39.58158000000003
 30
0.0
 40
1.0
100
AcDbArc
 50
114.9993599999977
 51
185.0000299999889
  0
ARC
  5
2F45
330
21CC
100
AcDbEntity
  8
0
100
AcDbCircle
 10
44.95832000000018
 20
-7.0
 30
0.0
 40
3.0
100
AcDbArc
 50
90.0
 51
171.1499700000045
  0
ARC
  5
2F46
330
21CC
100
AcDbEntity
  8
0
100
AcDbCircle
 10
67.0
 20
-14.0
 30
0.0
 40
1.0
100
AcDbArc
 50
270.0
 51
0.0
  0
ARC
  5
2F47
330
21CC
100
AcDbEntity
  8
0
100
AcDbCircle
 10
45.99926000000005
 20
-15.37249999999994
 30
0.0
 40
3.0
100
AcDbArc
 50
60.0000699999976
 51
161.5211900000104
  0
ARC
  5
2F48
330
21CC
100
AcDbEntity
  8
0
100
AcDbCircle
 10
52.83228000000008
 20
-17.0
 30
0.0
 40
2.0
100
AcDbArc
 50
90.0
 51
162.1633400000045
  0
ARC
  5
2F49
330
21CC
100
AcDbEntity
  8
0
100
AcDbCircle
 10
0.0
 20
0.0
 30
0.0
 40
53.5
100
AcDbArc
 50
246.5828799999939
 51
342.1632199999872
  0
ARC
  5
2F4A
330
21CC
100
AcDbEntity
  8
0
100
AcDbCircle
 10
0.0
 20
0.0
 30
0.0
 40
42.5
100
AcDbArc
 50
244.5299299999936
 51
261.8840700000037
  0
ARC
  5
2F4B
330
21CC
100
AcDbEntity
  8
0
100
AcDbCircle
 10
0.0
 20
0.0
 30
0.0
 40
45.45
100
AcDbArc
 50
354.9509300000012
 51
5.049067400006609
  0
ARC
  5
2F4C
330
21CC
100
AcDbEntity
  8
0
100
AcDbCircle
 10
145.5487582280629
 20
44.0
 30
0.0
 40
6.0
100
AcDbArc
 50
0.0
 51
180.0
  0
ARC
  5
2F4D
330
21CC
100
AcDbEntity
  8
0
100
AcDbCircle
 10
145.5487582280629
 20
-44.0
 30
0.0
 40
6.0
100
AcDbArc
 50
180.0
 51
0.0
  0
ARC
  5
2F4E
330
21CC
100
AcDbEntity
  8
0
100
AcDbCircle
 10
0.0
 20
-44.0
 30
0.0
 40
6.0
100
AcDbArc
 50
180.0
 51
0.0
  0
ARC
  5
2F4F
330
21CC
100
AcDbEntity
  8
0
100
AcDbCircle
 10
0.0
 20
44.0
 30
0.0
 40
6.0
100
AcDbArc
 50
0.0
 51
180.0
  0
ARC
  5
2F50
330
21CC
100
AcDbEntity
  8
0
100
AcDbCircle
 10
0.0
 20
0.0
 30
0.0
 40
45.49999999999999
100
AcDbArc
 50
97.44444899999361
 51
100.3465599999962
  0
ARC
  5
2F51
330
21CC
100
AcDbEntity
  8
0
100
AcDbCircle
 10
0.0
 20
0.0
 30
0.0
 40
42.5
100
AcDbArc
 50
98.11592900000409
 51
115.4700700000063
  0
ARC
  5
2F52
330
21CC
100
AcDbEntity
  8
0
100
AcDbCircle
 10
0.0
 20
0.0
 30
0.0
 40
40.249988
100
AcDbArc
 50
98.57294300000253
 51
261.4270599999944
  0
ARC
  5
2F53
330
21CC
100
AcDbEntity
  8
0
100
AcDbCircle
 10
0.0
 20
0.0
 30
0.0
 40
40.249988
100
AcDbArc
 50
278.5729400000054
 51
81.40668536878873
  0
ARC
  5
2F54
330
21CC
100
AcDbEntity
  8
0
100
AcDbCircle
 10
0.0
 20
0.0
 30
0.0
 40
42.5
100
AcDbArc
 50
278.1159299999962
 51
351.1501299999901
  0
ARC
  5
2F55
330
21CC
100
AcDbEntity
  8
0
100
AcDbCircle
 10
0.0
 20
0.0
 30
0.0
 40
45.49999999999999
100
AcDbArc
 50
277.4444500000018
 51
341.520930000001
  0
ARC
  5
2F56
330
21CC
100
AcDbEntity
  8
0
100
AcDbCircle
 10
0.0
 20
0.0
 30
0.0
 40
27.50000399999999
100
AcDbArc
 50
285.465959999997
 51
74.53404100000532
  0
ARC
  5
2F57
330
21CC
100
AcDbEntity
  8
0
100
AcDbCircle
 10
0.0
 20
0.0
 30
0.0
 40
27.50000399999999
100
AcDbArc
 50
105.4659599999973
 51
254.5340400000029
  0
ARC
  5
2F58
330
21CC
100
AcDbEntity
  8
0
100
AcDbCircle
 10
0.0
 20
0.0
 30
0.0
 40
22.14102
100
AcDbArc
 50
290.4895899999971
 51
69.51041199999639
  0
ARC
  5
2F59
330
21CC
100
AcDbEntity
  8
0
100
AcDbCircle
 10
0.0
 20
0.0
 30
0.0
 40
22.14102
100
AcDbArc
 50
110.4895899999977
 51
249.5104100000028
  0
LINE
  5
2F5A
330
21CC
100
AcDbEntity
  8
0
100
AcDbLine
 10
284.848516089999
 20
-79.14990000000011
 30
0.0
 11
284.8487782280631
 21
-79.14990000000011
 31
0.0
  0
LINE
  5
2F5B
330
21CC
100
AcDbEntity
  8
0
100
AcDbLine
 10
57.0
 20
-2.5
 30
0.0
 11
65.0
 21
-2.5
 31
0.0
  0
ARC
  5
2F5C
330
21CC
100
AcDbEntity
  8
0
100
AcDbCircle
 10
61.0
 20
-32.5
 30
0.0
 40
8.000014523011826
100
AcDbArc
 50
240.0000600520458
 51
299.9999399479541
  0
LINE
  5
2F5D
330
21CC
100
AcDbEntity
  8
0
  6
CENTER
100
AcDbLine
 10
132.2871194378803
 20
0.0
 30
0.0
 11
684.2343702280632
 21
0.0
 31
0.0
  0
LINE
  5
3173
330
21CC
100
AcDbEntity
  8
0
100
AcDbLine
 10
223.7987582280627
 20
38.14999999999986
 30
0.0
 11
619.1613182280629
 21
38.14999999999986
 31
0.0
  0
LINE
  5
3174
330
21CC
100
AcDbEntity
  8
0
100
AcDbLine
 10
677.8487802280628
 20
-32.0
 30
0.0
 11
677.8487802280628
 21
32.0
 31
0.0
  0
LINE
  5
3175
330
21CC
100
AcDbEntity
  8
0
100
AcDbLine
 10
677.8487802280628
 20
32.0
 30
0.0
 11
675.5589242280629
 21
32.0
 31
0.0
  0
LINE
  5
3176
330
21CC
100
AcDbEntity
  8
0
100
AcDbLine
 10
674.8071762280629
 20
31.47363999999993
 30
0.0
 11
673.0755322280629
 21
26.71597999999994
 31
0.0
  0
LINE
  5
3177
330
21CC
100
AcDbEntity
  8
0
100
AcDbLine
 10
620.6613322280632
 20
37.74808000000007
 30
0.0
 11
641.3526182280629
 21
25.80197999999995
 31
0.0
  0
LINE
  5
3178
330
21CC
100
AcDbEntity
  8
0
100
AcDbLine
 10
671.1961302280628
 20
25.39999999999986
 30
0.0
 11
642.852602228063
 21
25.40002000000004
 31
0.0
  0
ARC
  5
3179
330
21CC
100
AcDbEntity
  8
0
100
AcDbCircle
 10
675.5589242280629
 20
31.20001999999999
 30
0.0
 40
0.80000002
100
AcDbArc
 50
90.0
 51
159.9997099999995
  0
ARC
  5
317A
330
21CC
100
AcDbEntity
  8
0
100
AcDbCircle
 10
671.1961302280628
 20
27.39999999999986
 30
0.0
 40
2.0
100
AcDbArc
 50
270.0
 51
339.9997139999981
  0
ARC
  5
317B
330
21CC
100
AcDbEntity
  8
0
100
AcDbCircle
 10
642.852602228063
 20
28.40002000000004
 30
0.0
 40
3.0
100
AcDbArc
 50
240.0000699999976
 51
270.0
  0
ARC
  5
317C
330
21CC
100
AcDbEntity
  8
0
100
AcDbCircle
 10
619.1613182280629
 20
35.14999999999986
 30
0.0
 40
3.0
100
AcDbArc
 50
60.0000699999976
 51
90.0
  0
LINE
  5
324D
330
21CC
100
AcDbEntity
  8
0
100
AcDbLine
 10
223.7987582280629
 20
-45.36838000000011
 30
0.0
 11
223.7987582280629
 21
6.399990000000116
 31
0.0
  0
LINE
  5
324E
330
21CC
100
AcDbEntity
  8
0
100
AcDbLine
 10
206.2987582280629
 20
-45.36838000000011
 30
0.0
 11
206.2987582280629
 21
6.266290000000026
 31
0.0
  0
LINE
  5
324F
330
21CC
100
AcDbEntity
  8
0
100
AcDbLine
 10
219.3531782280629
 20
53.5
 30
0.0
 11
210.744348228063
 21
53.5
 31
0.0
  0
LINE
  5
3250
330
21CC
100
AcDbEntity
  8
0
100
AcDbLine
 10
210.7987582280629
 20
4.0
 30
0.0
 11
206.548758228063
 21
4.0
 31
0.0
  0
LINE
  5
3251
330
21CC
100
AcDbEntity
  8
0
100
AcDbLine
 10
219.3531782280629
 20
-53.50002999999992
 30
0.0
 11
210.744348228063
 21
-53.50002999999992
 31
0.0
  0
LINE
  5
3252
330
21CC
100
AcDbEntity
  8
0
100
AcDbLine
 10
206.3328282280628
 20
-45.62718000000018
 30
0.0
 11
207.8465482280628
 21
-51.27647000000002
 31
0.0
  0
LINE
  5
3253
330
21CC
100
AcDbEntity
  8
0
100
AcDbLine
 10
223.7646882280628
 20
-45.62718000000018
 30
0.0
 11
222.2509682280628
 21
-51.27647000000002
 31
0.0
  0
LINE
  5
3254
330
21CC
100
AcDbEntity
  8
0
100
AcDbLine
 10
222.2509682280628
 20
51.27645000000007
 30
0.0
 11
223.7646882280628
 21
45.62716999999998
 31
0.0
  0
LINE
  5
3255
330
21CC
100
AcDbEntity
  8
0
100
AcDbLine
 10
208.4423482280628
 20
15.0
 30
0.0
 11
208.4423482280628
 21
49.6885400000001
 31
0.0
  0
LINE
  5
3256
330
21CC
100
AcDbEntity
  8
0
100
AcDbLine
 10
221.655178228063
 20
15.0
 30
0.0
 11
221.655178228063
 21
49.61061999999992
 31
0.0
  0
LINE
  5
3257
330
21CC
100
AcDbEntity
  8
0
100
AcDbLine
 10
210.5488782280628
 20
-11.28500000000008
 30
0.0
 11
207.572248228063
 21
-14.66133000000013
 31
0.0
  0
LINE
  5
3258
330
21CC
100
AcDbEntity
  8
0
100
AcDbLine
 10
219.5486382280628
 20
-11.28503000000023
 30
0.0
 11
222.5252582280629
 21
-14.66135000000008
 31
0.0
  0
LINE
  5
3259
330
21CC
100
AcDbEntity
  8
0
100
AcDbLine
 10
213.1987882280629
 20
-51.99999999999977
 30
0.0
 11
216.8987682280628
 21
-51.99999999999977
 31
0.0
  0
LINE
  5
325A
330
21CC
100
AcDbEntity
  8
0
100
AcDbLine
 10
212.198788228063
 20
-50.99999999999977
 30
0.0
 11
212.198788228063
 21
-31.20000999999979
 31
0.0
  0
LINE
  5
325B
330
21CC
100
AcDbEntity
  8
0
100
AcDbLine
 10
206.8221382280628
 20
-15.00000000000022
 30
0.0
 11
206.548758228063
 21
-15.00000000000022
 31
0.0
  0
LINE
  5
325C
330
21CC
100
AcDbEntity
  8
0
100
AcDbLine
 10
210.7987582280629
 20
-4.0
 30
0.0
 11
206.548758228063
 21
-4.0
 31
0.0
  0
LINE
  5
325D
330
21CC
100
AcDbEntity
  8
0
100
AcDbLine
 10
210.7987582280629
 20
4.0
 30
0.0
 11
210.7987582280629
 21
15.0
 31
0.0
  0
LINE
  5
325E
330
21CC
100
AcDbEntity
  8
0
100
AcDbLine
 10
210.7987582280629
 20
15.0
 30
0.0
 11
206.548758228063
 21
15.0
 31
0.0
  0
LINE
  5
325F
330
21CC
100
AcDbEntity
  8
0
100
AcDbLine
 10
210.7987582280629
 20
-10.62368999999989
 30
0.0
 11
210.7987582280629
 21
-4.0
 31
0.0
  0
LINE
  5
3260
330
21CC
100
AcDbEntity
  8
0
100
AcDbLine
 10
211.0487582280629
 20
-12.00000000000022
 30
0.0
 11
211.0487582280629
 21
14.42819000000008
 31
0.0
  0
LINE
  5
3261
330
21CC
100
AcDbEntity
  8
0
100
AcDbLine
 10
211.0487582280629
 20
-39.42822999999975
 30
0.0
 11
211.0487582280629
 21
-29.38962000000015
 31
0.0
  0
LINE
  5
3262
330
21CC
100
AcDbEntity
  8
0
100
AcDbLine
 10
207.2987582280629
 20
-27.20000999999979
 30
0.0
 11
207.2987582280629
 21
-17.89999999999986
 31
0.0
  0
LINE
  5
3263
330
21CC
100
AcDbEntity
  8
0
100
AcDbLine
 10
209.2987582280629
 20
-29.20000999999979
 30
0.0
 11
220.7987582280629
 21
-29.20000999999979
 31
0.0
  0
LINE
  5
3264
330
21CC
100
AcDbEntity
  8
0
100
AcDbLine
 10
210.0235882280628
 20
-12.00000000000022
 30
0.0
 11
220.073968228063
 21
-12.00000000000022
 31
0.0
  0
LINE
  5
3265
330
21CC
100
AcDbEntity
  8
0
100
AcDbLine
 10
223.5487582280629
 20
12.60000000000013
 30
0.0
 11
224.0487582280629
 21
12.60000000000013
 31
0.0
  0
LINE
  5
3266
330
21CC
100
AcDbEntity
  8
0
100
AcDbLine
 10
223.5487582280629
 20
6.399990000000116
 30
0.0
 11
224.0487582280629
 21
6.399990000000116
 31
0.0
  0
LINE
  5
3267
330
21CC
100
AcDbEntity
  8
0
100
AcDbLine
 10
217.8987682280628
 20
-50.99999999999977
 30
0.0
 11
217.8987682280628
 21
-31.20000999999979
 31
0.0
  0
LINE
  5
3268
330
21CC
100
AcDbEntity
  8
0
100
AcDbLine
 10
223.2753882280628
 20
-15.00000000000022
 30
0.0
 11
223.5487582280629
 21
-15.00000000000022
 31
0.0
  0
LINE
  5
3269
330
21CC
100
AcDbEntity
  8
0
100
AcDbLine
 10
219.2987582280629
 20
-4.0
 30
0.0
 11
223.5487582280629
 21
-4.0
 31
0.0
  0
LINE
  5
326A
330
21CC
100
AcDbEntity
  8
0
100
AcDbLine
 10
219.2987582280629
 20
4.0
 30
0.0
 11
219.2987582280629
 21
15.0
 31
0.0
  0
LINE
  5
326B
330
21CC
100
AcDbEntity
  8
0
100
AcDbLine
 10
219.2987582280629
 20
4.0
 30
0.0
 11
223.5487582280629
 21
4.0
 31
0.0
  0
LINE
  5
326C
330
21CC
100
AcDbEntity
  8
0
100
AcDbLine
 10
219.2987582280629
 20
15.0
 30
0.0
 11
223.5487582280629
 21
15.0
 31
0.0
  0
LINE
  5
326D
330
21CC
100
AcDbEntity
  8
0
100
AcDbLine
 10
219.2987582280629
 20
-10.62368999999989
 30
0.0
 11
219.2987582280629
 21
-4.0
 31
0.0
  0
LINE
  5
326E
330
21CC
100
AcDbEntity
  8
0
100
AcDbLine
 10
219.048758228063
 20
-12.00000000000022
 30
0.0
 11
219.048758228063
 21
14.42819000000008
 31
0.0
  0
LINE
  5
326F
330
21CC
100
AcDbEntity
  8
0
100
AcDbLine
 10
219.048758228063
 20
-39.42822999999975
 30
0.0
 11
219.048758228063
 21
-29.38962000000015
 31
0.0
  0
LINE
  5
3270
330
21CC
100
AcDbEntity
  8
0
100
AcDbLine
 10
222.7987582280629
 20
-27.20000999999979
 30
0.0
 11
222.7987582280629
 21
-17.89999999999986
 31
0.0
  0
LINE
  5
3271
330
21CC
100
AcDbEntity
  8
0
100
AcDbLine
 10
221.655178228063
 20
-29.00737000000003
 30
0.0
 11
221.655178228063
 21
-50.63210000000004
 31
0.0
  0
LINE
  5
3272
330
21CC
100
AcDbEntity
  8
0
100
AcDbLine
 10
208.4423482280628
 20
-29.00737000000003
 30
0.0
 11
208.4423482280628
 21
-50.21928999999977
 31
0.0
  0
LINE
  5
3273
330
21CC
100
AcDbEntity
  8
0
100
AcDbLine
 10
224.5487582280629
 20
6.899990000000116
 30
0.0
 11
224.5487582280629
 21
12.10000000000013
 31
0.0
  0
LINE
  5
3274
330
21CC
100
AcDbEntity
  8
0
100
AcDbLine
 10
224.7987582280629
 20
41.72605999999996
 30
0.0
 11
224.7987582280629
 21
46.92606999999997
 31
0.0
  0
LINE
  5
3275
330
21CC
100
AcDbEntity
  8
0
100
AcDbLine
 10
223.2987582280629
 20
47.42606999999998
 30
0.0
 11
224.2987582280629
 21
47.42606999999998
 31
0.0
  0
LINE
  5
3276
330
21CC
100
AcDbEntity
  8
0
100
AcDbLine
 10
223.7987582280629
 20
41.22605999999996
 30
0.0
 11
224.2987582280629
 21
41.22605999999996
 31
0.0
  0
LINE
  5
3277
330
21CC
100
AcDbEntity
  8
0
100
AcDbLine
 10
224.7987582280629
 20
-41.72605999999973
 30
0.0
 11
224.7987582280629
 21
-46.92606999999975
 31
0.0
  0
LINE
  5
3278
330
21CC
100
AcDbEntity
  8
0
100
AcDbLine
 10
223.7987582280629
 20
-41.22605999999973
 30
0.0
 11
224.2987582280629
 21
-41.22605999999973
 31
0.0
  0
LINE
  5
3279
330
21CC
100
AcDbEntity
  8
0
100
AcDbLine
 10
223.2826782280628
 20
-47.42606999999975
 30
0.0
 11
224.2987582280629
 21
-47.42606999999975
 31
0.0
  0
LINE
  5
327A
330
21CC
100
AcDbEntity
  8
0
100
AcDbLine
 10
206.548758228063
 20
-15.00000000000022
 30
0.0
 11
206.548758228063
 21
15.0
 31
0.0
  0
LINE
  5
327B
330
21CC
100
AcDbEntity
  8
0
100
AcDbLine
 10
223.5487582280629
 20
-15.00000000000022
 30
0.0
 11
223.5487582280629
 21
15.0
 31
0.0
  0
LINE
  5
327C
330
21CC
100
AcDbEntity
  8
0
100
AcDbLine
 10
206.2987582280629
 20
12.73369999999999
 30
0.0
 11
206.2987582280629
 21
45.36833999999998
 31
0.0
  0
LINE
  5
327D
330
21CC
100
AcDbEntity
  8
0
100
AcDbLine
 10
223.7987582280629
 20
12.60000000000013
 30
0.0
 11
223.7987582280629
 21
45.36833999999998
 31
0.0
  0
LINE
  5
327E
330
21CC
100
AcDbEntity
  8
0
100
AcDbLine
 10
206.2987582280629
 20
47.57606000000009
 30
0.0
 11
206.7987582280629
 21
47.57606000000009
 31
0.0
  0
LINE
  5
327F
330
21CC
100
AcDbEntity
  8
0
100
AcDbLine
 10
206.2987582280629
 20
-47.57606999999985
 30
0.0
 11
206.7987582280629
 21
-47.57606999999985
 31
0.0
  0
LINE
  5
3280
330
21CC
100
AcDbEntity
  8
0
100
AcDbLine
 10
207.2987582280629
 20
49.3260600000001
 30
0.0
 11
207.323958228063
 21
49.3260600000001
 31
0.0
  0
LINE
  5
3281
330
21CC
100
AcDbEntity
  8
0
100
AcDbLine
 10
206.2987582280629
 20
47.57606000000009
 30
0.0
 11
206.2987582280629
 21
48.32606000000009
 31
0.0
  0
LINE
  5
3282
330
21CC
100
AcDbEntity
  8
0
100
AcDbLine
 10
223.7987582280629
 20
47.42606999999998
 30
0.0
 11
223.7987582280629
 21
48.32606000000009
 31
0.0
  0
LINE
  5
3283
330
21CC
100
AcDbEntity
  8
0
100
AcDbLine
 10
207.8465582280628
 20
51.27646000000004
 30
0.0
 11
206.3328282280628
 21
45.62716
 31
0.0
  0
LINE
  5
3284
330
21CC
100
AcDbEntity
  8
0
100
AcDbLine
 10
206.2987582280629
 20
-47.57606999999985
 30
0.0
 11
206.2987582280629
 21
-48.32606999999985
 31
0.0
  0
LINE
  5
3285
330
21CC
100
AcDbEntity
  8
0
100
AcDbLine
 10
223.7987582280629
 20
-47.42606999999975
 30
0.0
 11
223.7987582280629
 21
-48.32606999999985
 31
0.0
  0
ARC
  5
3286
330
21CC
100
AcDbEntity
  8
0
100
AcDbCircle
 10
207.2987582280629
 20
-45.36838000000011
 30
0.0
 40
1.0
100
AcDbArc
 50
179.9999899999989
 51
195.0000100000147
  0
ARC
  5
3287
330
21CC
100
AcDbEntity
  8
0
100
AcDbCircle
 10
222.7987582280629
 20
-45.36838000000011
 30
0.0
 40
1.0
100
AcDbArc
 50
345.0000000000055
 51
0.0
  0
ARC
  5
3288
330
21CC
100
AcDbEntity
  8
0
100
AcDbCircle
 10
207.2987582280629
 20
45.36833999999998
 30
0.0
 40
1.0
100
AcDbArc
 50
165.0000000000055
 51
180.0000100000009
  0
ARC
  5
3289
330
21CC
100
AcDbEntity
  8
0
100
AcDbCircle
 10
222.7987582280629
 20
45.36833999999998
 30
0.0
 40
1.0
100
AcDbArc
 50
0.0
 51
14.99999999999445
  0
ARC
  5
328A
330
21CC
100
AcDbEntity
  8
0
100
AcDbCircle
 10
210.744348228063
 20
-50.50002999999993
 30
0.0
 40
3.0
100
AcDbArc
 50
195.0000100000147
 51
269.9999970000023
  0
ARC
  5
328B
330
21CC
100
AcDbEntity
  8
0
100
AcDbCircle
 10
219.3531782280629
 20
-50.50002999999993
 30
0.0
 40
3.0
100
AcDbArc
 50
269.9999970000023
 51
345.0000000000055
  0
ARC
  5
328C
330
21CC
100
AcDbEntity
  8
0
100
AcDbCircle
 10
210.744348228063
 20
50.5
 30
0.0
 40
3.0
100
AcDbArc
 50
90.0
 51
164.9999899999852
  0
ARC
  5
328D
330
21CC
100
AcDbEntity
  8
0
100
AcDbCircle
 10
219.3531782280629
 20
50.5
 30
0.0
 40
3.0
100
AcDbArc
 50
14.99999999999445
 51
90.0
  0
ARC
  5
328E
330
21CC
100
AcDbEntity
  8
0
100
AcDbCircle
 10
209.7987582280629
 20
-10.62368999999989
 30
0.0
 40
1.0
100
AcDbArc
 50
318.6000000000059
 51
0.0
  0
ARC
  5
328F
330
21CC
100
AcDbEntity
  8
0
100
AcDbCircle
 10
220.2987582280629
 20
-10.62368999999989
 30
0.0
 40
1.0
100
AcDbArc
 50
179.9999899999989
 51
221.3999999999941
  0
ARC
  5
3290
330
21CC
100
AcDbEntity
  8
0
100
AcDbCircle
 10
206.8221382280628
 20
-14.00000000000022
 30
0.0
 40
1.0
100
AcDbArc
 50
269.9999970000023
 51
318.6000000000059
  0
ARC
  5
3291
330
21CC
100
AcDbEntity
  8
0
100
AcDbCircle
 10
209.2987582280629
 20
-27.20000999999979
 30
0.0
 40
2.0
100
AcDbArc
 50
179.9999899999989
 51
270.0000040000056
  0
ARC
  5
3292
330
21CC
100
AcDbEntity
  8
0
100
AcDbCircle
 10
215.0487582280629
 20
-32.49999999999977
 30
0.0
 40
8.0
100
AcDbArc
 50
240.0000000000006
 51
249.1299300000058
  0
ARC
  5
3293
330
21CC
100
AcDbEntity
  8
0
100
AcDbCircle
 10
215.0487582280629
 20
-17.89999999999986
 30
0.0
 40
7.75
100
AcDbArc
 50
130.4219000000059
 51
179.9999899999989
  0
ARC
  5
3294
330
21CC
100
AcDbEntity
  8
0
100
AcDbCircle
 10
215.0487582280629
 20
7.5
 30
0.0
 40
8.0
100
AcDbArc
 50
60.00000000000068
 51
119.9999999999993
  0
ARC
  5
3295
330
21CC
100
AcDbEntity
  8
0
100
AcDbCircle
 10
210.198788228063
 20
-31.20000999999979
 30
0.0
 40
2.0
100
AcDbArc
 50
359.9999949910365
 51
90.0
  0
ARC
  5
3296
330
21CC
100
AcDbEntity
  8
0
100
AcDbCircle
 10
213.1987882280629
 20
-50.99999999999977
 30
0.0
 40
1.0
100
AcDbArc
 50
179.9999899999989
 51
270.0000040000056
  0
ARC
  5
3297
330
21CC
100
AcDbEntity
  8
0
100
AcDbCircle
 10
216.8987682280628
 20
-50.99999999999977
 30
0.0
 40
1.0
100
AcDbArc
 50
269.9999970000023
 51
0.0
  0
ARC
  5
3298
330
21CC
100
AcDbEntity
  8
0
100
AcDbCircle
 10
219.8987682280628
 20
-31.20000999999979
 30
0.0
 40
2.0
100
AcDbArc
 50
90.0
 51
180.0000100000009
  0
ARC
  5
3299
330
21CC
100
AcDbEntity
  8
0
100
AcDbCircle
 10
220.7987582280629
 20
-27.20000999999979
 30
0.0
 40
2.0
100
AcDbArc
 50
269.9999970000023
 51
0.0
  0
ARC
  5
329A
330
21CC
100
AcDbEntity
  8
0
100
AcDbCircle
 10
215.0487582280629
 20
-32.49999999999977
 30
0.0
 40
8.0
100
AcDbArc
 50
290.8700709999917
 51
299.9999979999987
  0
ARC
  5
329B
330
21CC
100
AcDbEntity
  8
0
100
AcDbCircle
 10
215.0487582280629
 20
-17.89999999999986
 30
0.0
 40
7.75
100
AcDbArc
 50
0.0
 51
49.57807999998817
  0
ARC
  5
329C
330
21CC
100
AcDbEntity
  8
0
100
AcDbCircle
 10
224.0487582280629
 20
12.10000000000013
 30
0.0
 40
0.5
100
AcDbArc
 50
0.0
 51
90.0
  0
ARC
  5
329D
330
21CC
100
AcDbEntity
  8
0
100
AcDbCircle
 10
224.0487582280629
 20
6.899990000000116
 30
0.0
 40
0.5
100
AcDbArc
 50
269.9999970000023
 51
0.0
  0
ARC
  5
329E
330
21CC
100
AcDbEntity
  8
0
100
AcDbCircle
 10
223.2753882280628
 20
-14.00000000000022
 30
0.0
 40
1.0
100
AcDbArc
 50
221.3999999999941
 51
269.9999970000023
  0
ARC
  5
329F
330
21CC
100
AcDbEntity
  8
0
100
AcDbCircle
 10
224.2987582280629
 20
41.72605999999996
 30
0.0
 40
0.5
100
AcDbArc
 50
269.9999970000023
 51
0.0
  0
ARC
  5
32A0
330
21CC
100
AcDbEntity
  8
0
100
AcDbCircle
 10
224.2987582280629
 20
46.92606999999997
 30
0.0
 40
0.5
100
AcDbArc
 50
0.0
 51
90.0
  0
ARC
  5
32A1
330
21CC
100
AcDbEntity
  8
0
100
AcDbCircle
 10
224.2987582280629
 20
-41.72605999999973
 30
0.0
 40
0.5
100
AcDbArc
 50
0.0
 51
90.0
  0
ARC
  5
32A2
330
21CC
100
AcDbEntity
  8
0
100
AcDbCircle
 10
224.2987582280629
 20
-46.92606999999975
 30
0.0
 40
0.5
100
AcDbArc
 50
269.9999970000023
 51
0.0
  0
ARC
  5
32A3
330
21CC
100
AcDbEntity
  8
0
100
AcDbCircle
 10
207.2987582280629
 20
48.32606000000009
 30
0.0
 40
1.0
100
AcDbArc
 50
90.0
 51
180.0000100000009
  0
ARC
  5
32A4
330
21CC
100
AcDbEntity
  8
0
100
AcDbCircle
 10
222.7987582280629
 20
48.32606000000009
 30
0.0
 40
1.0
100
AcDbArc
 50
0.0
 51
90.0
  0
ARC
  5
32A5
330
21CC
100
AcDbEntity
  8
0
100
AcDbCircle
 10
207.2987582280629
 20
-48.32606999999985
 30
0.0
 40
1.0
100
AcDbArc
 50
179.9999899999989
 51
269.9999970000023
  0
ARC
  5
32A6
330
21CC
100
AcDbEntity
  8
0
100
AcDbCircle
 10
222.7987582280629
 20
-48.32606999999985
 30
0.0
 40
1.0
100
AcDbArc
 50
269.9999970000023
 51
0.0
  0
ELLIPSE
  5
32A7
330
21CC
100
AcDbEntity
  8
0
100
AcDbEllipse
 10
206.548758228063
 20
9.5
 30
0.0
 11
0.0
 21
-3.250000099999999
 31
0.0
210
0.0
220
0.0
230
-1.0
 40
0.7692307400000001
 41
0.0
 42
3.1415927
  0
ELLIPSE
  5
32A8
330
21CC
100
AcDbEntity
  8
0
100
AcDbEllipse
 10
206.2987582280629
 20
44.32606000000009
 30
0.0
 11
0.0
 21
-3.250000099999999
 31
0.0
210
0.0
220
0.0
230
-1.0
 40
0.7692307400000001
 41
0.0
 42
3.1415927
  0
ELLIPSE
  5
32A9
330
21CC
100
AcDbEntity
  8
0
100
AcDbEllipse
 10
206.2987582280629
 20
-44.32606999999984
 30
0.0
 11
0.0
 21
3.250000099999999
 31
0.0
210
0.0
220
0.0
230
-1.0
 40
0.7692307400000001
 41
3.1415927
 42
6.283185299999999
  0
ENDSEC
  0
SECTION
  2
OBJECTS
  0
DICTIONARY
  5
21BA
330
0
100
AcDbDictionary
281
     1
  3
ACAD_GROUP
350
21BB
  3
ACAD_LAYOUT
350
21C7
  3
ACAD_MLINESTYLE
350
21C4
  3
ACAD_PLOTSETTINGS
350
21C6
  3
ACAD_PLOTSTYLENAME
350
21BC
  3
AcDbVariableDictionary
350
2238
  0
DICTIONARY
  5
2244
330
21B0
100
AcDbDictionary
280
     1
281
     1
  3
ACAD_LAYERSTATES
360
2245
  0
DICTIONARY
  5
21F8
330
21CC
100
AcDbDictionary
280
     1
281
     1
  3
ACAD_LAYOUTSELFREF
360
2227
  0
DICTIONARY
  5
21FA
330
21C8
100
AcDbDictionary
280
     1
281
     1
  3
ACAD_LAYOUTSELFREF
360
2226
  0
DICTIONARY
  5
21BB
102
{ACAD_REACTORS
330
21BA
102
}
330
21BA
100
AcDbDictionary
281
     1
  0
DICTIONARY
  5
21C7
102
{ACAD_REACTORS
330
21BA
102
}
330
21BA
100
AcDbDictionary
281
     1
  3
Model
350
21CF
  3
ﾚｲｱｳﾄ1
350
21CB
  0
DICTIONARY
  5
21C4
102
{ACAD_REACTORS
330
21BA
102
}
330
21BA
100
AcDbDictionary
281
     1
  3
Standard
350
21C5
  0
DICTIONARY
  5
21C6
102
{ACAD_REACTORS
330
21BA
102
}
330
21BA
100
AcDbDictionary
281
     1
  0
ACDBDICTIONARYWDFLT
  5
21BC
102
{ACAD_REACTORS
330
21BA
102
}
330
21BA
100
AcDbDictionary
281
     1
  3
Normal
350
21BD
100
AcDbDictionaryWithDefault
340
21BD
  0
DICTIONARY
  5
2238
102
{ACAD_REACTORS
330
21BA
102
}
330
21BA
100
AcDbDictionary
281
     1
  3
DIMASSOC
350
2239
  0
DICTIONARY
  5
2245
102
{ACAD_REACTORS
330
2244
102
}
330
2244
100
AcDbDictionary
281
     1
  0
XRECORD
  5
2227
102
{ACAD_REACTORS
330
21F8
102
}
330
21F8
100
AcDbXrecord
280
     1
340
21CC
  0
XRECORD
  5
2226
102
{ACAD_REACTORS
330
21FA
102
}
330
21FA
100
AcDbXrecord
280
     1
340
21C8
  0
LAYOUT
  5
21CF
102
{ACAD_REACTORS
330
21C7
102
}
330
21C7
100
AcDbPlotSettings
  1

  2
SII LP-2150 (D-SCAN C2)
  4

  6

 40
0.0
 41
0.0
 42
0.0
 43
0.0
 44
0.0
 45
0.0
 46
0.0
 47
0.0
 48
0.0
 49
0.0
140
0.0
141
0.0
142
1.0
143
1.0
 70
  1712
 72
     0
 73
     0
 74
     0
  7

 75
     0
147
1.0
148
0.0
149
0.0
100
AcDbLayout
  1
Model
 70
     1
 71
     0
 10
0.0
 20
0.0
 11
12.0
 21
9.0
 12
0.0
 22
0.0
 32
0.0
 14
0.0
 24
0.0
 34
0.0
 15
0.0
 25
0.0
 35
0.0
146
0.0
 13
0.0
 23
0.0
 33
0.0
 16
1.0
 26
0.0
 36
0.0
 17
0.0
 27
1.0
 37
0.0
 76
     0
330
21CC
  0
LAYOUT
  5
21CB
102
{ACAD_REACTORS
330
21C7
102
}
330
21C7
100
AcDbPlotSettings
  1

  2
SII LP-2150 (D-SCAN C2)
  4

  6

 40
0.0
 41
0.0
 42
0.0
 43
0.0
 44
0.0
 45
0.0
 46
0.0
 47
0.0
 48
0.0
 49
0.0
140
0.0
141
0.0
142
1.0
143
1.0
 70
   688
 72
     0
 73
     0
 74
     5
  7

 75
    16
147
1.0
148
0.0
149
0.0
100
AcDbLayout
  1
ﾚｲｱｳﾄ1
 70
     1
 71
     1
 10
0.0
 20
0.0
 11
12.0
 21
9.0
 12
0.0
 22
0.0
 32
0.0
 14
1.000000000000000E+20
 24
1.000000000000000E+20
 34
1.000000000000000E+20
 15
-1.000000000000000E+20
 25
-1.000000000000000E+20
 35
-1.000000000000000E+20
146
0.0
 13
0.0
 23
0.0
 33
0.0
 16
1.0
 26
0.0
 36
0.0
 17
0.0
 27
1.0
 37
0.0
 76
     0
330
21C8
  0
MLINESTYLE
  5
21C5
102
{ACAD_REACTORS
330
21C4
102
}
330
21C4
100
AcDbMlineStyle
  2
STANDARD
 70
     0
  3

 62
   256
 51
90.0
 52
90.0
 71
     2
 49
0.5
 62
   256
  6
BYLAYER
 49
-0.5
 62
   256
  6
BYLAYER
  0
ACDBPLACEHOLDER
  5
21BD
102
{ACAD_REACTORS
330
21BC
102
}
330
21BC
  0
DICTIONARYVAR
  5
2239
102
{ACAD_REACTORS
330
2238
102
}
330
2238
100
DictionaryVariables
280
     0
  1
1
  0
ENDSEC
  0
EOF
