  0
SECTION
  2
HEADER
  9
$ACADVER
  1
AC1015
  9
$ACADMAINTVER
 70
    14
  9
$DWGCODEPAGE
  3
ANSI_932
  9
$INSBASE
 10
0.0
 20
0.0
 30
0.0
  9
$EXTMIN
 10
-51.89257491124454
 20
-75.01051167140906
 30
-0.0000000349181948
  9
$EXTMAX
 10
598.1868407774584
 20
198.0009238100776
 30
0.0000000814935746
  9
$LIMMIN
 10
0.0
 20
0.0
  9
$LIMMAX
 10
12.0
 20
9.0
  9
$ORTHOMODE
 70
     0
  9
$REGENMODE
 70
     1
  9
$FILLMODE
 70
     1
  9
$QTEXTMODE
 70
     0
  9
$MIRRTEXT
 70
     1
  9
$LTSCALE
 40
1.0
  9
$ATTMODE
 70
     1
  9
$TEXTSIZE
 40
0.2
  9
$TRACEWID
 40
0.05
  9
$TEXTSTYLE
  7
STANDARD
  9
$CLAYER
  8
0
  9
$CELTYPE
  6
CONTINUOUS
  9
$CECOLOR
 62
   256
  9
$CELTSCALE
 40
1.0
  9
$DISPSILH
 70
     0
  9
$DIMSCALE
 40
1.0
  9
$DIMASZ
 40
1.0
  9
$DIMEXO
 40
2.54
  9
$DIMDLI
 40
0.38
  9
$DIMRND
 40
0.0
  9
$DIMDLE
 40
0.0
  9
$DIMEXE
 40
2.54
  9
$DIMTP
 40
0.0
  9
$DIMTM
 40
0.0
  9
$DIMTXT
 40
3.2
  9
$DIMCEN
 40
0.09
  9
$DIMTSZ
 40
0.0
  9
$DIMTOL
 70
     0
  9
$DIMLIM
 70
     0
  9
$DIMTIH
 70
     0
  9
$DIMTOH
 70
     0
  9
$DIMSE1
 70
     0
  9
$DIMSE2
 70
     0
  9
$DIMTAD
 70
     1
  9
$DIMZIN
 70
     0
  9
$DIMBLK
  1

  9
$DIMASO
 70
     1
  9
$DIMSHO
 70
     0
  9
$DIMPOST
  1

  9
$DIMAPOST
  1

  9
$DIMALT
 70
     0
  9
$DIMALTD
 70
     2
  9
$DIMALTF
 40
25.4
  9
$DIMLFAC
 40
1.0
  9
$DIMTOFL
 70
     0
  9
$DIMTVP
 40
1.0
  9
$DIMTIX
 70
     0
  9
$DIMSOXD
 70
     0
  9
$DIMSAH
 70
     1
  9
$DIMBLK1
  1

  9
$DIMBLK2
  1

  9
$DIMSTYLE
  2
STANDARD
  9
$DIMCLRD
 70
     0
  9
$DIMCLRE
 70
     0
  9
$DIMCLRT
 70
     0
  9
$DIMTFAC
 40
1.0
  9
$DIMGAP
 40
1.6
  9
$DIMJUST
 70
     0
  9
$DIMSD1
 70
     0
  9
$DIMSD2
 70
     0
  9
$DIMTOLJ
 70
     1
  9
$DIMTZIN
 70
     0
  9
$DIMALTZ
 70
     0
  9
$DIMALTTZ
 70
     0
  9
$DIMUPT
 70
     0
  9
$DIMDEC
 70
     4
  9
$DIMTDEC
 70
     4
  9
$DIMALTU
 70
     2
  9
$DIMALTTD
 70
     2
  9
$DIMTXSTY
  7
STANDARD
  9
$DIMAUNIT
 70
     0
  9
$DIMADEC
 70
     0
  9
$DIMALTRND
 40
0.0
  9
$DIMAZIN
 70
     0
  9
$DIMDSEP
 70
    46
  9
$DIMATFIT
 70
     3
  9
$DIMFRAC
 70
     0
  9
$DIMLDRBLK
  1

  9
$DIMLUNIT
 70
     2
  9
$DIMLWD
 70
    -2
  9
$DIMLWE
 70
    -2
  9
$DIMTMOVE
 70
     0
  9
$LUNITS
 70
     2
  9
$LUPREC
 70
     4
  9
$SKETCHINC
 40
0.1
  9
$FILLETRAD
 40
0.0
  9
$AUNITS
 70
     0
  9
$AUPREC
 70
     0
  9
$MENU
  1
.
  9
$ELEVATION
 40
0.0
  9
$PELEVATION
 40
0.0
  9
$THICKNESS
 40
0.0
  9
$LIMCHECK
 70
     0
  9
$CHAMFERA
 40
0.0
  9
$CHAMFERB
 40
0.0
  9
$CHAMFERC
 40
0.0
  9
$CHAMFERD
 40
0.0
  9
$SKPOLY
 70
     0
  9
$TDCREATE
 40
2452488.423138738
  9
$TDUCREATE
 40
2452488.048138738
  9
$TDUPDATE
 40
2456906.721013680
  9
$TDUUPDATE
 40
2456906.346013680
  9
$TDINDWG
 40
0.2833348148
  9
$TDUSRTIMER
 40
0.2833346296
  9
$USRTIMER
 70
     1
  9
$ANGBASE
 50
0.0
  9
$ANGDIR
 70
     0
  9
$PDMODE
 70
     3
  9
$PDSIZE
 40
0.0
  9
$PLINEWID
 40
0.0
  9
$SPLFRAME
 70
     0
  9
$SPLINETYPE
 70
     6
  9
$SPLINESEGS
 70
     8
  9
$HANDSEED
  5
33DF
  9
$SURFTAB1
 70
     6
  9
$SURFTAB2
 70
     6
  9
$SURFTYPE
 70
     6
  9
$SURFU
 70
     6
  9
$SURFV
 70
     6
  9
$UCSBASE
  2

  9
$UCSNAME
  2

  9
$UCSORG
 10
0.0
 20
0.0
 30
0.0
  9
$UCSXDIR
 10
1.0
 20
0.0
 30
0.0
  9
$UCSYDIR
 10
0.0
 20
1.0
 30
0.0
  9
$UCSORTHOREF
  2

  9
$UCSORTHOVIEW
 70
     0
  9
$UCSORGTOP
 10
0.0
 20
0.0
 30
0.0
  9
$UCSORGBOTTOM
 10
0.0
 20
0.0
 30
0.0
  9
$UCSORGLEFT
 10
0.0
 20
0.0
 30
0.0
  9
$UCSORGRIGHT
 10
0.0
 20
0.0
 30
0.0
  9
$UCSORGFRONT
 10
0.0
 20
0.0
 30
0.0
  9
$UCSORGBACK
 10
0.0
 20
0.0
 30
0.0
  9
$PUCSBASE
  2

  9
$PUCSNAME
  2

  9
$PUCSORG
 10
0.0
 20
0.0
 30
0.0
  9
$PUCSXDIR
 10
1.0
 20
0.0
 30
0.0
  9
$PUCSYDIR
 10
0.0
 20
1.0
 30
0.0
  9
$PUCSORTHOREF
  2

  9
$PUCSORTHOVIEW
 70
     0
  9
$PUCSORGTOP
 10
0.0
 20
0.0
 30
0.0
  9
$PUCSORGBOTTOM
 10
0.0
 20
0.0
 30
0.0
  9
$PUCSORGLEFT
 10
0.0
 20
0.0
 30
0.0
  9
$PUCSORGRIGHT
 10
0.0
 20
0.0
 30
0.0
  9
$PUCSORGFRONT
 10
0.0
 20
0.0
 30
0.0
  9
$PUCSORGBACK
 10
0.0
 20
0.0
 30
0.0
  9
$USERI1
 70
     0
  9
$USERI2
 70
     0
  9
$USERI3
 70
     0
  9
$USERI4
 70
     0
  9
$USERI5
 70
     0
  9
$USERR1
 40
0.0
  9
$USERR2
 40
0.0
  9
$USERR3
 40
0.0
  9
$USERR4
 40
0.0
  9
$USERR5
 40
0.0
  9
$WORLDVIEW
 70
     1
  9
$SHADEDGE
 70
     3
  9
$SHADEDIF
 70
    70
  9
$TILEMODE
 70
     1
  9
$MAXACTVP
 70
    48
  9
$PINSBASE
 10
0.0
 20
0.0
 30
0.0
  9
$PLIMCHECK
 70
     0
  9
$PEXTMIN
 10
1.000000000000000E+20
 20
1.000000000000000E+20
 30
1.000000000000000E+20
  9
$PEXTMAX
 10
-1.000000000000000E+20
 20
-1.000000000000000E+20
 30
-1.000000000000000E+20
  9
$PLIMMIN
 10
0.0
 20
0.0
  9
$PLIMMAX
 10
12.0
 20
9.0
  9
$UNITMODE
 70
     0
  9
$VISRETAIN
 70
     1
  9
$PLINEGEN
 70
     0
  9
$PSLTSCALE
 70
     1
  9
$TREEDEPTH
 70
  3020
  9
$CMLSTYLE
  2
Standard
  9
$CMLJUST
 70
     0
  9
$CMLSCALE
 40
1.0
  9
$PROXYGRAPHICS
 70
     1
  9
$MEASUREMENT
 70
     0
  9
$CELWEIGHT
370
    -1
  9
$ENDCAPS
280
     0
  9
$JOINSTYLE
280
     0
  9
$LWDISPLAY
290
     0
  9
$INSUNITS
 70
     0
  9
$HYPERLINKBASE
  1

  9
$STYLESHEET
  1

  9
$XEDIT
290
     1
  9
$CEPSNTYPE
380
     0
  9
$PSTYLEMODE
290
     1
  9
$FINGERPRINTGUID
  2
{FFE95C04-33D2-4560-80D0-1E2918E4EC86}
  9
$VERSIONGUID
  2
{92FCDF2D-F952-4176-A71B-177423AFD0AE}
  9
$EXTNAMES
290
     1
  9
$PSVPSCALE
 40
0.0
  9
$OLESTARTUP
290
     0
  0
ENDSEC
  0
SECTION
  2
CLASSES
  0
CLASS
  1
ACDBDICTIONARYWDFLT
  2
AcDbDictionaryWithDefault
  3
AutoCAD 2000
 90
        0
280
     0
281
     0
  0
CLASS
  1
ACDBPLACEHOLDER
  2
AcDbPlaceHolder
  3
AutoCAD 2000
 90
        0
280
     0
281
     0
  0
CLASS
  1
LAYOUT
  2
AcDbLayout
  3
AutoCAD 2000
 90
        0
280
     0
281
     0
  0
CLASS
  1
DICTIONARYVAR
  2
AcDbDictionaryVar
  3
AutoCAD 2000
 90
        0
280
     0
281
     0
  0
CLASS
  1
LONG_TRANSACTION
  2
AcDbLongTransaction
  3
AutoCAD 2000
 90
    32768
280
     0
281
     0
  0
CLASS
  1
LWPOLYLINE
  2
AcDbPolyline
  3
AutoCAD 2000
 90
    32768
280
     0
281
     1
  0
CLASS
  1
HATCH
  2
AcDbHatch
  3
AutoCAD 2000
 90
    32768
280
     0
281
     1
  0
CLASS
  1
XRECORD
  2
AcDbXrecord
  3
AutoCAD 2000
 90
    32768
280
     0
281
     0
  0
ENDSEC
  0
SECTION
  2
TABLES
  0
TABLE
  2
VPORT
  5
21B6
330
0
100
AcDbSymbolTable
 70
     2
  0
VPORT
  5
33DE
330
21B6
100
AcDbSymbolTableRecord
100
AcDbViewportTableRecord
  2
*Active
 70
     0
 10
0.0
 20
0.0
 11
1.0
 21
1.0
 12
273.1471329331069
 22
61.49520606933432
 13
0.0
 23
0.0
 14
1.0
 24
1.0
 15
0.0
 25
0.0
 16
0.0
 26
0.0
 36
1.0
 17
0.0
 27
0.0
 37
0.0
 40
333.8772389580751
 41
1.953389830508474
 42
50.0
 43
0.0
 44
0.0
 50
0.0
 51
0.0
 71
     0
 72
   100
 73
     1
 74
     3
 75
     0
 76
     0
 77
     0
 78
     0
281
     0
 65
     1
110
0.0
120
0.0
130
0.0
111
1.0
121
0.0
131
0.0
112
0.0
122
1.0
132
0.0
 79
     0
146
0.0
  0
ENDTAB
  0
TABLE
  2
LTYPE
  5
21B3
330
0
100
AcDbSymbolTable
 70
     2
  0
LTYPE
  5
21C1
330
21B3
100
AcDbSymbolTableRecord
100
AcDbLinetypeTableRecord
  2
ByBlock
 70
     0
  3

 72
    65
 73
     0
 40
0.0
  0
LTYPE
  5
21C2
330
21B3
100
AcDbSymbolTableRecord
100
AcDbLinetypeTableRecord
  2
ByLayer
 70
     0
  3

 72
    65
 73
     0
 40
0.0
  0
LTYPE
  5
21C3
330
21B3
100
AcDbSymbolTableRecord
100
AcDbLinetypeTableRecord
  2
CONTINUOUS
 70
     0
  3
Solid line
 72
    65
 73
     0
 40
0.0
  0
LTYPE
  5
21D1
330
21B3
100
AcDbSymbolTableRecord
100
AcDbLinetypeTableRecord
  2
CENTER
 70
     0
  3
__ . __
 72
    65
 73
     4
 40
7.0
 49
4.0
 74
     0
 49
-1.0
 74
     0
 49
1.0
 74
     0
 49
-1.0
 74
     0
  0
ENDTAB
  0
TABLE
  2
LAYER
  5
21B0
102
{ACAD_XDICTIONARY
360
2244
102
}
330
0
100
AcDbSymbolTable
 70
     1
  0
LAYER
  5
21BE
330
21B0
100
AcDbSymbolTableRecord
100
AcDbLayerTableRecord
  2
0
 70
     0
 62
     7
  6
CONTINUOUS
370
    -3
390
21BD
  0
ENDTAB
  0
TABLE
  2
STYLE
  5
21B1
330
0
100
AcDbSymbolTable
 70
     1
  0
STYLE
  5
21BF
330
21B1
100
AcDbSymbolTableRecord
100
AcDbTextStyleTableRecord
  2
STANDARD
 70
     0
 40
0.0
 41
1.0
 50
0.0
 71
     0
 42
0.2
  3
txt
  4
BIGFONT
  0
ENDTAB
  0
TABLE
  2
VIEW
  5
21B4
330
0
100
AcDbSymbolTable
 70
     1
  0
VIEW
  5
21DE
330
21B4
100
AcDbSymbolTableRecord
100
AcDbViewTableRecord
  2
OLE1
 70
     0
 40
3692.141019219747
 10
1914.591370701856
 20
1272.206200738182
 41
4595.022665841169
 11
0.0
 21
0.0
 31
1.0
 12
0.0
 22
0.0
 32
0.0
 42
50.0
 43
0.0
 44
0.0
 50
0.0
 71
     0
281
     0
 72
     1
110
0.0
120
0.0
130
0.0
111
1.0
121
0.0
131
0.0
112
0.0
122
1.0
132
0.0
 79
     0
146
0.0
  0
ENDTAB
  0
TABLE
  2
UCS
  5
21B5
330
0
100
AcDbSymbolTable
 70
     0
  0
ENDTAB
  0
TABLE
  2
APPID
  5
21B7
330
0
100
AcDbSymbolTable
 70
     8
  0
APPID
  5
21C0
330
21B7
100
AcDbSymbolTableRecord
100
AcDbRegAppTableRecord
  2
ACAD
 70
     0
  0
APPID
  5
21DF
330
21B7
100
AcDbSymbolTableRecord
100
AcDbRegAppTableRecord
  2
MCAD_NO_VIS
 70
     0
  0
APPID
  5
21E0
330
21B7
100
AcDbSymbolTableRecord
100
AcDbRegAppTableRecord
  2
ACAD_TEMP_GRAPHIC
 70
     0
  0
APPID
  5
21E1
330
21B7
100
AcDbSymbolTableRecord
100
AcDbRegAppTableRecord
  2
ACATTRIBSERVICES
 70
     0
  0
APPID
  5
21E2
330
21B7
100
AcDbSymbolTableRecord
100
AcDbRegAppTableRecord
  2
CONTENTBLOCKICON
 70
     0
  0
APPID
  5
2241
330
21B7
100
AcDbSymbolTableRecord
100
AcDbRegAppTableRecord
  2
ACAD_DSTYLE_DIMJAG
 70
     0
  0
APPID
  5
2242
330
21B7
100
AcDbSymbolTableRecord
100
AcDbRegAppTableRecord
  2
ACAD_DSTYLE_DIMTALN
 70
     0
  0
APPID
  5
2243
330
21B7
100
AcDbSymbolTableRecord
100
AcDbRegAppTableRecord
  2
ACAD_PSEXT
 70
     0
  0
ENDTAB
  0
TABLE
  2
DIMSTYLE
  5
21B8
330
0
100
AcDbSymbolTable
 70
     1
100
AcDbDimStyleTable
 71
     0
  0
DIMSTYLE
105
21E3
330
21B8
100
AcDbSymbolTableRecord
100
AcDbDimStyleTableRecord
  2
STANDARD
 70
     0
279
     2
340
21BF
  0
ENDTAB
  0
TABLE
  2
BLOCK_RECORD
  5
21AF
330
0
100
AcDbSymbolTable
 70
     0
  0
BLOCK_RECORD
  5
21CC
102
{ACAD_XDICTIONARY
360
21F8
102
}
330
21AF
100
AcDbSymbolTableRecord
100
AcDbBlockTableRecord
  2
*Model_Space
340
21CF
  0
BLOCK_RECORD
  5
21C8
102
{ACAD_XDICTIONARY
360
21FA
102
}
330
21AF
100
AcDbSymbolTableRecord
100
AcDbBlockTableRecord
  2
*Paper_Space
340
21CB
  0
ENDTAB
  0
ENDSEC
  0
SECTION
  2
BLOCKS
  0
BLOCK
  5
21CD
330
21CC
100
AcDbEntity
  8
0
100
AcDbBlockBegin
  2
*Model_Space
 70
     0
 10
0.0
 20
0.0
 30
0.0
  3
*Model_Space
  1

  0
ENDBLK
  5
21CE
330
21CC
100
AcDbEntity
  8
0
100
AcDbBlockEnd
  0
BLOCK
  5
21C9
330
21C8
100
AcDbEntity
 67
     1
  8
0
100
AcDbBlockBegin
  2
*Paper_Space
 70
     0
 10
0.0
 20
0.0
 30
0.0
  3
*Paper_Space
  1

  0
ENDBLK
  5
21CA
330
21C8
100
AcDbEntity
 67
     1
  8
0
100
AcDbBlockEnd
  0
ENDSEC
  0
SECTION
  2
ENTITIES
  0
TEXT
  5
F6E
330
21CC
100
AcDbEntity
  8
0
  6
Continuous
100
AcDbText
 10
0.0
 20
150.0
 30
0.0
 40
48.000002
  1
STE 1.5S
 41
1.32095
100
AcDbText
  0
LINE
  5
2E00
330
21CC
100
AcDbEntity
  8
0
100
AcDbLine
 10
45.68984999999997
 20
-15.0
 30
0.0
 11
59.50003500000002
 21
-15.0
 31
0.0
  0
LINE
  5
2E01
330
21CC
100
AcDbEntity
  8
0
100
AcDbLine
 10
60.50000999999998
 20
14.00000399999953
 30
0.0
 11
60.50000999999998
 21
5.000003999999535
 31
0.0
  0
LINE
  5
2E02
330
21CC
100
AcDbEntity
  8
0
100
AcDbLine
 10
49.5
 20
-3.999996000000464
 30
0.0
 11
49.5
 21
4.000007999999979
 31
0.0
  0
LINE
  5
2E03
330
21CC
100
AcDbEntity
  8
0
100
AcDbLine
 10
56.80000500000005
 20
-3.999996000000464
 30
0.0
 11
56.80000500000005
 21
-2.499996000000464
 31
0.0
  0
LINE
  5
2E04
330
21CC
100
AcDbEntity
  8
0
100
AcDbLine
 10
60.50000999999998
 20
-4.99999200000002
 30
0.0
 11
60.50000999999998
 21
-13.99999200000002
 31
0.0
  0
LINE
  5
2E05
330
21CC
100
AcDbEntity
  8
0
100
AcDbLine
 10
57.50000999999997
 20
-39.42822150000029
 30
0.0
 11
49.5
 21
-39.42822150000029
 31
0.0
  0
LINE
  5
2E06
330
21CC
100
AcDbEntity
  8
0
100
AcDbLine
 10
56.80000500000005
 20
-39.42822150000029
 30
0.0
 11
56.80000500000005
 21
-29.22265500000048
 31
0.0
  0
LINE
  5
2E07
330
21CC
100
AcDbEntity
  8
0
100
AcDbLine
 10
57.50000999999997
 20
-39.42822150000029
 30
0.0
 11
57.50000999999997
 21
-29.46798149999995
 31
0.0
  0
LINE
  5
2E08
330
21CC
100
AcDbEntity
  8
0
100
AcDbLine
 10
49.5
 20
-39.42822150000029
 30
0.0
 11
49.5
 21
-29.46798149999995
 31
0.0
  0
LINE
  5
2E09
330
21CC
100
AcDbEntity
  8
0
100
AcDbLine
 10
48.50000999999998
 20
-43.0000245000001
 30
0.0
 11
48.50000999999998
 21
-31.20001050000064
 31
0.0
  0
LINE
  5
2E0A
330
21CC
100
AcDbEntity
  8
0
100
AcDbLine
 10
50.20000499999992
 20
-39.42822150000029
 30
0.0
 11
50.20000499999992
 21
-29.22265500000048
 31
0.0
  0
LINE
  5
2E0B
330
21CC
100
AcDbEntity
  8
0
100
AcDbLine
 10
50.20000499999992
 20
-2.500007999999979
 30
0.0
 11
49.500045
 21
-1.287586500000543
 31
0.0
  0
LINE
  5
2E0C
330
21CC
100
AcDbEntity
  8
0
100
AcDbLine
 10
57.50000999999997
 20
-1.287564000000202
 30
0.0
 11
56.80004999999983
 21
-2.499961500000608
 31
0.0
  0
LINE
  5
2E0D
330
21CC
100
AcDbEntity
  8
0
100
AcDbLine
 10
61.25000999999997
 20
-22.03008300000055
 30
0.0
 11
61.25000999999997
 21
-17.90002499999991
 31
0.0
  0
LINE
  5
2E0E
330
21CC
100
AcDbEntity
  8
0
100
AcDbLine
 10
50.50003500000002
 20
-29.20000650000019
 30
0.0
 11
56.50003500000003
 21
-29.20000650000019
 31
0.0
  0
LINE
  5
2E0F
330
21CC
100
AcDbEntity
  8
0
100
AcDbLine
 10
40.33666500000004
 20
-12.72432000000026
 30
0.0
 11
44.27819999999996
 21
-14.99997750000057
 31
0.0
  0
LINE
  5
2E10
330
21CC
100
AcDbEntity
  8
0
100
AcDbLine
 10
67.43934000000013
 20
-52.00002450000011
 30
0.0
 11
39.56067000000007
 21
-52.00002450000011
 31
0.0
  0
LINE
  5
2E11
330
21CC
100
AcDbEntity
  8
0
100
AcDbLine
 10
59.50003500000002
 20
4.000007999999979
 30
0.0
 11
38.11248
 21
4.000007999999979
 31
0.0
  0
LINE
  5
2E12
330
21CC
100
AcDbEntity
  8
0
100
AcDbLine
 10
59.50003500000002
 20
15.0
 30
0.0
 11
45.68984999999997
 21
15.0
 31
0.0
  0
LINE
  5
2E13
330
21CC
100
AcDbEntity
  8
0
100
AcDbLine
 10
-19.43027999999981
 20
-31.3448070000004
 30
0.0
 11
-19.36221
 21
-32.12283300000035
 31
0.0
  0
LINE
  5
2E14
330
21CC
100
AcDbEntity
  8
0
  6
CENTER
100
AcDbLine
 10
68.81917500000009
 20
0.0
 30
0.0
 11
-51.87424499999997
 21
0.0
 31
0.0
  0
LINE
  5
2E15
330
21CC
100
AcDbEntity
  8
0
100
AcDbLine
 10
-18.71159999999986
 20
33.82305749999977
 30
0.0
 11
-17.8920599999999
 21
43.19070749999991
 31
0.0
  0
LINE
  5
2E16
330
21CC
100
AcDbEntity
  8
0
100
AcDbLine
 10
50.20000499999992
 20
-3.999996000000464
 30
0.0
 11
50.20000499999992
 21
-2.499996000000464
 31
0.0
  0
LINE
  5
2E17
330
21CC
100
AcDbEntity
  8
0
100
AcDbLine
 10
59.50003500000002
 20
-3.999996000000464
 30
0.0
 11
38.11248
 21
-3.999996000000464
 31
0.0
  0
LINE
  5
2E18
330
21CC
100
AcDbEntity
  8
0
100
AcDbLine
 10
45.75
 20
-22.03008300000055
 30
0.0
 11
45.75
 21
-17.90002499999991
 31
0.0
  0
LINE
  5
2E19
330
21CC
100
AcDbEntity
  8
0
100
AcDbLine
 10
58.5
 20
-43.0000245000001
 30
0.0
 11
58.5
 21
-31.20001050000064
 31
0.0
  0
LINE
  5
2E1A
330
21CC
100
AcDbEntity
  8
0
100
AcDbLine
 10
-30.67552499999988
 20
-24.4324274999999
 30
0.0
 11
-29.65090499999996
 21
-36.14395049999984
 31
0.0
  0
LINE
  5
2E1B
330
21CC
100
AcDbEntity
  8
0
100
AcDbLine
 10
-27.68775000000005
 20
29.01098249999995
 30
0.0
 11
-34.08659999999986
 21
31.99481250000008
 31
0.0
  0
LINE
  5
2E1C
330
21CC
100
AcDbEntity
  8
0
100
AcDbLine
 10
-17.43017999999983
 20
-32.49956699999984
 30
0.0
 11
-26.11482
 21
-36.54929400000037
 31
0.0
  0
LINE
  5
2E1D
330
21CC
100
AcDbEntity
  8
0
100
AcDbLine
 10
-11.44162499999993
 20
45.58515749999969
 30
0.0
 11
-23.41310999999996
 21
46.63253249999979
 31
0.0
  0
LINE
  5
2E1E
330
21CC
100
AcDbEntity
  8
0
100
AcDbLine
 10
-11.44148999999993
 20
-45.58519350000006
 30
0.0
 11
-23.41306499999995
 21
-46.63256850000016
 31
0.0
  0
LINE
  5
2E1F
330
21CC
100
AcDbEntity
  8
0
100
AcDbLine
 10
-33.75709499999993
 20
-32.7013095000002
 30
0.0
 11
-28.67839499999991
 21
-43.59259950000068
 31
0.0
  0
LINE
  5
2E20
330
21CC
100
AcDbEntity
  8
0
100
AcDbLine
 10
-33.75718500000016
 20
32.70126749999963
 30
0.0
 11
-28.67848500000013
 21
43.59261749999951
 31
0.0
  0
LINE
  5
2E21
330
21CC
100
AcDbEntity
  8
0
100
AcDbLine
 10
-11.28035999999997
 20
-38.48375699999996
 30
0.0
 11
-10.66498500000011
 21
-45.51725549999992
 31
0.0
  0
LINE
  5
2E22
330
21CC
100
AcDbEntity
  8
0
100
AcDbLine
 10
-19.93579500000009
 20
-33.11627250000038
 30
0.0
 11
-28.45821
 21
-37.09033050000016
 31
0.0
  0
LINE
  5
2E23
330
21CC
100
AcDbEntity
  8
0
100
AcDbLine
 10
57.50000999999997
 20
-3.999996000000464
 30
0.0
 11
57.50000999999997
 21
4.000007999999979
 31
0.0
  0
LINE
  5
2E24
330
21CC
100
AcDbEntity
  8
0
100
AcDbLine
 10
-19.43037000000003
 20
31.34477249999963
 30
0.0
 11
-18.5951849999999
 21
40.89078749999953
 31
0.0
  0
LINE
  5
2E25
330
21CC
100
AcDbEntity
  8
0
100
AcDbLine
 10
-6.0
 20
38.86535249999997
 30
0.0
 11
-16.47614999999996
 21
43.7504474999996
 31
0.0
  0
LINE
  5
2E26
330
21CC
100
AcDbEntity
  8
0
100
AcDbLine
 10
-17.43022500000006
 20
32.49954749999961
 30
0.0
 11
-18.13805999999999
 21
32.82962249999946
 31
0.0
  0
LINE
  5
2E27
330
21CC
100
AcDbEntity
  8
0
100
AcDbLine
 10
40.33666500000004
 20
12.72433050000017
 30
0.0
 11
44.2782450000002
 21
15.0
 31
0.0
  0
LINE
  5
2E28
330
21CC
100
AcDbEntity
  8
0
100
AcDbLine
 10
-6.0
 20
-38.99999400000069
 30
0.0
 11
-6.0
 21
38.99999249999927
 31
0.0
  0
LINE
  5
2E29
330
21CC
100
AcDbEntity
  8
0
100
AcDbLine
 10
6.0
 20
38.99999249999927
 30
0.0
 11
6.0
 21
-38.99999400000069
 31
0.0
  0
LINE
  5
2E2A
330
21CC
100
AcDbEntity
  8
0
  6
CENTER
100
AcDbLine
 10
0.0
 20
51.75000749999981
 30
0.0
 11
0.0
 21
-74.99998050000044
 31
0.0
  0
LINE
  5
2E2B
330
21CC
100
AcDbEntity
  8
0
100
AcDbLine
 10
19.05001500000003
 20
-63.49296000000049
 30
0.0
 11
19.05001500000003
 21
-42.69262500000059
 31
0.0
  0
LINE
  5
2E2C
330
21CC
100
AcDbEntity
  8
0
100
AcDbLine
 10
-19.04997000000003
 20
-63.49296000000049
 30
0.0
 11
-19.04997000000003
 21
-46.25085750000017
 31
0.0
  0
LINE
  5
2E2D
330
21CC
100
AcDbEntity
  8
0
100
AcDbLine
 10
-25.24996499999997
 20
-69.99998550000032
 30
0.0
 11
-25.24996499999997
 21
-67.71015450000049
 31
0.0
  0
LINE
  5
2E2E
330
21CC
100
AcDbEntity
  8
0
100
AcDbLine
 10
-18.39688499999988
 20
-64.89336749999984
 30
0.0
 11
18.39688500000011
 21
-64.89336749999984
 31
0.0
  0
LINE
  5
2E2F
330
21CC
100
AcDbEntity
  8
0
100
AcDbLine
 10
-23.78810999999996
 20
-67.14998250000007
 30
0.0
 11
23.78809500000011
 21
-67.14998250000007
 31
0.0
  0
LINE
  5
2E30
330
21CC
100
AcDbEntity
  8
0
100
AcDbLine
 10
25.25000999999997
 20
-69.99998550000032
 30
0.0
 11
25.25000999999997
 21
-67.71015450000049
 31
0.0
  0
LINE
  5
2E31
330
21CC
100
AcDbEntity
  8
0
100
AcDbLine
 10
24.72362999999996
 20
-66.95839800000067
 30
0.0
 11
20.36590499999988
 21
-65.37232649999987
 31
0.0
  0
LINE
  5
2E32
330
21CC
100
AcDbEntity
  8
0
100
AcDbLine
 10
-25.24996499999997
 20
-69.99998550000032
 30
0.0
 11
25.25000999999997
 21
-69.99998550000032
 31
0.0
  0
LINE
  5
2E33
330
21CC
100
AcDbEntity
  8
0
100
AcDbLine
 10
-24.72358499999995
 20
-66.95839800000067
 30
0.0
 11
-20.36585999999988
 21
-65.37232649999987
 31
0.0
  0
LINE
  5
2E34
330
21CC
100
AcDbEntity
  8
0
100
AcDbLine
 10
210.7492418130548
 20
32.25
 30
0.0
 11
210.7492418130548
 21
-32.25
 31
0.0
  0
LINE
  5
2E35
330
21CC
100
AcDbEntity
  8
0
100
AcDbLine
 10
586.592241813055
 20
-19.05001500000071
 30
0.0
 11
560.9691488130554
 21
-19.05001500000071
 31
0.0
  0
LINE
  5
2E36
330
21CC
100
AcDbEntity
  8
0
100
AcDbLine
 10
590.2492703130548
 20
24.19481999999971
 30
0.0
 11
590.2492703130548
 21
-24.19482000000062
 31
0.0
  0
LINE
  5
2E37
330
21CC
100
AcDbEntity
  8
0
100
AcDbLine
 10
590.0576618130551
 20
-24.72361499999988
 30
0.0
 11
588.4716128130551
 21
-20.36598000000048
 31
0.0
  0
LINE
  5
2E38
330
21CC
100
AcDbEntity
  8
0
100
AcDbLine
 10
593.0992838130548
 20
-25.25002500000027
 30
0.0
 11
590.8094348130551
 21
-25.25002500000027
 31
0.0
  0
LINE
  5
2E39
330
21CC
100
AcDbEntity
  8
0
100
AcDbLine
 10
587.9926553130551
 20
-19.05000000000018
 30
0.0
 11
587.9926553130551
 21
19.05000000000018
 31
0.0
  0
LINE
  5
2E3A
330
21CC
100
AcDbEntity
  8
0
  6
CENTER
100
AcDbLine
 10
598.1492633130549
 20
0.0
 30
0.0
 11
150.7492418130548
 21
0.0
 31
0.0
  0
LINE
  5
2E3B
330
21CC
100
AcDbEntity
  8
0
100
AcDbLine
 10
559.1493098130552
 20
18.33263999999962
 30
0.0
 11
559.1493098130552
 21
-18.33264000000053
 31
0.0
  0
LINE
  5
2E3C
330
21CC
100
AcDbEntity
  8
0
100
AcDbLine
 10
273.1492568130549
 20
-31.75000500000078
 30
0.0
 11
542.1942068130549
 21
-31.75000500000078
 31
0.0
  0
LINE
  5
2E3D
330
21CC
100
AcDbEntity
  8
0
100
AcDbLine
 10
545.4081248130548
 20
-30.58021499999995
 30
0.0
 11
557.7552128130553
 21
-20.2197900000001
 31
0.0
  0
LINE
  5
2E3E
330
21CC
100
AcDbEntity
  8
0
100
AcDbLine
 10
544.0140368130548
 20
30.31204499999967
 30
0.0
 11
544.0140368130548
 21
-30.31204500000058
 31
0.0
  0
LINE
  5
2E3F
330
21CC
100
AcDbEntity
  8
0
100
AcDbLine
 10
197.749221813055
 20
5.200004999999691
 30
0.0
 11
202.749231813055
 21
5.200004999999691
 31
0.0
  0
LINE
  5
2E40
330
21CC
100
AcDbEntity
  8
0
  6
CENTER
100
AcDbLine
 10
150.7492418130548
 20
49.99999499999922
 30
0.0
 11
150.7492418130548
 21
-49.99999500000012
 31
0.0
  0
LINE
  5
2E41
330
21CC
100
AcDbEntity
  8
0
100
AcDbLine
 10
156.7492418130548
 20
39.0
 30
0.0
 11
156.7492418130548
 21
6.0
 31
0.0
  0
LINE
  5
2E42
330
21CC
100
AcDbEntity
  8
0
100
AcDbLine
 10
202.749231813055
 20
8.227229999999508
 30
0.0
 11
202.749231813055
 21
-8.227245000000038
 31
0.0
  0
LINE
  5
2E43
330
21CC
100
AcDbEntity
  8
0
100
AcDbLine
 10
197.749221813055
 20
-5.200020000000222
 30
0.0
 11
202.749231813055
 21
-5.200020000000222
 31
0.0
  0
LINE
  5
2E44
330
21CC
100
AcDbEntity
  8
0
100
AcDbLine
 10
203.605251813055
 20
-5.484840000000076
 30
0.0
 11
210.7492418130548
 21
-5.484840000000076
 31
0.0
  0
LINE
  5
2E45
330
21CC
100
AcDbEntity
  8
0
100
AcDbLine
 10
203.605251813055
 20
-10.96966500000053
 30
0.0
 11
210.7492418130548
 21
-10.96966500000053
 31
0.0
  0
LINE
  5
2E46
330
21CC
100
AcDbEntity
  8
0
100
AcDbLine
 10
197.749221813055
 20
6.0
 30
0.0
 11
197.749221813055
 21
-6.0
 31
0.0
  0
LINE
  5
2E47
330
21CC
100
AcDbEntity
  8
0
100
AcDbLine
 10
196.363656813055
 20
-6.0
 30
0.0
 11
197.7492668130551
 21
-5.200020000000222
 31
0.0
  0
LINE
  5
2E48
330
21CC
100
AcDbEntity
  8
0
100
AcDbLine
 10
196.363656813055
 20
6.0
 30
0.0
 11
197.7492668130551
 21
5.200004999999691
 31
0.0
  0
LINE
  5
2E49
330
21CC
100
AcDbEntity
  8
0
100
AcDbLine
 10
203.605251813055
 20
5.484824999999545
 30
0.0
 11
210.7492418130548
 21
5.484824999999545
 31
0.0
  0
LINE
  5
2E4A
330
21CC
100
AcDbEntity
  8
0
100
AcDbLine
 10
203.605251813055
 20
10.96966499999962
 30
0.0
 11
210.7492418130548
 21
10.96966499999962
 31
0.0
  0
LINE
  5
2E4B
330
21CC
100
AcDbEntity
  8
0
100
AcDbLine
 10
152.7492218130551
 20
-6.0
 30
0.0
 11
202.749231813055
 21
-6.0
 31
0.0
  0
LINE
  5
2E4C
330
21CC
100
AcDbEntity
  8
0
100
AcDbLine
 10
156.7492418130548
 20
-39.0
 30
0.0
 11
156.7492418130548
 21
-6.0
 31
0.0
  0
LINE
  5
2E4D
330
21CC
100
AcDbEntity
  8
0
100
AcDbLine
 10
144.7492418130548
 20
39.0
 30
0.0
 11
144.7492418130548
 21
-39.0
 31
0.0
  0
LINE
  5
2E4E
330
21CC
100
AcDbEntity
  8
0
100
AcDbLine
 10
152.7492218130551
 20
6.0
 30
0.0
 11
202.749231813055
 21
6.0
 31
0.0
  0
LINE
  5
2E4F
330
21CC
100
AcDbEntity
  8
0
  6
CENTER
100
AcDbLine
 10
253.0992518130549
 20
0.0
 30
0.0
 11
253.0992518130549
 21
-74.63469000000054
 31
0.0
  0
LINE
  5
2E50
330
21CC
100
AcDbEntity
  8
0
100
AcDbLine
 10
228.749196813055
 20
-31.75000500000078
 30
0.0
 11
233.0520368130551
 21
-31.75000500000078
 31
0.0
  0
LINE
  5
2E51
330
21CC
100
AcDbEntity
  8
0
100
AcDbLine
 10
272.1492668130551
 20
-63.49297500000012
 30
0.0
 11
272.1492668130551
 21
-32.74447500000042
 31
0.0
  0
LINE
  5
2E52
330
21CC
100
AcDbEntity
  8
0
100
AcDbLine
 10
234.0492818130553
 20
-63.49297500000012
 30
0.0
 11
234.0492818130553
 21
-32.74447500000042
 31
0.0
  0
LINE
  5
2E53
330
21CC
100
AcDbEntity
  8
0
100
AcDbLine
 10
227.8492868130549
 20
-69.99999000000002
 30
0.0
 11
227.8492868130549
 21
-67.71016500000041
 31
0.0
  0
LINE
  5
2E54
330
21CC
100
AcDbEntity
  8
0
100
AcDbLine
 10
234.7023668130548
 20
-64.89337500000056
 30
0.0
 11
271.4961818130548
 21
-64.89337500000056
 31
0.0
  0
LINE
  5
2E55
330
21CC
100
AcDbEntity
  8
0
100
AcDbLine
 10
229.3112018130548
 20
-67.14998999999989
 30
0.0
 11
276.8873468130548
 21
-67.14998999999989
 31
0.0
  0
LINE
  5
2E56
330
21CC
100
AcDbEntity
  8
0
100
AcDbLine
 10
278.3492618130551
 20
-69.99999000000002
 30
0.0
 11
278.3492618130551
 21
-67.71016500000041
 31
0.0
  0
LINE
  5
2E57
330
21CC
100
AcDbEntity
  8
0
100
AcDbLine
 10
277.8228818130549
 20
-66.95842500000072
 30
0.0
 11
273.4652018130548
 21
-65.37233999999989
 31
0.0
  0
LINE
  5
2E58
330
21CC
100
AcDbEntity
  8
0
100
AcDbLine
 10
227.8492868130549
 20
-69.99999000000002
 30
0.0
 11
278.3492618130551
 21
-69.99999000000002
 31
0.0
  0
LINE
  5
2E59
330
21CC
100
AcDbEntity
  8
0
100
AcDbLine
 10
228.3756668130552
 20
-66.95839500000056
 30
0.0
 11
232.7333468130548
 21
-65.37233999999989
 31
0.0
  0
ARC
  5
2E5A
330
21CC
100
AcDbEntity
  8
0
100
AcDbCircle
 10
0.0
 20
0.0
 30
0.0
 40
42.4500015
100
AcDbArc
 50
235.5678199999967
 51
236.354820000011
  0
ARC
  5
2E5B
330
21CC
100
AcDbEntity
  8
0
100
AcDbCircle
 10
59.50003500000002
 20
-13.99999200000002
 30
0.0
 40
1.000000035
100
AcDbArc
 50
270.0
 51
0.0
  0
ARC
  5
2E5C
330
21CC
100
AcDbEntity
  8
0
100
AcDbCircle
 10
38.83666500000003
 20
-15.32240400000046
 30
0.0
 40
3.0
100
AcDbArc
 50
59.99996000001402
 51
158.4690600000037
  0
ARC
  5
2E5D
330
21CC
100
AcDbEntity
  8
0
100
AcDbCircle
 10
53.50003500000003
 20
-17.90002499999991
 30
0.0
 40
7.750000499999998
100
AcDbArc
 50
158.0252699999911
 51
180.0
  0
ARC
  5
2E5E
330
21CC
100
AcDbEntity
  8
0
100
AcDbCircle
 10
53.50003500000003
 20
9.500003999999535
 30
0.0
 40
6.0
100
AcDbArc
 50
66.44362899999581
 51
113.5563700000001
  0
ARC
  5
2E5F
330
21CC
100
AcDbEntity
  8
0
100
AcDbCircle
 10
67.43934000000013
 20
-50.00002649999988
 30
0.0
 40
2.000000099999999
100
AcDbArc
 50
270.0
 51
356.5254300000121
  0
ARC
  5
2E60
330
21CC
100
AcDbEntity
  8
0
100
AcDbCircle
 10
53.50003500000003
 20
-17.90002499999991
 30
0.0
 40
7.750000499999998
100
AcDbArc
 50
0.0
 51
26.83097000000443
  0
ARC
  5
2E61
330
21CC
100
AcDbEntity
  8
0
100
AcDbCircle
 10
59.50003500000002
 20
-4.99999200000002
 30
0.0
 40
1.000000035
100
AcDbArc
 50
0.0
 51
90.0
  0
ARC
  5
2E62
330
21CC
100
AcDbEntity
  8
0
100
AcDbCircle
 10
53.50003500000003
 20
-32.5000245000001
 30
0.0
 40
8.000000249999999
100
AcDbArc
 50
240.0000899999964
 51
299.9999100000035
  0
ARC
  5
2E63
330
21CC
100
AcDbEntity
  8
0
100
AcDbCircle
 10
56.50003500000003
 20
-31.20001050000064
 30
0.0
 40
2.000000099999999
100
AcDbArc
 50
0.0
 51
90.0
  0
ARC
  5
2E64
330
21CC
100
AcDbEntity
  8
0
100
AcDbCircle
 10
50.50003500000002
 20
-31.20001050000064
 30
0.0
 40
2.000000099999999
100
AcDbArc
 50
90.0
 51
180.0
  0
CIRCLE
  5
2E65
330
21CC
100
AcDbEntity
  8
0
100
AcDbCircle
 10
53.50003500000003
 20
9.500003999999535
 30
0.0
 40
3.500000249999999
  0
ARC
  5
2E66
330
21CC
100
AcDbEntity
  8
0
100
AcDbCircle
 10
39.56067000000007
 20
-50.00002649999988
 30
0.0
 40
2.000000099999999
100
AcDbArc
 50
183.4745699999878
 51
270.0
  0
ARC
  5
2E67
330
21CC
100
AcDbEntity
  8
0
100
AcDbCircle
 10
-33.66412500000001
 20
-24.69388950000029
 30
0.0
 40
3.0
100
AcDbArc
 50
4.999893400013
 51
36.26156900000236
  0
ARC
  5
2E68
330
21CC
100
AcDbEntity
  8
0
100
AcDbCircle
 10
35.75000999999997
 20
-22.03008300000055
 30
0.0
 40
10.00000049999999
100
AcDbArc
 50
324.7525700000022
 51
0.0
  0
ARC
  5
2E69
330
21CC
100
AcDbEntity
  8
0
100
AcDbCircle
 10
72.50000999999997
 20
-48.00002850000055
 30
0.0
 40
35.00000099999999
100
AcDbArc
 50
144.7524699999951
 51
183.474600000005
  0
ARC
  5
2E6A
330
21CC
100
AcDbEntity
  8
0
100
AcDbCircle
 10
59.50003500000002
 20
5.000003999999535
 30
0.0
 40
1.000000035
100
AcDbArc
 50
270.0
 51
0.0
  0
ARC
  5
2E6B
330
21CC
100
AcDbEntity
  8
0
100
AcDbCircle
 10
53.50003500000003
 20
-43.0000245000001
 30
0.0
 40
5.000000249999999
100
AcDbArc
 50
180.0
 51
0.0
  0
ARC
  5
2E6C
330
21CC
100
AcDbEntity
  8
0
100
AcDbCircle
 10
71.25
 20
-22.03008300000055
 30
0.0
 40
10.00000049999999
100
AcDbArc
 50
180.0
 51
215.2474299999977
  0
ARC
  5
2E6D
330
21CC
100
AcDbEntity
  8
0
100
AcDbCircle
 10
34.5
 20
-48.00002850000055
 30
0.0
 40
35.00000099999999
100
AcDbArc
 50
356.5253999999948
 51
35.24752799999752
  0
ARC
  5
2E6E
330
21CC
100
AcDbEntity
  8
0
100
AcDbCircle
 10
59.50003500000002
 20
14.00000399999953
 30
0.0
 40
1.000000035
100
AcDbArc
 50
0.0
 51
90.0
  0
CIRCLE
  5
2E6F
330
21CC
100
AcDbEntity
  8
0
100
AcDbCircle
 10
53.50003500000003
 20
9.500003999999535
 30
0.0
 40
2.599999949999999
  0
ARC
  5
2E70
330
21CC
100
AcDbEntity
  8
0
100
AcDbCircle
 10
0.0
 20
0.0
 30
0.0
 40
38.75000099999999
100
AcDbArc
 50
255.0058199999966
 51
261.0925599999994
  0
ARC
  5
2E71
330
21CC
100
AcDbEntity
  8
0
100
AcDbCircle
 10
-17.71544999999991
 20
33.73590749999948
 30
0.0
 40
1.000000035
100
AcDbArc
 50
174.9998100000015
 51
245.0004599999944
  0
ARC
  5
2E72
330
21CC
100
AcDbEntity
  8
0
100
AcDbCircle
 10
-16.16235000000006
 20
35.2184774999996
 30
0.0
 40
3.0
100
AcDbArc
 50
244.999760000002
 51
294.6515199999992
  0
ARC
  5
2E73
330
21CC
100
AcDbEntity
  8
0
100
AcDbCircle
 10
0.0
 20
0.0
 30
0.0
 40
46.75000199999999
100
AcDbArc
 50
257.7209799999993
 51
339.59107999999
  0
ARC
  5
2E74
330
21CC
100
AcDbEntity
  8
0
100
AcDbCircle
 10
0.0
 20
0.0
 30
0.0
 40
35.750001
100
AcDbArc
 50
10.40734099999612
 51
80.33819900000191
  0
ARC
  5
2E75
330
21CC
100
AcDbEntity
  8
0
100
AcDbCircle
 10
-38.28872999999998
 20
34.81433250000009
 30
0.0
 40
5.000000249999999
100
AcDbArc
 50
317.7208899999927
 51
334.9999699999944
  0
ARC
  5
2E76
330
21CC
100
AcDbEntity
  8
0
100
AcDbCircle
 10
-16.16230500000006
 20
-35.21848950000003
 30
0.0
 40
3.0
100
AcDbArc
 50
65.34852300001394
 51
115.0002399999979
  0
ARC
  5
2E77
330
21CC
100
AcDbEntity
  8
0
100
AcDbCircle
 10
38.11248
 20
-6.999996000000464
 30
0.0
 40
3.0
100
AcDbArc
 50
90.0
 51
169.5927000000038
  0
ARC
  5
2E78
330
21CC
100
AcDbEntity
  8
0
100
AcDbCircle
 10
0.0
 20
0.0
 30
0.0
 40
35.750001
100
AcDbArc
 50
125.3488400000043
 51
234.6511599999956
  0
ARC
  5
2E79
330
21CC
100
AcDbEntity
  8
0
100
AcDbCircle
 10
-23.87499000000002
 20
-41.35272900000018
 30
0.0
 40
5.30000025
100
AcDbArc
 50
115.000050000002
 51
275.0000400000032
  0
ARC
  5
2E7A
330
21CC
100
AcDbEntity
  8
0
100
AcDbCircle
 10
-38.28863999999999
 20
-34.81439250000039
 30
0.0
 40
5.000000249999999
100
AcDbArc
 50
24.99996700000601
 51
42.27916299999946
  0
ARC
  5
2E7B
330
21CC
100
AcDbEntity
  8
0
100
AcDbCircle
 10
0.0
 20
0.0
 30
0.0
 40
46.75000199999999
100
AcDbArc
 50
137.7210500000119
 51
232.5021500000117
  0
ARC
  5
2E7C
330
21CC
100
AcDbEntity
  8
0
100
AcDbCircle
 10
-10.2841649999998
 20
-38.39660550000008
 30
0.0
 40
1.000000035
100
AcDbArc
 50
75.00539599999351
 51
185.0001899999984
  0
CIRCLE
  5
2E7D
330
21CC
100
AcDbEntity
  8
0
100
AcDbCircle
 10
-23.87499000000002
 20
-41.35272900000018
 30
0.0
 40
2.599999949999999
  0
CIRCLE
  5
2E7E
330
21CC
100
AcDbEntity
  8
0
100
AcDbCircle
 10
-23.87503500000002
 20
41.35271250000005
 30
0.0
 40
2.599999949999999
  0
ARC
  5
2E7F
330
21CC
100
AcDbEntity
  8
0
100
AcDbCircle
 10
-11.00573999999983
 20
-50.56617150000056
 30
0.0
 40
5.000000249999999
100
AcDbArc
 50
77.72125300000578
 51
95.00014200000206
  0
ARC
  5
2E80
330
21CC
100
AcDbEntity
  8
0
100
AcDbCircle
 10
-28.1103599999999
 20
28.10466300000007
 30
0.0
 40
1.000000035
100
AcDbArc
 50
315.0064899999902
 51
65.00045700000739
  0
ARC
  5
2E81
330
21CC
100
AcDbEntity
  8
0
100
AcDbCircle
 10
-11.00583000000006
 20
50.56614749999972
 30
0.0
 40
5.000000249999999
100
AcDbArc
 50
264.9998600000037
 51
282.2792600000003
  0
ARC
  5
2E82
330
21CC
100
AcDbEntity
  8
0
100
AcDbCircle
 10
-22.41887999999994
 20
-31.60626450000018
 30
0.0
 40
3.0
100
AcDbArc
 50
5.000002300011678
 51
54.65121699999316
  0
ARC
  5
2E83
330
21CC
100
AcDbEntity
  8
0
100
AcDbCircle
 10
0.0
 20
0.0
 30
0.0
 40
38.75000099999999
100
AcDbArc
 50
135.0057900000072
 51
216.2614300000161
  0
ARC
  5
2E84
330
21CC
100
AcDbEntity
  8
0
100
AcDbCircle
 10
-23.87503500000002
 20
41.35271250000005
 30
0.0
 40
5.30000025
100
AcDbArc
 50
354.999970000011
 51
155.0001400000009
  0
ARC
  5
2E85
330
21CC
100
AcDbEntity
  8
0
100
AcDbCircle
 10
-20.35840499999995
 20
-32.20998599999984
 30
0.0
 40
1.000000035
100
AcDbArc
 50
294.9994000000024
 51
5.000187399992036
  0
ARC
  5
2E86
330
21CC
100
AcDbEntity
  8
0
100
AcDbCircle
 10
-22.41893999999979
 20
31.60623750000013
 30
0.0
 40
3.0
100
AcDbArc
 50
305.3488500000048
 51
355.0001100000098
  0
ARC
  5
2E87
330
21CC
100
AcDbEntity
  8
0
100
AcDbCircle
 10
0.0
 20
0.0
 30
0.0
 40
46.75000199999999
100
AcDbArc
 50
20.4089200000099
 51
112.5021299999946
  0
ARC
  5
2E88
330
21CC
100
AcDbEntity
  8
0
100
AcDbCircle
 10
0.0
 20
0.0
 30
0.0
 40
38.75000099999999
100
AcDbArc
 50
21.53094099999366
 51
81.09255699999852
  0
ARC
  5
2E89
330
21CC
100
AcDbEntity
  8
0
100
AcDbCircle
 10
0.0
 20
0.0
 30
0.0
 40
42.4500015
100
AcDbArc
 50
115.5678599999959
 51
116.3548600000115
  0
ARC
  5
2E8A
330
21CC
100
AcDbEntity
  8
0
100
AcDbCircle
 10
38.83666500000003
 20
15.32240249999995
 30
0.0
 40
3.0
100
AcDbArc
 50
201.5309399999962
 51
300.0000399999932
  0
ARC
  5
2E8B
330
21CC
100
AcDbEntity
  8
0
100
AcDbCircle
 10
38.11248
 20
7.000007999999979
 30
0.0
 40
3.0
100
AcDbArc
 50
190.4072999999961
 51
270.0
  0
ARC
  5
2E8C
330
21CC
100
AcDbEntity
  8
0
100
AcDbCircle
 10
0.0
 20
0.0
 30
0.0
 40
35.750001
100
AcDbArc
 50
245.3487599999927
 51
260.3381999999941
  0
ARC
  5
2E8D
330
21CC
100
AcDbEntity
  8
0
100
AcDbCircle
 10
45.68984999999997
 20
-16.99999200000002
 30
0.0
 40
2.000000099999999
100
AcDbArc
 50
90.0
 51
159.5910000000113
  0
ARC
  5
2E8E
330
21CC
100
AcDbEntity
  8
0
100
AcDbCircle
 10
45.68984999999997
 20
17.00000399999953
 30
0.0
 40
2.000000099999999
100
AcDbArc
 50
200.4089999999886
 51
270.0
  0
ARC
  5
2E8F
330
21CC
100
AcDbEntity
  8
0
100
AcDbCircle
 10
0.0
 20
38.99999249999927
 30
0.0
 40
6.0
100
AcDbArc
 50
0.0
 51
180.0
  0
ARC
  5
2E90
330
21CC
100
AcDbEntity
  8
0
100
AcDbCircle
 10
0.0
 20
-38.99999400000069
 30
0.0
 40
6.0
100
AcDbArc
 50
180.0
 51
0.0
  0
ARC
  5
2E91
330
21CC
100
AcDbEntity
  8
0
100
AcDbCircle
 10
0.0
 20
0.0
 30
0.0
 40
35.750001
100
AcDbArc
 50
279.6618000000058
 51
349.5926600000098
  0
ARC
  5
2E92
330
21CC
100
AcDbEntity
  8
0
100
AcDbCircle
 10
0.0
 20
0.0
 30
0.0
 40
38.75000099999999
100
AcDbArc
 50
278.9074400000005
 51
338.4690600000037
  0
ARC
  5
2E93
330
21CC
100
AcDbEntity
  8
0
100
AcDbCircle
 10
0.0
 20
0.0
 30
0.0
 40
35.750001
100
AcDbArc
 50
99.66180099999808
 51
114.6512400000062
  0
ARC
  5
2E94
330
21CC
100
AcDbEntity
  8
0
100
AcDbCircle
 10
0.0
 20
0.0
 30
0.0
 40
33.249984
100
AcDbArc
 50
280.3960399999968
 51
79.6039560000052
  0
ARC
  5
2E95
330
21CC
100
AcDbEntity
  8
0
100
AcDbCircle
 10
0.0
 20
0.0
 30
0.0
 40
33.249984
100
AcDbArc
 50
100.3960399999968
 51
259.6039600000031
  0
ARC
  5
2E96
330
21CC
100
AcDbEntity
  8
0
100
AcDbCircle
 10
0.0
 20
0.0
 30
0.0
 40
9.0
100
AcDbArc
 50
311.8103099999909
 51
48.18969500000731
  0
ARC
  5
2E97
330
21CC
100
AcDbEntity
  8
0
100
AcDbCircle
 10
0.0
 20
0.0
 30
0.0
 40
9.0
100
AcDbArc
 50
131.8103099999909
 51
228.1896900000091
  0
ARC
  5
2E98
330
21CC
100
AcDbEntity
  8
0
100
AcDbCircle
 10
24.45002999999997
 20
-67.71015450000049
 30
0.0
 40
0.8000000400000001
100
AcDbArc
 50
0.0
 51
70.00078800000308
  0
ARC
  5
2E99
330
21CC
100
AcDbEntity
  8
0
100
AcDbCircle
 10
-24.44998499999996
 20
-67.71015450000049
 30
0.0
 40
0.8000000400000001
100
AcDbArc
 50
109.9992099999912
 51
180.0
  0
ARC
  5
2E9A
330
21CC
100
AcDbEntity
  8
0
100
AcDbCircle
 10
21.04998
 20
-63.49296000000049
 30
0.0
 40
2.000000099999999
100
AcDbArc
 50
180.0
 51
250.0000900000031
  0
ARC
  5
2E9B
330
21CC
100
AcDbEntity
  8
0
100
AcDbCircle
 10
-21.04994999999985
 20
-63.49296000000049
 30
0.0
 40
2.000000099999999
100
AcDbArc
 50
289.9999099999968
 51
0.0
  0
ARC
  5
2E9C
330
21CC
100
AcDbEntity
  8
0
100
AcDbCircle
 10
253.0992518130549
 20
-53.55691500000012
 30
0.0
 40
28.95589199999999
100
AcDbArc
 50
50.02197499999645
 51
129.9780899999918
  0
ARC
  5
2E9D
330
21CC
100
AcDbEntity
  8
0
100
AcDbCircle
 10
542.1942068130549
 20
-26.74999500000012
 30
0.0
 40
5.000000249999999
100
AcDbArc
 50
270.0
 51
309.9999700000038
  0
ARC
  5
2E9E
330
21CC
100
AcDbEntity
  8
0
100
AcDbCircle
 10
560.9691488130554
 20
-24.05000999999993
 30
0.0
 40
5.000000249999999
100
AcDbArc
 50
90.0
 51
129.9999700000038
  0
ARC
  5
2E9F
330
21CC
100
AcDbEntity
  8
0
100
AcDbCircle
 10
277.5492818130553
 20
-67.71016500000041
 30
0.0
 40
0.8000000400000001
100
AcDbArc
 50
0.0
 51
70.00092799999698
  0
ARC
  5
2EA0
330
21CC
100
AcDbEntity
  8
0
100
AcDbCircle
 10
590.8094348130551
 20
-24.45001500000035
 30
0.0
 40
0.8000000400000001
100
AcDbArc
 50
199.9993499999914
 51
270.0
  0
ARC
  5
2EA1
330
21CC
100
AcDbEntity
  8
0
100
AcDbCircle
 10
211.749231813055
 20
-32.25
 30
0.0
 40
1.000000035
100
AcDbArc
 50
180.0
 51
270.0
  0
ARC
  5
2EA2
330
21CC
100
AcDbEntity
  8
0
100
AcDbCircle
 10
228.6492668130552
 20
-67.71016500000041
 30
0.0
 40
0.8000000400000001
100
AcDbArc
 50
109.9990700000051
 51
180.0
  0
ARC
  5
2EA3
330
21CC
100
AcDbEntity
  8
0
100
AcDbCircle
 10
273.1492568130549
 20
-32.75002500000027
 30
0.0
 40
1.000000035
100
AcDbArc
 50
90.0
 51
180.0
  0
ARC
  5
2EA4
330
21CC
100
AcDbEntity
  8
0
100
AcDbCircle
 10
586.592241813055
 20
-21.05000999999993
 30
0.0
 40
2.000000099999999
100
AcDbArc
 50
19.99991300001514
 51
90.0
  0
ARC
  5
2EA5
330
21CC
100
AcDbEntity
  8
0
100
AcDbCircle
 10
233.0492918130551
 20
-32.75002500000027
 30
0.0
 40
1.000000035
100
AcDbArc
 50
0.0
 51
90.0
  0
ARC
  5
2EA6
330
21CC
100
AcDbEntity
  8
0
100
AcDbCircle
 10
274.1492468130552
 20
-63.49297500000012
 30
0.0
 40
2.000000099999999
100
AcDbArc
 50
180.0
 51
250.0001999999961
  0
ARC
  5
2EA7
330
21CC
100
AcDbEntity
  8
0
100
AcDbCircle
 10
207.5702168130549
 20
-8.227245000000038
 30
0.0
 40
4.821000749999999
100
AcDbArc
 50
145.3301699999905
 51
214.6698300000094
  0
ARC
  5
2EA8
330
21CC
100
AcDbEntity
  8
0
100
AcDbCircle
 10
207.5702168130549
 20
8.227229999999508
 30
0.0
 40
4.821000749999999
100
AcDbArc
 50
145.3301699999905
 51
214.6698300000094
  0
ARC
  5
2EA9
330
21CC
100
AcDbEntity
  8
0
100
AcDbCircle
 10
220.7492318130551
 20
0.0
 30
0.0
 40
18.0
100
AcDbArc
 50
162.2590899999953
 51
197.7277350996509
  0
ARC
  5
2EAA
330
21CC
100
AcDbEntity
  8
0
100
AcDbCircle
 10
150.7492418130548
 20
39.0
 30
0.0
 40
6.0
100
AcDbArc
 50
0.0
 51
180.0
  0
ARC
  5
2EAB
330
21CC
100
AcDbEntity
  8
0
100
AcDbCircle
 10
150.7492418130548
 20
-39.0
 30
0.0
 40
6.0
100
AcDbArc
 50
180.0
 51
0.0
  0
ARC
  5
2EAC
330
21CC
100
AcDbEntity
  8
0
100
AcDbCircle
 10
232.0493168130549
 20
-63.49297500000012
 30
0.0
 40
2.000000099999999
100
AcDbArc
 50
289.9998000000038
 51
0.0
  0
LWPOLYLINE
  5
2EAD
330
21CC
100
AcDbEntity
  8
0
100
AcDbPolyline
 90
        3
 70
     0
 43
0.0
 10
-6.0
 20
6.928218000000015
 10
-9.0
 20
5.19616649999989
 10
-9.0
 20
-5.196133500000541
  0
LWPOLYLINE
  5
2EAE
330
21CC
100
AcDbEntity
  8
0
100
AcDbPolyline
 90
        2
 70
     0
 43
0.0
 10
-9.0
 20
-5.196133500000541
 10
-6.0
 20
-6.928185000000667
  0
LWPOLYLINE
  5
2EAF
330
21CC
100
AcDbEntity
  8
0
100
AcDbPolyline
 90
        4
 70
     0
 43
0.0
 10
6.0
 20
-6.928185000000667
 10
9.0
 20
-5.196133500000541
 10
9.0
 20
5.19616649999989
 10
6.0
 20
6.928218000000015
  0
LINE
  5
2EB0
330
21CC
100
AcDbEntity
  8
0
100
AcDbLine
 10
49.5
 20
-2.500007999999979
 30
0.0
 11
57.50000999999997
 21
-2.500007999999979
 31
0.0
  0
LINE
  5
317D
330
21CC
100
AcDbEntity
  8
0
100
AcDbLine
 10
586.592241813055
 20
19.0500149999998
 30
0.0
 11
560.9691488130554
 21
19.0500149999998
 31
0.0
  0
LINE
  5
317E
330
21CC
100
AcDbEntity
  8
0
100
AcDbLine
 10
590.0576618130551
 20
24.72361499999988
 30
0.0
 11
588.4716128130551
 21
20.36597999999958
 31
0.0
  0
LINE
  5
317F
330
21CC
100
AcDbEntity
  8
0
100
AcDbLine
 10
593.0992838130548
 20
25.25002499999937
 30
0.0
 11
590.8094348130551
 21
25.25002499999937
 31
0.0
  0
LINE
  5
3180
330
21CC
100
AcDbEntity
  8
0
100
AcDbLine
 10
593.0992838130548
 20
-25.24999500000012
 30
0.0
 11
593.0992838130548
 21
25.25002499999937
 31
0.0
  0
LINE
  5
3181
330
21CC
100
AcDbEntity
  8
0
100
AcDbLine
 10
228.7492439605543
 20
31.75000499999987
 30
0.0
 11
542.1942068130549
 21
31.75000499999987
 31
0.0
  0
LINE
  5
3182
330
21CC
100
AcDbEntity
  8
0
100
AcDbLine
 10
545.4081248130548
 20
30.58021499999995
 30
0.0
 11
557.7552128130553
 21
20.2197900000001
 31
0.0
  0
ARC
  5
3183
330
21CC
100
AcDbEntity
  8
0
100
AcDbCircle
 10
542.1942068130549
 20
26.74999500000012
 30
0.0
 40
5.000000249999999
100
AcDbArc
 50
50.00002999999614
 51
90.0
  0
ARC
  5
3184
330
21CC
100
AcDbEntity
  8
0
100
AcDbCircle
 10
560.9691488130554
 20
24.05000999999993
 30
0.0
 40
5.000000249999999
100
AcDbArc
 50
230.0000299999961
 51
270.0
  0
ARC
  5
3185
330
21CC
100
AcDbEntity
  8
0
100
AcDbCircle
 10
590.8094348130551
 20
24.45001499999944
 30
0.0
 40
0.8000000400000001
100
AcDbArc
 50
90.0
 51
160.0006500000084
  0
ARC
  5
3186
330
21CC
100
AcDbEntity
  8
0
100
AcDbCircle
 10
586.592241813055
 20
21.05000999999993
 30
0.0
 40
2.000000099999999
100
AcDbArc
 50
270.0
 51
340.0000869999848
  0
LINE
  5
31EE
330
21CC
100
AcDbEntity
  8
0
100
AcDbLine
 10
228.7492439605543
 20
-38.61837999999989
 30
0.0
 11
228.7492439605543
 21
6.399989999999888
 31
0.0
  0
LINE
  5
31EF
330
21CC
100
AcDbEntity
  8
0
100
AcDbLine
 10
211.7492439605543
 20
-38.61837999999989
 30
0.0
 11
211.7492439605543
 21
6.266289999999571
 31
0.0
  0
LINE
  5
31F0
330
21CC
100
AcDbEntity
  8
0
100
AcDbLine
 10
224.3036639605545
 20
46.74999999999999
 30
0.0
 11
216.1948339605544
 21
46.74999999999999
 31
0.0
  0
LINE
  5
31F1
330
21CC
100
AcDbEntity
  8
0
100
AcDbLine
 10
215.9992439605543
 20
4.0
 30
0.0
 11
211.9992439605543
 21
4.0
 31
0.0
  0
LINE
  5
31F2
330
21CC
100
AcDbEntity
  8
0
100
AcDbLine
 10
224.3036639605545
 20
-46.75003000000015
 30
0.0
 11
223.0992539605545
 21
-46.75003000000015
 31
0.0
  0
LINE
  5
31F3
330
21CC
100
AcDbEntity
  8
0
100
AcDbLine
 10
211.7833139605545
 20
-38.8771800000004
 30
0.0
 11
213.2970339605544
 21
-44.52646000000004
 31
0.0
  0
LINE
  5
31F4
330
21CC
100
AcDbEntity
  8
0
100
AcDbLine
 10
228.7151639605545
 20
-38.87719000000015
 30
0.0
 11
227.2014439605543
 21
-44.52646999999979
 31
0.0
  0
LINE
  5
31F5
330
21CC
100
AcDbEntity
  8
0
100
AcDbLine
 10
227.2014539605545
 20
44.52645000000029
 30
0.0
 11
228.7151839605544
 21
38.87716999999975
 31
0.0
  0
LINE
  5
31F6
330
21CC
100
AcDbEntity
  8
0
100
AcDbLine
 10
213.8928339605545
 20
15.0
 30
0.0
 11
213.8928339605545
 21
43.38346000000001
 31
0.0
  0
LINE
  5
31F7
330
21CC
100
AcDbEntity
  8
0
100
AcDbLine
 10
226.6056639605544
 20
15.0
 30
0.0
 11
226.6056639605544
 21
43.21122999999988
 31
0.0
  0
LINE
  5
31F8
330
21CC
100
AcDbEntity
  8
0
100
AcDbLine
 10
215.7493639605545
 20
-11.28499999999985
 30
0.0
 11
212.7727339605544
 21
-14.66132000000015
 31
0.0
  0
LINE
  5
31F9
330
21CC
100
AcDbEntity
  8
0
100
AcDbLine
 10
224.7491239605544
 20
-11.28503
 30
0.0
 11
227.7257439605544
 21
-14.66135000000031
 31
0.0
  0
LINE
  5
31FA
330
21CC
100
AcDbEntity
  8
0
100
AcDbLine
 10
218.3992739605544
 20
-52.0
 30
0.0
 11
222.0992539605544
 21
-52.0
 31
0.0
  0
LINE
  5
31FB
330
21CC
100
AcDbEntity
  8
0
100
AcDbLine
 10
217.3992739605544
 20
-51.0
 30
0.0
 11
217.3992739605544
 21
-31.20001000000047
 31
0.0
  0
LINE
  5
31FC
330
21CC
100
AcDbEntity
  8
0
100
AcDbLine
 10
212.0226239605544
 20
-15.0
 30
0.0
 11
211.9992439605543
 21
-15.0
 31
0.0
  0
LINE
  5
31FD
330
21CC
100
AcDbEntity
  8
0
100
AcDbLine
 10
215.9992439605543
 20
-4.0
 30
0.0
 11
211.9992439605543
 21
-4.0
 31
0.0
  0
LINE
  5
31FE
330
21CC
100
AcDbEntity
  8
0
100
AcDbLine
 10
215.9992439605543
 20
4.0
 30
0.0
 11
215.9992439605543
 21
15.0
 31
0.0
  0
LINE
  5
31FF
330
21CC
100
AcDbEntity
  8
0
100
AcDbLine
 10
215.9992439605543
 20
15.0
 30
0.0
 11
211.9992439605543
 21
15.0
 31
0.0
  0
LINE
  5
3200
330
21CC
100
AcDbEntity
  8
0
100
AcDbLine
 10
215.9992439605543
 20
-10.62369000000035
 30
0.0
 11
215.9992439605543
 21
-4.0
 31
0.0
  0
LINE
  5
3201
330
21CC
100
AcDbEntity
  8
0
100
AcDbLine
 10
216.2492439605543
 20
-12.0
 30
0.0
 11
216.2492439605543
 21
14.42818999999963
 31
0.0
  0
LINE
  5
3202
330
21CC
100
AcDbEntity
  8
0
100
AcDbLine
 10
216.2492439605543
 20
-39.42823000000044
 30
0.0
 11
216.2492439605543
 21
-29.38961999999992
 31
0.0
  0
LINE
  5
3203
330
21CC
100
AcDbEntity
  8
0
100
AcDbLine
 10
212.4992439605544
 20
-27.20001000000047
 30
0.0
 11
212.4992439605544
 21
-17.90000000000054
 31
0.0
  0
LINE
  5
3204
330
21CC
100
AcDbEntity
  8
0
100
AcDbLine
 10
214.4992439605544
 20
-29.20001000000047
 30
0.0
 11
225.9992439605543
 21
-29.20001000000047
 31
0.0
  0
LINE
  5
3205
330
21CC
100
AcDbEntity
  8
0
100
AcDbLine
 10
215.2240739605545
 20
-12.0
 30
0.0
 11
225.2744539605544
 21
-12.0
 31
0.0
  0
LINE
  5
3206
330
21CC
100
AcDbEntity
  8
0
100
AcDbLine
 10
228.4992439605543
 20
12.59999999999945
 30
0.0
 11
228.9992439605544
 21
12.59999999999945
 31
0.0
  0
LINE
  5
3207
330
21CC
100
AcDbEntity
  8
0
100
AcDbLine
 10
228.4992439605543
 20
6.399989999999888
 30
0.0
 11
228.9992439605544
 21
6.399989999999888
 31
0.0
  0
LINE
  5
3208
330
21CC
100
AcDbEntity
  8
0
100
AcDbLine
 10
223.0992539605545
 20
-51.0
 30
0.0
 11
223.0992539605545
 21
-31.20001000000047
 31
0.0
  0
LINE
  5
3209
330
21CC
100
AcDbEntity
  8
0
100
AcDbLine
 10
228.4758739605545
 20
-15.0
 30
0.0
 11
228.4992439605543
 21
-15.0
 31
0.0
  0
LINE
  5
320A
330
21CC
100
AcDbEntity
  8
0
100
AcDbLine
 10
224.4992439605543
 20
-4.0
 30
0.0
 11
228.4992439605543
 21
-4.0
 31
0.0
  0
LINE
  5
320B
330
21CC
100
AcDbEntity
  8
0
100
AcDbLine
 10
224.4992439605543
 20
4.0
 30
0.0
 11
224.4992439605543
 21
15.0
 31
0.0
  0
LINE
  5
320C
330
21CC
100
AcDbEntity
  8
0
100
AcDbLine
 10
224.4992439605543
 20
4.0
 30
0.0
 11
228.4992439605543
 21
4.0
 31
0.0
  0
LINE
  5
320D
330
21CC
100
AcDbEntity
  8
0
100
AcDbLine
 10
224.4992439605543
 20
15.0
 30
0.0
 11
228.4992439605543
 21
15.0
 31
0.0
  0
LINE
  5
320E
330
21CC
100
AcDbEntity
  8
0
100
AcDbLine
 10
224.4992439605543
 20
-10.62369000000035
 30
0.0
 11
224.4992439605543
 21
-4.0
 31
0.0
  0
LINE
  5
320F
330
21CC
100
AcDbEntity
  8
0
100
AcDbLine
 10
224.2492439605543
 20
-12.0
 30
0.0
 11
224.2492439605543
 21
14.42818999999963
 31
0.0
  0
LINE
  5
3210
330
21CC
100
AcDbEntity
  8
0
100
AcDbLine
 10
224.2492439605543
 20
-39.42823000000044
 30
0.0
 11
224.2492439605543
 21
-29.38961999999992
 31
0.0
  0
LINE
  5
3211
330
21CC
100
AcDbEntity
  8
0
100
AcDbLine
 10
227.9992439605543
 20
-27.20001000000047
 30
0.0
 11
227.9992439605543
 21
-17.90000000000054
 31
0.0
  0
LINE
  5
3212
330
21CC
100
AcDbEntity
  8
0
100
AcDbLine
 10
226.6056639605544
 20
-29.00737000000026
 30
0.0
 11
226.6056639605544
 21
-44.21312000000034
 31
0.0
  0
LINE
  5
3213
330
21CC
100
AcDbEntity
  8
0
100
AcDbLine
 10
213.8928339605545
 20
-29.00737000000026
 30
0.0
 11
213.8928339605545
 21
-44.06271999999989
 31
0.0
  0
LINE
  5
3214
330
21CC
100
AcDbEntity
  8
0
100
AcDbLine
 10
229.4992439605544
 20
6.899989999999888
 30
0.0
 11
229.4992439605544
 21
12.09999999999945
 31
0.0
  0
LINE
  5
3215
330
21CC
100
AcDbEntity
  8
0
100
AcDbLine
 10
229.7492439605544
 20
34.97605999999996
 30
0.0
 11
229.7492439605544
 21
40.17606999999952
 31
0.0
  0
LINE
  5
3216
330
21CC
100
AcDbEntity
  8
0
100
AcDbLine
 10
228.2492439605543
 20
40.67606999999952
 30
0.0
 11
229.2492439605544
 21
40.67606999999952
 31
0.0
  0
LINE
  5
3217
330
21CC
100
AcDbEntity
  8
0
100
AcDbLine
 10
228.7492439605543
 20
34.47605999999996
 30
0.0
 11
229.2492439605544
 21
34.47605999999996
 31
0.0
  0
LINE
  5
3218
330
21CC
100
AcDbEntity
  8
0
100
AcDbLine
 10
229.7492439605544
 20
-34.97605999999996
 30
0.0
 11
229.7492439605544
 21
-40.17607000000043
 31
0.0
  0
LINE
  5
3219
330
21CC
100
AcDbEntity
  8
0
100
AcDbLine
 10
228.7492439605543
 20
-34.47605999999996
 30
0.0
 11
229.2492439605544
 21
-34.47605999999996
 31
0.0
  0
LINE
  5
321A
330
21CC
100
AcDbEntity
  8
0
100
AcDbLine
 10
228.2331639605545
 20
-40.67607000000044
 30
0.0
 11
229.2492439605544
 21
-40.67607000000044
 31
0.0
  0
LINE
  5
321B
330
21CC
100
AcDbEntity
  8
0
100
AcDbLine
 10
211.9992439605543
 20
-15.0
 30
0.0
 11
211.9992439605543
 21
15.0
 31
0.0
  0
LINE
  5
321C
330
21CC
100
AcDbEntity
  8
0
100
AcDbLine
 10
228.4992439605543
 20
-15.0
 30
0.0
 11
228.4992439605543
 21
15.0
 31
0.0
  0
LINE
  5
321D
330
21CC
100
AcDbEntity
  8
0
100
AcDbLine
 10
211.7492439605543
 20
12.73369999999977
 30
0.0
 11
211.7492439605543
 21
38.61833999999999
 31
0.0
  0
LINE
  5
321E
330
21CC
100
AcDbEntity
  8
0
100
AcDbLine
 10
228.7492439605543
 20
12.59999999999945
 30
0.0
 11
228.7492439605543
 21
38.61833999999999
 31
0.0
  0
LINE
  5
321F
330
21CC
100
AcDbEntity
  8
0
100
AcDbLine
 10
211.7492439605543
 20
40.82605999999941
 30
0.0
 11
212.2492439605543
 21
40.82605999999941
 31
0.0
  0
LINE
  5
3220
330
21CC
100
AcDbEntity
  8
0
100
AcDbLine
 10
211.7492439605543
 20
-40.82607000000007
 30
0.0
 11
212.2492439605543
 21
-40.82607000000007
 31
0.0
  0
LINE
  5
3221
330
21CC
100
AcDbEntity
  8
0
100
AcDbLine
 10
212.7492439605544
 20
42.57605999999941
 30
0.0
 11
212.7744439605544
 21
42.57605999999941
 31
0.0
  0
LINE
  5
3222
330
21CC
100
AcDbEntity
  8
0
100
AcDbLine
 10
211.7492439605543
 20
40.82605999999941
 30
0.0
 11
211.7492439605543
 21
41.57605999999941
 31
0.0
  0
LINE
  5
3223
330
21CC
100
AcDbEntity
  8
0
100
AcDbLine
 10
228.7492439605543
 20
40.67606999999952
 30
0.0
 11
228.7492439605543
 21
41.57605999999941
 31
0.0
  0
LINE
  5
3224
330
21CC
100
AcDbEntity
  8
0
100
AcDbLine
 10
213.2970539605544
 20
44.52645000000029
 30
0.0
 11
211.7833239605545
 21
38.87715000000025
 31
0.0
  0
LINE
  5
3225
330
21CC
100
AcDbEntity
  8
0
100
AcDbLine
 10
211.7492439605543
 20
-40.82607000000007
 30
0.0
 11
211.7492439605543
 21
-41.57607000000007
 31
0.0
  0
LINE
  5
3226
330
21CC
100
AcDbEntity
  8
0
100
AcDbLine
 10
228.7492439605543
 20
-40.67607000000044
 30
0.0
 11
228.7492439605543
 21
-41.57607000000007
 31
0.0
  0
LINE
  5
3227
330
21CC
100
AcDbEntity
  8
0
100
AcDbLine
 10
217.3992739605544
 20
-46.75003000000015
 30
0.0
 11
216.1948339605544
 21
-46.75003000000015
 31
0.0
  0
ARC
  5
3228
330
21CC
100
AcDbEntity
  8
0
100
AcDbCircle
 10
212.7492439605544
 20
-38.61837999999989
 30
0.0
 40
1.0
100
AcDbArc
 50
179.9999899999989
 51
195.0000100000155
  0
ARC
  5
3229
330
21CC
100
AcDbEntity
  8
0
100
AcDbCircle
 10
227.7492439605544
 20
-38.61837999999989
 30
0.0
 40
1.0
100
AcDbArc
 50
345.0000000000055
 51
0.0
  0
ARC
  5
322A
330
21CC
100
AcDbEntity
  8
0
100
AcDbCircle
 10
212.7492439605544
 20
38.61833999999999
 30
0.0
 40
1.0
100
AcDbArc
 50
165.0000000000055
 51
180.0000100000009
  0
ARC
  5
322B
330
21CC
100
AcDbEntity
  8
0
100
AcDbCircle
 10
227.7492439605544
 20
38.61833999999999
 30
0.0
 40
1.0
100
AcDbArc
 50
0.0
 51
14.99999999999445
  0
ARC
  5
322C
330
21CC
100
AcDbEntity
  8
0
100
AcDbCircle
 10
216.1948339605544
 20
-43.75003000000015
 30
0.0
 40
3.0
100
AcDbArc
 50
195.0000100000155
 51
269.9999970000023
  0
ARC
  5
322D
330
21CC
100
AcDbEntity
  8
0
100
AcDbCircle
 10
224.3036639605545
 20
-43.75003000000015
 30
0.0
 40
3.0
100
AcDbArc
 50
269.9999970000023
 51
345.0000000000055
  0
ARC
  5
322E
330
21CC
100
AcDbEntity
  8
0
100
AcDbCircle
 10
216.1948339605544
 20
43.75
 30
0.0
 40
3.0
100
AcDbArc
 50
90.0
 51
164.9999899999844
  0
ARC
  5
322F
330
21CC
100
AcDbEntity
  8
0
100
AcDbCircle
 10
224.3036639605545
 20
43.75
 30
0.0
 40
3.0
100
AcDbArc
 50
14.99999999999445
 51
90.0
  0
ARC
  5
3230
330
21CC
100
AcDbEntity
  8
0
100
AcDbCircle
 10
214.9992439605544
 20
-10.62369000000035
 30
0.0
 40
1.0
100
AcDbArc
 50
318.6000000000052
 51
0.0
  0
ARC
  5
3231
330
21CC
100
AcDbEntity
  8
0
100
AcDbCircle
 10
225.4992439605544
 20
-10.62369000000035
 30
0.0
 40
1.0
100
AcDbArc
 50
179.9999899999989
 51
221.3999999999947
  0
ARC
  5
3232
330
21CC
100
AcDbEntity
  8
0
100
AcDbCircle
 10
212.0226239605544
 20
-14.0
 30
0.0
 40
1.0
100
AcDbArc
 50
269.9999970000023
 51
318.6000000000052
  0
ARC
  5
3233
330
21CC
100
AcDbEntity
  8
0
100
AcDbCircle
 10
214.4992439605544
 20
-27.20001000000047
 30
0.0
 40
2.0
100
AcDbArc
 50
179.9999899999989
 51
270.0000040000056
  0
ARC
  5
3234
330
21CC
100
AcDbEntity
  8
0
100
AcDbCircle
 10
220.2492439605543
 20
-32.5
 30
0.0
 40
8.0
100
AcDbArc
 50
240.0000000000006
 51
249.1299300000058
  0
ARC
  5
3235
330
21CC
100
AcDbEntity
  8
0
100
AcDbCircle
 10
220.2492439605543
 20
-17.90000000000054
 30
0.0
 40
7.75
100
AcDbArc
 50
130.4219000000114
 51
179.9999899999989
  0
ARC
  5
3236
330
21CC
100
AcDbEntity
  8
0
100
AcDbCircle
 10
220.2492439605543
 20
7.5
 30
0.0
 40
8.0
100
AcDbArc
 50
60.00000000000068
 51
119.9999999999993
  0
ARC
  5
3237
330
21CC
100
AcDbEntity
  8
0
100
AcDbCircle
 10
215.3992739605544
 20
-31.20001000000047
 30
0.0
 40
2.0
100
AcDbArc
 50
359.9999949910625
 51
90.0
  0
ARC
  5
3238
330
21CC
100
AcDbEntity
  8
0
100
AcDbCircle
 10
218.3992739605544
 20
-51.0
 30
0.0
 40
1.0
100
AcDbArc
 50
179.9999899999989
 51
270.0000040000056
  0
ARC
  5
3239
330
21CC
100
AcDbEntity
  8
0
100
AcDbCircle
 10
222.0992539605544
 20
-51.0
 30
0.0
 40
1.0
100
AcDbArc
 50
269.9999970000023
 51
0.0
  0
ARC
  5
323A
330
21CC
100
AcDbEntity
  8
0
100
AcDbCircle
 10
225.0992539605545
 20
-31.20001000000047
 30
0.0
 40
2.0
100
AcDbArc
 50
90.0
 51
180.0000100000009
  0
ARC
  5
323B
330
21CC
100
AcDbEntity
  8
0
100
AcDbCircle
 10
225.9992439605543
 20
-27.20001000000047
 30
0.0
 40
2.0
100
AcDbArc
 50
269.9999970000023
 51
0.0
  0
ARC
  5
323C
330
21CC
100
AcDbEntity
  8
0
100
AcDbCircle
 10
220.2492439605543
 20
-32.5
 30
0.0
 40
8.0
100
AcDbArc
 50
290.8700709999917
 51
299.9999979999987
  0
ARC
  5
323D
330
21CC
100
AcDbEntity
  8
0
100
AcDbCircle
 10
220.2492439605543
 20
-17.90000000000054
 30
0.0
 40
7.75
100
AcDbArc
 50
0.0
 51
49.57807999998765
  0
ARC
  5
323E
330
21CC
100
AcDbEntity
  8
0
100
AcDbCircle
 10
228.9992439605544
 20
12.09999999999945
 30
0.0
 40
0.5
100
AcDbArc
 50
0.0
 51
90.0
  0
ARC
  5
323F
330
21CC
100
AcDbEntity
  8
0
100
AcDbCircle
 10
228.9992439605544
 20
6.899989999999888
 30
0.0
 40
0.5
100
AcDbArc
 50
269.9999970000023
 51
0.0
  0
ARC
  5
3240
330
21CC
100
AcDbEntity
  8
0
100
AcDbCircle
 10
228.4758739605545
 20
-14.0
 30
0.0
 40
1.0
100
AcDbArc
 50
221.3999999999947
 51
269.9999970000023
  0
ARC
  5
3241
330
21CC
100
AcDbEntity
  8
0
100
AcDbCircle
 10
229.2492439605544
 20
34.97605999999996
 30
0.0
 40
0.5
100
AcDbArc
 50
269.9999970000023
 51
0.0
  0
ARC
  5
3242
330
21CC
100
AcDbEntity
  8
0
100
AcDbCircle
 10
229.2492439605544
 20
40.17606999999952
 30
0.0
 40
0.5
100
AcDbArc
 50
0.0
 51
90.0
  0
ARC
  5
3243
330
21CC
100
AcDbEntity
  8
0
100
AcDbCircle
 10
229.2492439605544
 20
-34.97605999999996
 30
0.0
 40
0.5
100
AcDbArc
 50
0.0
 51
90.0
  0
ARC
  5
3244
330
21CC
100
AcDbEntity
  8
0
100
AcDbCircle
 10
229.2492439605544
 20
-40.17607000000043
 30
0.0
 40
0.5
100
AcDbArc
 50
269.9999970000023
 51
0.0
  0
ARC
  5
3245
330
21CC
100
AcDbEntity
  8
0
100
AcDbCircle
 10
212.7492439605544
 20
41.57605999999941
 30
0.0
 40
1.0
100
AcDbArc
 50
90.0
 51
180.0000100000009
  0
ARC
  5
3246
330
21CC
100
AcDbEntity
  8
0
100
AcDbCircle
 10
227.7492439605544
 20
41.57605999999941
 30
0.0
 40
1.0
100
AcDbArc
 50
0.0
 51
90.0
  0
ARC
  5
3247
330
21CC
100
AcDbEntity
  8
0
100
AcDbCircle
 10
212.7492439605544
 20
-41.57607000000007
 30
0.0
 40
1.0
100
AcDbArc
 50
179.9999899999989
 51
269.9999970000023
  0
ARC
  5
3248
330
21CC
100
AcDbEntity
  8
0
100
AcDbCircle
 10
227.7492439605544
 20
-41.57607000000007
 30
0.0
 40
1.0
100
AcDbArc
 50
269.9999970000023
 51
0.0
  0
ELLIPSE
  5
3249
330
21CC
100
AcDbEntity
  8
0
100
AcDbEllipse
 10
211.9992439605543
 20
9.5
 30
0.0
 11
0.0
 21
-3.250000099999999
 31
0.0
210
0.0
220
0.0
230
-1.0
 40
0.7692307400000001
 41
0.0
 42
3.1415927
  0
ELLIPSE
  5
324A
330
21CC
100
AcDbEntity
  8
0
100
AcDbEllipse
 10
211.7492439605543
 20
37.57605999999941
 30
0.0
 11
0.0
 21
-3.250000099999999
 31
0.0
210
0.0
220
0.0
230
-1.0
 40
0.7692307400000001
 41
0.0
 42
3.1415927
  0
ELLIPSE
  5
324B
330
21CC
100
AcDbEntity
  8
0
100
AcDbEllipse
 10
211.7492439605543
 20
-37.57607000000007
 30
0.0
 11
0.0
 21
3.250000099999999
 31
0.0
210
0.0
220
0.0
230
-1.0
 40
0.7692307400000001
 41
3.1415927
 42
6.283185299999999
  0
ARC
  5
324C
330
21CC
100
AcDbEntity
  8
0
100
AcDbCircle
 10
211.749231813055
 20
32.25
 30
0.0
 40
1.000000035
100
AcDbArc
 50
90.0
 51
180.0
  0
ENDSEC
  0
SECTION
  2
OBJECTS
  0
DICTIONARY
  5
21BA
330
0
100
AcDbDictionary
281
     1
  3
ACAD_GROUP
350
21BB
  3
ACAD_LAYOUT
350
21C7
  3
ACAD_MLINESTYLE
350
21C4
  3
ACAD_PLOTSETTINGS
350
21C6
  3
ACAD_PLOTSTYLENAME
350
21BC
  3
AcDbVariableDictionary
350
2238
  0
DICTIONARY
  5
2244
330
21B0
100
AcDbDictionary
280
     1
281
     1
  3
ACAD_LAYERSTATES
360
2245
  0
DICTIONARY
  5
21F8
330
21CC
100
AcDbDictionary
280
     1
281
     1
  3
ACAD_LAYOUTSELFREF
360
2227
  0
DICTIONARY
  5
21FA
330
21C8
100
AcDbDictionary
280
     1
281
     1
  3
ACAD_LAYOUTSELFREF
360
2226
  0
DICTIONARY
  5
21BB
102
{ACAD_REACTORS
330
21BA
102
}
330
21BA
100
AcDbDictionary
281
     1
  0
DICTIONARY
  5
21C7
102
{ACAD_REACTORS
330
21BA
102
}
330
21BA
100
AcDbDictionary
281
     1
  3
Model
350
21CF
  3
ﾚｲｱｳﾄ1
350
21CB
  0
DICTIONARY
  5
21C4
102
{ACAD_REACTORS
330
21BA
102
}
330
21BA
100
AcDbDictionary
281
     1
  3
Standard
350
21C5
  0
DICTIONARY
  5
21C6
102
{ACAD_REACTORS
330
21BA
102
}
330
21BA
100
AcDbDictionary
281
     1
  0
ACDBDICTIONARYWDFLT
  5
21BC
102
{ACAD_REACTORS
330
21BA
102
}
330
21BA
100
AcDbDictionary
281
     1
  3
Normal
350
21BD
100
AcDbDictionaryWithDefault
340
21BD
  0
DICTIONARY
  5
2238
102
{ACAD_REACTORS
330
21BA
102
}
330
21BA
100
AcDbDictionary
281
     1
  3
DIMASSOC
350
2239
  0
DICTIONARY
  5
2245
102
{ACAD_REACTORS
330
2244
102
}
330
2244
100
AcDbDictionary
281
     1
  0
XRECORD
  5
2227
102
{ACAD_REACTORS
330
21F8
102
}
330
21F8
100
AcDbXrecord
280
     1
340
21CC
  0
XRECORD
  5
2226
102
{ACAD_REACTORS
330
21FA
102
}
330
21FA
100
AcDbXrecord
280
     1
340
21C8
  0
LAYOUT
  5
21CF
102
{ACAD_REACTORS
330
21C7
102
}
330
21C7
100
AcDbPlotSettings
  1

  2
SII LP-2150 (D-SCAN C2)
  4

  6

 40
0.0
 41
0.0
 42
0.0
 43
0.0
 44
0.0
 45
0.0
 46
0.0
 47
0.0
 48
0.0
 49
0.0
140
0.0
141
0.0
142
1.0
143
1.0
 70
  1712
 72
     0
 73
     0
 74
     0
  7

 75
     0
147
1.0
148
0.0
149
0.0
100
AcDbLayout
  1
Model
 70
     1
 71
     0
 10
0.0
 20
0.0
 11
12.0
 21
9.0
 12
0.0
 22
0.0
 32
0.0
 14
0.0
 24
0.0
 34
0.0
 15
0.0
 25
0.0
 35
0.0
146
0.0
 13
0.0
 23
0.0
 33
0.0
 16
1.0
 26
0.0
 36
0.0
 17
0.0
 27
1.0
 37
0.0
 76
     0
330
21CC
  0
LAYOUT
  5
21CB
102
{ACAD_REACTORS
330
21C7
102
}
330
21C7
100
AcDbPlotSettings
  1

  2
SII LP-2150 (D-SCAN C2)
  4

  6

 40
0.0
 41
0.0
 42
0.0
 43
0.0
 44
0.0
 45
0.0
 46
0.0
 47
0.0
 48
0.0
 49
0.0
140
0.0
141
0.0
142
1.0
143
1.0
 70
   688
 72
     0
 73
     0
 74
     5
  7

 75
    16
147
1.0
148
0.0
149
0.0
100
AcDbLayout
  1
ﾚｲｱｳﾄ1
 70
     1
 71
     1
 10
0.0
 20
0.0
 11
12.0
 21
9.0
 12
0.0
 22
0.0
 32
0.0
 14
1.000000000000000E+20
 24
1.000000000000000E+20
 34
1.000000000000000E+20
 15
-1.000000000000000E+20
 25
-1.000000000000000E+20
 35
-1.000000000000000E+20
146
0.0
 13
0.0
 23
0.0
 33
0.0
 16
1.0
 26
0.0
 36
0.0
 17
0.0
 27
1.0
 37
0.0
 76
     0
330
21C8
  0
MLINESTYLE
  5
21C5
102
{ACAD_REACTORS
330
21C4
102
}
330
21C4
100
AcDbMlineStyle
  2
STANDARD
 70
     0
  3

 62
   256
 51
90.0
 52
90.0
 71
     2
 49
0.5
 62
   256
  6
BYLAYER
 49
-0.5
 62
   256
  6
BYLAYER
  0
ACDBPLACEHOLDER
  5
21BD
102
{ACAD_REACTORS
330
21BC
102
}
330
21BC
  0
DICTIONARYVAR
  5
2239
102
{ACAD_REACTORS
330
2238
102
}
330
2238
100
DictionaryVariables
280
     0
  1
1
  0
ENDSEC
  0
EOF
