  0
SECTION
  2
HEADER
  9
$ACADVER
  1
AC1015
  9
$ACADMAINTVER
 70
    14
  9
$DWGCODEPAGE
  3
ANSI_932
  9
$INSBASE
 10
0.0
 20
0.0
 30
0.0
  9
$EXTMIN
 10
-51.90443236162195
 20
-78.00306922674701
 30
-0.0000000349181948
  9
$EXTMAX
 10
489.2383603743101
 20
198.0127505975245
 30
0.0000000814935746
  9
$LIMMIN
 10
0.0
 20
0.0
  9
$LIMMAX
 10
12.0
 20
9.0
  9
$ORTHOMODE
 70
     0
  9
$REGENMODE
 70
     1
  9
$FILLMODE
 70
     1
  9
$QTEXTMODE
 70
     0
  9
$MIRRTEXT
 70
     1
  9
$LTSCALE
 40
1.0
  9
$ATTMODE
 70
     1
  9
$TEXTSIZE
 40
0.2
  9
$TRACEWID
 40
0.05
  9
$TEXTSTYLE
  7
STANDARD
  9
$CLAYER
  8
0
  9
$CELTYPE
  6
CONTINUOUS
  9
$CECOLOR
 62
   256
  9
$CELTSCALE
 40
1.0
  9
$DISPSILH
 70
     0
  9
$DIMSCALE
 40
1.0
  9
$DIMASZ
 40
1.0
  9
$DIMEXO
 40
2.54
  9
$DIMDLI
 40
0.38
  9
$DIMRND
 40
0.0
  9
$DIMDLE
 40
0.0
  9
$DIMEXE
 40
2.54
  9
$DIMTP
 40
0.0
  9
$DIMTM
 40
0.0
  9
$DIMTXT
 40
3.2
  9
$DIMCEN
 40
0.09
  9
$DIMTSZ
 40
0.0
  9
$DIMTOL
 70
     0
  9
$DIMLIM
 70
     0
  9
$DIMTIH
 70
     0
  9
$DIMTOH
 70
     0
  9
$DIMSE1
 70
     0
  9
$DIMSE2
 70
     0
  9
$DIMTAD
 70
     1
  9
$DIMZIN
 70
     0
  9
$DIMBLK
  1

  9
$DIMASO
 70
     1
  9
$DIMSHO
 70
     0
  9
$DIMPOST
  1

  9
$DIMAPOST
  1

  9
$DIMALT
 70
     0
  9
$DIMALTD
 70
     2
  9
$DIMALTF
 40
25.4
  9
$DIMLFAC
 40
1.0
  9
$DIMTOFL
 70
     0
  9
$DIMTVP
 40
1.0
  9
$DIMTIX
 70
     0
  9
$DIMSOXD
 70
     0
  9
$DIMSAH
 70
     1
  9
$DIMBLK1
  1

  9
$DIMBLK2
  1

  9
$DIMSTYLE
  2
STANDARD
  9
$DIMCLRD
 70
     0
  9
$DIMCLRE
 70
     0
  9
$DIMCLRT
 70
     0
  9
$DIMTFAC
 40
1.0
  9
$DIMGAP
 40
1.6
  9
$DIMJUST
 70
     0
  9
$DIMSD1
 70
     0
  9
$DIMSD2
 70
     0
  9
$DIMTOLJ
 70
     1
  9
$DIMTZIN
 70
     0
  9
$DIMALTZ
 70
     0
  9
$DIMALTTZ
 70
     0
  9
$DIMUPT
 70
     0
  9
$DIMDEC
 70
     4
  9
$DIMTDEC
 70
     4
  9
$DIMALTU
 70
     2
  9
$DIMALTTD
 70
     2
  9
$DIMTXSTY
  7
STANDARD
  9
$DIMAUNIT
 70
     0
  9
$DIMADEC
 70
     0
  9
$DIMALTRND
 40
0.0
  9
$DIMAZIN
 70
     0
  9
$DIMDSEP
 70
    46
  9
$DIMATFIT
 70
     3
  9
$DIMFRAC
 70
     0
  9
$DIMLDRBLK
  1

  9
$DIMLUNIT
 70
     2
  9
$DIMLWD
 70
    -2
  9
$DIMLWE
 70
    -2
  9
$DIMTMOVE
 70
     0
  9
$LUNITS
 70
     2
  9
$LUPREC
 70
     4
  9
$SKETCHINC
 40
0.1
  9
$FILLETRAD
 40
0.0
  9
$AUNITS
 70
     0
  9
$AUPREC
 70
     0
  9
$MENU
  1
.
  9
$ELEVATION
 40
0.0
  9
$PELEVATION
 40
0.0
  9
$THICKNESS
 40
0.0
  9
$LIMCHECK
 70
     0
  9
$CHAMFERA
 40
0.0
  9
$CHAMFERB
 40
0.0
  9
$CHAMFERC
 40
0.0
  9
$CHAMFERD
 40
0.0
  9
$SKPOLY
 70
     0
  9
$TDCREATE
 40
2452488.423138738
  9
$TDUCREATE
 40
2452488.048138738
  9
$TDUPDATE
 40
2456906.721021180
  9
$TDUUPDATE
 40
2456906.346021180
  9
$TDINDWG
 40
0.2850298495
  9
$TDUSRTIMER
 40
0.2850296644
  9
$USRTIMER
 70
     1
  9
$ANGBASE
 50
0.0
  9
$ANGDIR
 70
     0
  9
$PDMODE
 70
     3
  9
$PDSIZE
 40
0.0
  9
$PLINEWID
 40
0.0
  9
$SPLFRAME
 70
     0
  9
$SPLINETYPE
 70
     6
  9
$SPLINESEGS
 70
     8
  9
$HANDSEED
  5
409F
  9
$SURFTAB1
 70
     6
  9
$SURFTAB2
 70
     6
  9
$SURFTYPE
 70
     6
  9
$SURFU
 70
     6
  9
$SURFV
 70
     6
  9
$UCSBASE
  2

  9
$UCSNAME
  2

  9
$UCSORG
 10
0.0
 20
0.0
 30
0.0
  9
$UCSXDIR
 10
1.0
 20
0.0
 30
0.0
  9
$UCSYDIR
 10
0.0
 20
1.0
 30
0.0
  9
$UCSORTHOREF
  2

  9
$UCSORTHOVIEW
 70
     0
  9
$UCSORGTOP
 10
0.0
 20
0.0
 30
0.0
  9
$UCSORGBOTTOM
 10
0.0
 20
0.0
 30
0.0
  9
$UCSORGLEFT
 10
0.0
 20
0.0
 30
0.0
  9
$UCSORGRIGHT
 10
0.0
 20
0.0
 30
0.0
  9
$UCSORGFRONT
 10
0.0
 20
0.0
 30
0.0
  9
$UCSORGBACK
 10
0.0
 20
0.0
 30
0.0
  9
$PUCSBASE
  2

  9
$PUCSNAME
  2

  9
$PUCSORG
 10
0.0
 20
0.0
 30
0.0
  9
$PUCSXDIR
 10
1.0
 20
0.0
 30
0.0
  9
$PUCSYDIR
 10
0.0
 20
1.0
 30
0.0
  9
$PUCSORTHOREF
  2

  9
$PUCSORTHOVIEW
 70
     0
  9
$PUCSORGTOP
 10
0.0
 20
0.0
 30
0.0
  9
$PUCSORGBOTTOM
 10
0.0
 20
0.0
 30
0.0
  9
$PUCSORGLEFT
 10
0.0
 20
0.0
 30
0.0
  9
$PUCSORGRIGHT
 10
0.0
 20
0.0
 30
0.0
  9
$PUCSORGFRONT
 10
0.0
 20
0.0
 30
0.0
  9
$PUCSORGBACK
 10
0.0
 20
0.0
 30
0.0
  9
$USERI1
 70
     0
  9
$USERI2
 70
     0
  9
$USERI3
 70
     0
  9
$USERI4
 70
     0
  9
$USERI5
 70
     0
  9
$USERR1
 40
0.0
  9
$USERR2
 40
0.0
  9
$USERR3
 40
0.0
  9
$USERR4
 40
0.0
  9
$USERR5
 40
0.0
  9
$WORLDVIEW
 70
     1
  9
$SHADEDGE
 70
     3
  9
$SHADEDIF
 70
    70
  9
$TILEMODE
 70
     1
  9
$MAXACTVP
 70
    48
  9
$PINSBASE
 10
0.0
 20
0.0
 30
0.0
  9
$PLIMCHECK
 70
     0
  9
$PEXTMIN
 10
1.000000000000000E+20
 20
1.000000000000000E+20
 30
1.000000000000000E+20
  9
$PEXTMAX
 10
-1.000000000000000E+20
 20
-1.000000000000000E+20
 30
-1.000000000000000E+20
  9
$PLIMMIN
 10
0.0
 20
0.0
  9
$PLIMMAX
 10
12.0
 20
9.0
  9
$UNITMODE
 70
     0
  9
$VISRETAIN
 70
     1
  9
$PLINEGEN
 70
     0
  9
$PSLTSCALE
 70
     1
  9
$TREEDEPTH
 70
  3020
  9
$CMLSTYLE
  2
Standard
  9
$CMLJUST
 70
     0
  9
$CMLSCALE
 40
1.0
  9
$PROXYGRAPHICS
 70
     1
  9
$MEASUREMENT
 70
     0
  9
$CELWEIGHT
370
    -1
  9
$ENDCAPS
280
     0
  9
$JOINSTYLE
280
     0
  9
$LWDISPLAY
290
     0
  9
$INSUNITS
 70
     0
  9
$HYPERLINKBASE
  1

  9
$STYLESHEET
  1

  9
$XEDIT
290
     1
  9
$CEPSNTYPE
380
     0
  9
$PSTYLEMODE
290
     1
  9
$FINGERPRINTGUID
  2
{FFE95C04-33D2-4560-80D0-1E2918E4EC86}
  9
$VERSIONGUID
  2
{C6671336-776B-4FDE-8FB8-DBA6040FF6A8}
  9
$EXTNAMES
290
     1
  9
$PSVPSCALE
 40
0.0
  9
$OLESTARTUP
290
     0
  0
ENDSEC
  0
SECTION
  2
CLASSES
  0
CLASS
  1
ACDBDICTIONARYWDFLT
  2
AcDbDictionaryWithDefault
  3
AutoCAD 2000
 90
        0
280
     0
281
     0
  0
CLASS
  1
ACDBPLACEHOLDER
  2
AcDbPlaceHolder
  3
AutoCAD 2000
 90
        0
280
     0
281
     0
  0
CLASS
  1
LAYOUT
  2
AcDbLayout
  3
AutoCAD 2000
 90
        0
280
     0
281
     0
  0
CLASS
  1
DICTIONARYVAR
  2
AcDbDictionaryVar
  3
AutoCAD 2000
 90
        0
280
     0
281
     0
  0
CLASS
  1
LONG_TRANSACTION
  2
AcDbLongTransaction
  3
AutoCAD 2000
 90
    32768
280
     0
281
     0
  0
CLASS
  1
LWPOLYLINE
  2
AcDbPolyline
  3
AutoCAD 2000
 90
    32768
280
     0
281
     1
  0
CLASS
  1
HATCH
  2
AcDbHatch
  3
AutoCAD 2000
 90
    32768
280
     0
281
     1
  0
CLASS
  1
XRECORD
  2
AcDbXrecord
  3
AutoCAD 2000
 90
    32768
280
     0
281
     0
  0
ENDSEC
  0
SECTION
  2
TABLES
  0
TABLE
  2
VPORT
  5
21B6
330
0
100
AcDbSymbolTable
 70
     2
  0
VPORT
  5
409E
330
21B6
100
AcDbSymbolTableRecord
100
AcDbViewportTableRecord
  2
*Active
 70
     0
 10
0.0
 20
0.0
 11
1.0
 21
1.0
 12
218.666964006344
 22
60.00484068538877
 13
0.0
 23
0.0
 14
1.0
 24
1.0
 15
0.0
 25
0.0
 16
0.0
 26
0.0
 36
1.0
 17
0.0
 27
0.0
 37
0.0
 40
277.927984120717
 41
1.953389830508474
 42
50.0
 43
0.0
 44
0.0
 50
0.0
 51
0.0
 71
     0
 72
   100
 73
     1
 74
     3
 75
     0
 76
     0
 77
     0
 78
     0
281
     0
 65
     1
110
0.0
120
0.0
130
0.0
111
1.0
121
0.0
131
0.0
112
0.0
122
1.0
132
0.0
 79
     0
146
0.0
  0
ENDTAB
  0
TABLE
  2
LTYPE
  5
21B3
330
0
100
AcDbSymbolTable
 70
     2
  0
LTYPE
  5
21C1
330
21B3
100
AcDbSymbolTableRecord
100
AcDbLinetypeTableRecord
  2
ByBlock
 70
     0
  3

 72
    65
 73
     0
 40
0.0
  0
LTYPE
  5
21C2
330
21B3
100
AcDbSymbolTableRecord
100
AcDbLinetypeTableRecord
  2
ByLayer
 70
     0
  3

 72
    65
 73
     0
 40
0.0
  0
LTYPE
  5
21C3
330
21B3
100
AcDbSymbolTableRecord
100
AcDbLinetypeTableRecord
  2
CONTINUOUS
 70
     0
  3
Solid line
 72
    65
 73
     0
 40
0.0
  0
LTYPE
  5
21D1
330
21B3
100
AcDbSymbolTableRecord
100
AcDbLinetypeTableRecord
  2
CENTER
 70
     0
  3
__ . __
 72
    65
 73
     4
 40
7.0
 49
4.0
 74
     0
 49
-1.0
 74
     0
 49
1.0
 74
     0
 49
-1.0
 74
     0
  0
ENDTAB
  0
TABLE
  2
LAYER
  5
21B0
102
{ACAD_XDICTIONARY
360
2244
102
}
330
0
100
AcDbSymbolTable
 70
     1
  0
LAYER
  5
21BE
330
21B0
100
AcDbSymbolTableRecord
100
AcDbLayerTableRecord
  2
0
 70
     0
 62
     7
  6
CONTINUOUS
370
    -3
390
21BD
  0
ENDTAB
  0
TABLE
  2
STYLE
  5
21B1
330
0
100
AcDbSymbolTable
 70
     1
  0
STYLE
  5
21BF
330
21B1
100
AcDbSymbolTableRecord
100
AcDbTextStyleTableRecord
  2
STANDARD
 70
     0
 40
0.0
 41
1.0
 50
0.0
 71
     0
 42
0.2
  3
txt
  4
BIGFONT
  0
ENDTAB
  0
TABLE
  2
VIEW
  5
21B4
330
0
100
AcDbSymbolTable
 70
     1
  0
VIEW
  5
21DE
330
21B4
100
AcDbSymbolTableRecord
100
AcDbViewTableRecord
  2
OLE1
 70
     0
 40
3692.141019219747
 10
1914.591370701856
 20
1272.206200738182
 41
4595.022665841169
 11
0.0
 21
0.0
 31
1.0
 12
0.0
 22
0.0
 32
0.0
 42
50.0
 43
0.0
 44
0.0
 50
0.0
 71
     0
281
     0
 72
     1
110
0.0
120
0.0
130
0.0
111
1.0
121
0.0
131
0.0
112
0.0
122
1.0
132
0.0
 79
     0
146
0.0
  0
ENDTAB
  0
TABLE
  2
UCS
  5
21B5
330
0
100
AcDbSymbolTable
 70
     0
  0
ENDTAB
  0
TABLE
  2
APPID
  5
21B7
330
0
100
AcDbSymbolTable
 70
     8
  0
APPID
  5
21C0
330
21B7
100
AcDbSymbolTableRecord
100
AcDbRegAppTableRecord
  2
ACAD
 70
     0
  0
APPID
  5
21DF
330
21B7
100
AcDbSymbolTableRecord
100
AcDbRegAppTableRecord
  2
MCAD_NO_VIS
 70
     0
  0
APPID
  5
21E0
330
21B7
100
AcDbSymbolTableRecord
100
AcDbRegAppTableRecord
  2
ACAD_TEMP_GRAPHIC
 70
     0
  0
APPID
  5
21E1
330
21B7
100
AcDbSymbolTableRecord
100
AcDbRegAppTableRecord
  2
ACATTRIBSERVICES
 70
     0
  0
APPID
  5
21E2
330
21B7
100
AcDbSymbolTableRecord
100
AcDbRegAppTableRecord
  2
CONTENTBLOCKICON
 70
     0
  0
APPID
  5
2241
330
21B7
100
AcDbSymbolTableRecord
100
AcDbRegAppTableRecord
  2
ACAD_DSTYLE_DIMJAG
 70
     0
  0
APPID
  5
2242
330
21B7
100
AcDbSymbolTableRecord
100
AcDbRegAppTableRecord
  2
ACAD_DSTYLE_DIMTALN
 70
     0
  0
APPID
  5
2243
330
21B7
100
AcDbSymbolTableRecord
100
AcDbRegAppTableRecord
  2
ACAD_PSEXT
 70
     0
  0
ENDTAB
  0
TABLE
  2
DIMSTYLE
  5
21B8
330
0
100
AcDbSymbolTable
 70
     1
100
AcDbDimStyleTable
 71
     0
  0
DIMSTYLE
105
21E3
330
21B8
100
AcDbSymbolTableRecord
100
AcDbDimStyleTableRecord
  2
STANDARD
 70
     0
279
     2
340
21BF
  0
ENDTAB
  0
TABLE
  2
BLOCK_RECORD
  5
21AF
330
0
100
AcDbSymbolTable
 70
     0
  0
BLOCK_RECORD
  5
21CC
102
{ACAD_XDICTIONARY
360
21F8
102
}
330
21AF
100
AcDbSymbolTableRecord
100
AcDbBlockTableRecord
  2
*Model_Space
340
21CF
  0
BLOCK_RECORD
  5
21C8
102
{ACAD_XDICTIONARY
360
21FA
102
}
330
21AF
100
AcDbSymbolTableRecord
100
AcDbBlockTableRecord
  2
*Paper_Space
340
21CB
  0
ENDTAB
  0
ENDSEC
  0
SECTION
  2
BLOCKS
  0
BLOCK
  5
21CD
330
21CC
100
AcDbEntity
  8
0
100
AcDbBlockBegin
  2
*Model_Space
 70
     0
 10
0.0
 20
0.0
 30
0.0
  3
*Model_Space
  1

  0
ENDBLK
  5
21CE
330
21CC
100
AcDbEntity
  8
0
100
AcDbBlockEnd
  0
BLOCK
  5
21C9
330
21C8
100
AcDbEntity
 67
     1
  8
0
100
AcDbBlockBegin
  2
*Paper_Space
 70
     0
 10
0.0
 20
0.0
 30
0.0
  3
*Paper_Space
  1

  0
ENDBLK
  5
21CA
330
21C8
100
AcDbEntity
 67
     1
  8
0
100
AcDbBlockEnd
  0
ENDSEC
  0
SECTION
  2
ENTITIES
  0
TEXT
  5
F6E
330
21CC
100
AcDbEntity
  8
0
  6
Continuous
100
AcDbText
 10
0.0
 20
150.0
 30
0.0
 40
48.000002
  1
STE 1S
 41
1.32095
100
AcDbText
  0
LINE
  5
3F7E
330
21CC
100
AcDbEntity
  8
0
100
AcDbLine
 10
248.0873491089803
 20
-31.74999000000002
 30
0.0
 11
428.6921791089805
 21
-31.74999000000002
 31
0.0
  0
LINE
  5
3F7F
330
21CC
100
AcDbEntity
  8
0
100
AcDbLine
 10
247.0873741089803
 20
-61.18174500000009
 30
0.0
 11
247.0873741089803
 21
-32.75000999999997
 31
0.0
  0
LINE
  5
3F80
330
21CC
100
AcDbEntity
  8
0
100
AcDbLine
 10
221.6874391089802
 20
-61.18174500000009
 30
0.0
 11
221.6874391089802
 21
-32.75000999999997
 31
0.0
  0
LINE
  5
3F81
330
21CC
100
AcDbEntity
  8
0
100
AcDbLine
 10
145.3873591089804
 20
-39.0
 30
0.0
 11
145.3873591089804
 21
-6.0
 31
0.0
  0
LINE
  5
3F82
330
21CC
100
AcDbEntity
  8
0
100
AcDbLine
 10
56.79996000000006
 20
-39.42823499999997
 30
0.0
 11
56.79996000000006
 21
-29.22265500000003
 31
0.0
  0
LINE
  5
3F83
330
21CC
100
AcDbEntity
  8
0
100
AcDbLine
 10
57.49996499999998
 20
-39.42823499999997
 30
0.0
 11
57.49996499999998
 21
-29.46799499999997
 31
0.0
  0
LINE
  5
3F84
330
21CC
100
AcDbEntity
  8
0
100
AcDbLine
 10
49.5
 20
-39.42823499999997
 30
0.0
 11
49.5
 21
-29.46799499999997
 31
0.0
  0
LINE
  5
3F85
330
21CC
100
AcDbEntity
  8
0
100
AcDbLine
 10
48.49996499999997
 20
-43.00003500000002
 30
0.0
 11
48.49996499999997
 21
-31.20000000000004
 31
0.0
  0
LINE
  5
3F86
330
21CC
100
AcDbEntity
  8
0
100
AcDbLine
 10
50.20000499999992
 20
-39.42823499999997
 30
0.0
 11
50.20000499999992
 21
-29.22265500000003
 31
0.0
  0
LINE
  5
3F87
330
21CC
100
AcDbEntity
  8
0
100
AcDbLine
 10
58.5
 20
-43.00003500000002
 30
0.0
 11
58.5
 21
-31.20000000000004
 31
0.0
  0
ARC
  5
3F88
330
21CC
100
AcDbEntity
  8
0
100
AcDbCircle
 10
34.5
 20
-48.000045
 30
0.0
 40
35.00000099999999
100
AcDbArc
 50
356.5254000000014
 51
35.24753500000405
  0
LINE
  5
3F89
330
21CC
100
AcDbEntity
  8
0
  6
CENTER
100
AcDbLine
 10
139.3873591089805
 20
49.99999500000007
 30
0.0
 11
139.3873591089805
 21
-49.99999500000001
 31
0.0
  0
LINE
  5
3F8A
330
21CC
100
AcDbEntity
  8
0
100
AcDbLine
 10
133.3873591089804
 20
-39.0
 30
0.0
 11
133.3873591089804
 21
38.99999999999994
 31
0.0
  0
LINE
  5
3F8B
330
21CC
100
AcDbEntity
  8
0
100
AcDbLine
 10
-11.28040499999997
 20
-38.48377500000003
 30
0.0
 11
-10.66503
 21
-45.51727500000004
 31
0.0
  0
ARC
  5
3F8C
330
21CC
100
AcDbEntity
  8
0
100
AcDbCircle
 10
-23.87499000000002
 20
-41.35275000000001
 30
0.0
 40
5.30000025
100
AcDbArc
 50
115.0000799999998
 51
275.0000499999978
  0
CIRCLE
  5
3F8D
330
21CC
100
AcDbEntity
  8
0
100
AcDbCircle
 10
-23.87499000000002
 20
-41.35275000000001
 30
0.0
 40
2.599999949999999
  0
LINE
  5
3F8E
330
21CC
100
AcDbEntity
  8
0
100
AcDbLine
 10
-33.75709500000005
 20
-32.70133499999997
 30
0.0
 11
-28.67844000000002
 21
-43.59262499999999
 31
0.0
  0
LINE
  5
3F8F
330
21CC
100
AcDbEntity
  8
0
100
AcDbLine
 10
-6.0
 20
-39.0
 30
0.0
 11
-6.0
 21
38.99999999999994
 31
0.0
  0
LINE
  5
3F90
330
21CC
100
AcDbEntity
  8
0
100
AcDbLine
 10
6.0
 20
38.99999999999994
 30
0.0
 11
6.0
 21
-39.0
 31
0.0
  0
ARC
  5
3F91
330
21CC
100
AcDbEntity
  8
0
100
AcDbCircle
 10
72.49996499999998
 20
-48.000045
 30
0.0
 40
35.00000099999999
100
AcDbArc
 50
144.7524599999967
 51
183.4745999999985
  0
ARC
  5
3F92
330
21CC
100
AcDbEntity
  8
0
100
AcDbCircle
 10
0.0
 20
0.0
 30
0.0
 40
46.75000199999999
100
AcDbArc
 50
257.7209799999993
 51
339.5910799999977
  0
ARC
  5
3F93
330
21CC
100
AcDbEntity
  8
0
100
AcDbCircle
 10
0.0
 20
0.0
 30
0.0
 40
35.750001
100
AcDbArc
 50
279.6617999999993
 51
349.5926600000002
  0
ARC
  5
3F94
330
21CC
100
AcDbEntity
  8
0
100
AcDbCircle
 10
0.0
 20
0.0
 30
0.0
 40
38.75000099999999
100
AcDbArc
 50
278.9074400000005
 51
338.4690599999984
  0
LINE
  5
3F95
330
21CC
100
AcDbEntity
  8
0
  6
CENTER
100
AcDbLine
 10
234.3873991089806
 20
0.0
 30
0.0
 11
234.3873991089806
 21
-77.99998500000004
 31
0.0
  0
LINE
  5
3F96
330
21CC
100
AcDbEntity
  8
0
  6
CENTER
100
AcDbLine
 10
0.0
 20
51.74999999999994
 30
0.0
 11
0.0
 21
-74.99998500000003
 31
0.0
  0
ARC
  5
3F97
330
21CC
100
AcDbEntity
  8
0
100
AcDbCircle
 10
0.0
 20
-39.0
 30
0.0
 40
6.0
100
AcDbArc
 50
180.0
 51
0.0
  0
LINE
  5
3F98
330
21CC
100
AcDbEntity
  8
0
100
AcDbLine
 10
-22.32611018522925
 20
-67.14999
 30
0.0
 11
22.32610424499716
 21
-67.14999
 31
0.0
  0
LINE
  5
3F99
330
21CC
100
AcDbEntity
  8
0
100
AcDbLine
 10
-12.0469119864731
 20
-62.582175
 30
0.0
 11
12.0469569864731
 21
-62.582175
 31
0.0
  0
LINE
  5
3F9A
330
21CC
100
AcDbEntity
  8
0
100
AcDbLine
 10
-25.24998000000005
 20
-69.99999000000002
 30
0.0
 11
25.25000999999997
 21
-69.99999000000002
 31
0.0
  0
ARC
  5
3F9B
330
21CC
100
AcDbEntity
  8
0
100
AcDbCircle
 10
-14.69998499999997
 20
-61.18174500000009
 30
0.0
 40
2.000000099999999
100
AcDbArc
 50
289.9998000000035
 51
0.0
  0
LINE
  5
3F9C
330
21CC
100
AcDbEntity
  8
0
100
AcDbLine
 10
-24.72362999999996
 20
-66.95844
 30
0.0
 11
-14.01595499999996
 21
-63.06115499999998
 31
0.0
  0
ARC
  5
3F9D
330
21CC
100
AcDbEntity
  8
0
100
AcDbCircle
 10
-24.44998499999996
 20
-67.71016499999996
 30
0.0
 40
0.8000000400000001
100
AcDbArc
 50
109.9990699999987
 51
180.0
  0
LINE
  5
3F9E
330
21CC
100
AcDbEntity
  8
0
100
AcDbLine
 10
-25.24998000000005
 20
-69.99999000000002
 30
0.0
 11
-25.24998000000005
 21
-67.71016499999996
 31
0.0
  0
LINE
  5
3F9F
330
21CC
100
AcDbEntity
  8
0
100
AcDbLine
 10
-11.44153500000004
 20
-45.58521000000007
 30
0.0
 11
-23.41306499999995
 21
-46.63260000000002
 31
0.0
  0
LINE
  5
3FA0
330
21CC
100
AcDbEntity
  8
0
100
AcDbLine
 10
-12.6999750000001
 20
-61.18174500000009
 30
0.0
 11
-12.6999750000001
 21
-45.69529499999998
 31
0.0
  0
ARC
  5
3FA1
330
21CC
100
AcDbEntity
  8
0
100
AcDbCircle
 10
-11.00573999999994
 20
-50.56618500000002
 30
0.0
 40
5.000000249999999
100
AcDbArc
 50
77.7212529999991
 51
95.00014200000206
  0
ARC
  5
3FA2
330
21CC
100
AcDbEntity
  8
0
100
AcDbCircle
 10
14.70002999999997
 20
-61.18174500000009
 30
0.0
 40
2.000000099999999
100
AcDbArc
 50
180.0
 51
250.0001999999964
  0
LINE
  5
3FA3
330
21CC
100
AcDbEntity
  8
0
100
AcDbLine
 10
24.72358500000007
 20
-66.95842500000003
 30
0.0
 11
14.01594
 21
-63.06115499999998
 31
0.0
  0
ARC
  5
3FA4
330
21CC
100
AcDbEntity
  8
0
100
AcDbCircle
 10
24.45002999999997
 20
-67.71016499999996
 30
0.0
 40
0.8000000400000001
100
AcDbArc
 50
0.0
 51
70.00092799999726
  0
LINE
  5
3FA5
330
21CC
100
AcDbEntity
  8
0
100
AcDbLine
 10
25.25000999999997
 20
-69.99999000000002
 30
0.0
 11
25.25000999999997
 21
-67.71016499999996
 31
0.0
  0
LINE
  5
3FA6
330
21CC
100
AcDbEntity
  8
0
100
AcDbLine
 10
12.69996000000003
 20
-61.18174500000009
 30
0.0
 11
12.69996000000003
 21
-44.99191500000006
 31
0.0
  0
LINE
  5
3FA7
330
21CC
100
AcDbEntity
  8
0
100
AcDbLine
 10
67.4392949999999
 20
-52.00003500000002
 30
0.0
 11
39.56066999999995
 21
-52.00003500000002
 31
0.0
  0
ARC
  5
3FA8
330
21CC
100
AcDbEntity
  8
0
100
AcDbCircle
 10
39.56066999999995
 20
-50.00004000000001
 30
0.0
 40
2.000000099999999
100
AcDbArc
 50
183.4747300000008
 51
270.0
  0
LINE
  5
3FA9
330
21CC
100
AcDbEntity
  8
0
100
AcDbLine
 10
57.49996499999998
 20
-39.42823499999997
 30
0.0
 11
49.5
 21
-39.42823499999997
 31
0.0
  0
ARC
  5
3FAA
330
21CC
100
AcDbEntity
  8
0
100
AcDbCircle
 10
53.49997499999995
 20
-32.50003500000002
 30
0.0
 40
8.000000249999999
100
AcDbArc
 50
240.0001100000001
 51
299.9998899999999
  0
ARC
  5
3FAB
330
21CC
100
AcDbEntity
  8
0
100
AcDbCircle
 10
53.49997499999995
 20
-43.00003500000002
 30
0.0
 40
5.000000249999999
100
AcDbArc
 50
180.0
 51
0.0
  0
ARC
  5
3FAC
330
21CC
100
AcDbEntity
  8
0
100
AcDbCircle
 10
67.4392949999999
 20
-50.00004000000001
 30
0.0
 40
2.000000099999999
100
AcDbArc
 50
270.0
 51
356.5252699999991
  0
ARC
  5
3FAD
330
21CC
100
AcDbEntity
  8
0
100
AcDbCircle
 10
139.3873591089805
 20
-39.0
 30
0.0
 40
6.0
100
AcDbArc
 50
180.0
 51
0.0
  0
LINE
  5
3FAE
330
21CC
100
AcDbEntity
  8
0
100
AcDbLine
 10
212.0612505911137
 20
-67.14998999999989
 30
0.0
 11
256.7135275951184
 21
-67.14999
 31
0.0
  0
LINE
  5
3FAF
330
21CC
100
AcDbEntity
  8
0
100
AcDbLine
 10
222.3404871225063
 20
-62.582175
 30
0.0
 11
246.4343560954544
 21
-62.582175
 31
0.0
  0
LINE
  5
3FB0
330
21CC
100
AcDbEntity
  8
0
100
AcDbLine
 10
209.1374341089804
 20
-69.99999000000002
 30
0.0
 11
259.6374091089803
 21
-69.99999000000002
 31
0.0
  0
ARC
  5
3FB1
330
21CC
100
AcDbEntity
  8
0
100
AcDbCircle
 10
219.6874141089804
 20
-61.18174500000009
 30
0.0
 40
2.000000099999999
100
AcDbArc
 50
289.9998000000035
 51
0.0
  0
ARC
  5
3FB2
330
21CC
100
AcDbEntity
  8
0
100
AcDbCircle
 10
209.9374141089804
 20
-67.71016499999996
 30
0.0
 40
0.8000000400000001
100
AcDbArc
 50
109.9990699999987
 51
180.0
  0
LINE
  5
3FB3
330
21CC
100
AcDbEntity
  8
0
100
AcDbLine
 10
209.1374341089804
 20
-69.99999000000002
 30
0.0
 11
209.1374341089804
 21
-67.71016499999996
 31
0.0
  0
LINE
  5
3FB4
330
21CC
100
AcDbEntity
  8
0
100
AcDbLine
 10
209.6637691089804
 20
-66.95842500000003
 30
0.0
 11
220.3714591089803
 21
-63.06114000000002
 31
0.0
  0
LINE
  5
3FB5
330
21CC
100
AcDbEntity
  8
0
100
AcDbLine
 10
259.1110141089805
 20
-66.95842500000003
 30
0.0
 11
248.4033391089803
 21
-63.06115499999998
 31
0.0
  0
ARC
  5
3FB6
330
21CC
100
AcDbEntity
  8
0
100
AcDbCircle
 10
249.0874291089803
 20
-61.18174500000009
 30
0.0
 40
2.000000099999999
100
AcDbArc
 50
180.0
 51
250.0001999999964
  0
ARC
  5
3FB7
330
21CC
100
AcDbEntity
  8
0
100
AcDbCircle
 10
258.8374291089803
 20
-67.71016499999996
 30
0.0
 40
0.8000000400000001
100
AcDbArc
 50
0.0
 51
70.00092799999726
  0
LINE
  5
3FB8
330
21CC
100
AcDbEntity
  8
0
100
AcDbLine
 10
259.6374091089803
 20
-69.99999000000002
 30
0.0
 11
259.6374091089803
 21
-67.71016499999996
 31
0.0
  0
ARC
  5
3FB9
330
21CC
100
AcDbEntity
  8
0
100
AcDbCircle
 10
0.0
 20
0.0
 30
0.0
 40
33.249984
100
AcDbArc
 50
280.3960399999968
 51
79.60395599999863
  0
LINE
  5
3FBA
330
21CC
100
AcDbEntity
  8
0
  6
CENTER
100
AcDbLine
 10
68.81913000000008
 20
0.0
 30
0.0
 11
-51.87428999999998
 21
0.0
 31
0.0
  0
ARC
  5
3FBB
330
21CC
100
AcDbEntity
  8
0
100
AcDbCircle
 10
0.0
 20
0.0
 30
0.0
 40
35.750001
100
AcDbArc
 50
10.40734099999932
 51
80.33819900000191
  0
ARC
  5
3FBC
330
21CC
100
AcDbEntity
  8
0
100
AcDbCircle
 10
0.0
 20
0.0
 30
0.0
 40
46.75000199999999
100
AcDbArc
 50
20.40892000000151
 51
112.5021300000013
  0
ARC
  5
3FBD
330
21CC
100
AcDbEntity
  8
0
100
AcDbCircle
 10
0.0
 20
0.0
 30
0.0
 40
38.75000099999999
100
AcDbArc
 50
21.53094100000211
 51
81.09255699999852
  0
ARC
  5
3FBE
330
21CC
100
AcDbEntity
  8
0
100
AcDbCircle
 10
0.0
 20
0.0
 30
0.0
 40
46.75000199999999
100
AcDbArc
 50
137.7210500000033
 51
232.5021600000003
  0
ARC
  5
3FBF
330
21CC
100
AcDbEntity
  8
0
100
AcDbCircle
 10
0.0
 20
0.0
 30
0.0
 40
38.75000099999999
100
AcDbArc
 50
135.0057899999991
 51
216.261410000006
  0
ARC
  5
3FC0
330
21CC
100
AcDbEntity
  8
0
100
AcDbCircle
 10
0.0
 20
0.0
 30
0.0
 40
35.750001
100
AcDbArc
 50
125.3488400000038
 51
234.6511599999961
  0
ARC
  5
3FC1
330
21CC
100
AcDbEntity
  8
0
100
AcDbCircle
 10
0.0
 20
0.0
 30
0.0
 40
33.249984
100
AcDbArc
 50
100.3960400000035
 51
259.6039599999964
  0
ARC
  5
3FC2
330
21CC
100
AcDbEntity
  8
0
100
AcDbCircle
 10
-22.41894000000002
 20
-31.60627499999998
 30
0.0
 40
3.0
100
AcDbArc
 50
5.000111199999319
 51
54.65115399999949
  0
LINE
  5
3FC3
330
21CC
100
AcDbEntity
  8
0
100
AcDbLine
 10
-17.43018000000006
 20
-32.49959999999998
 30
0.0
 11
-26.11482
 21
-36.54931499999998
 31
0.0
  0
LINE
  5
3FC4
330
21CC
100
AcDbEntity
  8
0
100
AcDbLine
 10
-19.93583999999998
 20
-33.11629500000004
 30
0.0
 11
-28.45825500000001
 21
-37.09035000000005
 31
0.0
  0
LINE
  5
3FC5
330
21CC
100
AcDbEntity
  8
0
100
AcDbLine
 10
-30.6755700000001
 20
-24.43243500000005
 30
0.0
 11
-29.65096500000004
 21
-36.14396999999996
 31
0.0
  0
ARC
  5
3FC6
330
21CC
100
AcDbEntity
  8
0
100
AcDbCircle
 10
-38.28868499999998
 20
-34.81439999999997
 30
0.0
 40
5.000000249999999
100
AcDbArc
 50
24.99990799999848
 51
42.27921100000137
  0
ARC
  5
3FC7
330
21CC
100
AcDbEntity
  8
0
100
AcDbCircle
 10
0.0
 20
0.0
 30
0.0
 40
42.4500015
100
AcDbArc
 50
235.5678300000007
 51
236.3548299999962
  0
ARC
  5
3FC8
330
21CC
100
AcDbEntity
  8
0
100
AcDbCircle
 10
-33.66417000000001
 20
-24.69389999999998
 30
0.0
 40
3.0
100
AcDbArc
 50
5.000111199999319
 51
36.26156900000301
  0
ARC
  5
3FC9
330
21CC
100
AcDbEntity
  8
0
100
AcDbCircle
 10
0.0
 20
0.0
 30
0.0
 40
35.750001
100
AcDbArc
 50
245.3487699999974
 51
260.3382000000006
  0
ARC
  5
3FCA
330
21CC
100
AcDbEntity
  8
0
100
AcDbCircle
 10
-16.16235000000006
 20
-35.21849999999995
 30
0.0
 40
3.0
100
AcDbArc
 50
65.34856900000105
 51
115.0001500000021
  0
LINE
  5
3FCB
330
21CC
100
AcDbEntity
  8
0
100
AcDbLine
 10
-19.43032500000003
 20
-31.34482500000001
 30
0.0
 11
-19.362255
 21
-32.12283000000002
 31
0.0
  0
ARC
  5
3FCC
330
21CC
100
AcDbEntity
  8
0
100
AcDbCircle
 10
-20.35845000000006
 20
-32.20999500000004
 30
0.0
 40
1.000000035
100
AcDbArc
 50
294.9995399999979
 51
5.000187399998525
  0
ARC
  5
3FCD
330
21CC
100
AcDbEntity
  8
0
100
AcDbCircle
 10
-10.28416500000002
 20
-38.39662499999997
 30
0.0
 40
1.000000035
100
AcDbArc
 50
75.00539600000023
 51
185.0001899999984
  0
ARC
  5
3FCE
330
21CC
100
AcDbEntity
  8
0
100
AcDbCircle
 10
0.0
 20
0.0
 30
0.0
 40
38.75000099999999
100
AcDbArc
 50
255.0058199999968
 51
261.0925599999994
  0
ARC
  5
3FCF
330
21CC
100
AcDbEntity
  8
0
100
AcDbCircle
 10
0.0
 20
0.0
 30
0.0
 40
9.0
100
AcDbArc
 50
131.8103100000006
 51
228.1896899999992
  0
LWPOLYLINE
  5
3FD0
330
21CC
100
AcDbEntity
  8
0
100
AcDbPolyline
 90
        3
 70
     0
 43
0.0
 10
-6.000000000000113
 20
6.928199999999947
 10
-9.000000000000113
 20
5.19616499999995
 10
-9.000000000000113
 20
-5.196149999999988
  0
LWPOLYLINE
  5
3FD1
330
21CC
100
AcDbEntity
  8
0
100
AcDbPolyline
 90
        2
 70
     0
 43
0.0
 10
-9.000000000000113
 20
-5.196149999999988
 10
-6.000000000000113
 20
-6.928184999999984
  0
ARC
  5
3FD2
330
21CC
100
AcDbEntity
  8
0
100
AcDbCircle
 10
0.0
 20
0.0
 30
0.0
 40
9.0
100
AcDbArc
 50
311.8103100000006
 51
48.18969499999758
  0
LWPOLYLINE
  5
3FD3
330
21CC
100
AcDbEntity
  8
0
100
AcDbPolyline
 90
        4
 70
     0
 43
0.0
 10
5.999999999999886
 20
-6.928184999999984
 10
8.999999999999886
 20
-5.196149999999988
 10
8.999999999999886
 20
5.19616499999995
 10
5.999999999999886
 20
6.928199999999947
  0
ARC
  5
3FD4
330
21CC
100
AcDbEntity
  8
0
100
AcDbCircle
 10
0.0
 20
38.99999999999994
 30
0.0
 40
6.0
100
AcDbArc
 50
0.0
 51
180.0
  0
ARC
  5
3FD5
330
21CC
100
AcDbEntity
  8
0
100
AcDbCircle
 10
-22.41898500000002
 20
31.60623000000004
 30
0.0
 40
3.0
100
AcDbArc
 50
305.3488500000034
 51
354.999890000001
  0
LINE
  5
3FD6
330
21CC
100
AcDbEntity
  8
0
100
AcDbLine
 10
-27.68775000000005
 20
29.01095999999995
 30
0.0
 11
-34.08660000000009
 21
31.99478999999991
 31
0.0
  0
ARC
  5
3FD7
330
21CC
100
AcDbEntity
  8
0
100
AcDbCircle
 10
-28.11036000000001
 20
28.104645
 30
0.0
 40
1.000000035
100
AcDbArc
 50
315.0064900000012
 51
65.00045700000079
  0
ARC
  5
3FD8
330
21CC
100
AcDbEntity
  8
0
100
AcDbCircle
 10
-23.87503500000002
 20
41.35270499999996
 30
0.0
 40
5.30000025
100
AcDbArc
 50
354.9999700000013
 51
155.000029999997
  0
LINE
  5
3FD9
330
21CC
100
AcDbEntity
  8
0
100
AcDbLine
 10
-11.44162500000004
 20
45.5851649999999
 30
0.0
 11
-23.41310999999996
 21
46.63252499999993
 31
0.0
  0
LINE
  5
3FDA
330
21CC
100
AcDbEntity
  8
0
100
AcDbLine
 10
-33.75718499999993
 20
32.70124499999991
 30
0.0
 11
-28.67848500000002
 21
43.59261000000009
 31
0.0
  0
CIRCLE
  5
3FDB
330
21CC
100
AcDbEntity
  8
0
100
AcDbCircle
 10
-23.87503500000002
 20
41.35270499999996
 30
0.0
 40
2.599999949999999
  0
ARC
  5
3FDC
330
21CC
100
AcDbEntity
  8
0
100
AcDbCircle
 10
-38.28872999999998
 20
34.81432499999999
 30
0.0
 40
5.000000249999999
100
AcDbArc
 50
317.7209800000022
 51
335.0000900000005
  0
LINE
  5
3FDD
330
21CC
100
AcDbEntity
  8
0
100
AcDbLine
 10
-18.71164500000008
 20
33.82306499999998
 30
0.0
 11
-17.89206000000001
 21
43.19068499999997
 31
0.0
  0
LINE
  5
3FDE
330
21CC
100
AcDbEntity
  8
0
100
AcDbLine
 10
-6.0
 20
38.86533000000003
 30
0.0
 11
-16.47615000000007
 21
43.75042499999989
 31
0.0
  0
ARC
  5
3FDF
330
21CC
100
AcDbEntity
  8
0
100
AcDbCircle
 10
0.0
 20
0.0
 30
0.0
 40
35.750001
100
AcDbArc
 50
99.66180099999808
 51
114.6512300000025
  0
LINE
  5
3FE0
330
21CC
100
AcDbEntity
  8
0
100
AcDbLine
 10
-17.43026999999995
 20
32.49955500000004
 30
0.0
 11
-18.13810499999999
 21
32.82961500000004
 31
0.0
  0
ARC
  5
3FE1
330
21CC
100
AcDbEntity
  8
0
100
AcDbCircle
 10
-16.16241000000002
 20
35.21845499999989
 30
0.0
 40
3.0
100
AcDbArc
 50
244.9998499999978
 51
294.6514300000007
  0
ARC
  5
3FE2
330
21CC
100
AcDbEntity
  8
0
100
AcDbCircle
 10
0.0
 20
0.0
 30
0.0
 40
42.4500015
100
AcDbArc
 50
115.5678700000012
 51
116.3548599999977
  0
ARC
  5
3FE3
330
21CC
100
AcDbEntity
  8
0
100
AcDbCircle
 10
-17.71546499999999
 20
33.73590000000007
 30
0.0
 40
1.000000035
100
AcDbArc
 50
174.9998100000015
 51
245.000460000002
  0
LINE
  5
3FE4
330
21CC
100
AcDbEntity
  8
0
100
AcDbLine
 10
-19.430385
 20
31.34474999999992
 30
0.0
 11
-18.5952299999999
 21
40.89076500000004
 31
0.0
  0
ARC
  5
3FE5
330
21CC
100
AcDbEntity
  8
0
100
AcDbCircle
 10
-11.00582999999994
 20
50.56612499999999
 30
0.0
 40
5.000000249999999
100
AcDbArc
 50
264.9998599999972
 51
282.2792600000004
  0
LINE
  5
3FE6
330
21CC
100
AcDbEntity
  8
0
100
AcDbLine
 10
141.3873841089805
 20
6.0
 30
0.0
 11
191.3873491089805
 21
6.0
 31
0.0
  0
LINE
  5
3FE7
330
21CC
100
AcDbEntity
  8
0
100
AcDbLine
 10
141.3873841089805
 20
-6.0
 30
0.0
 11
191.3873491089805
 21
-6.0
 31
0.0
  0
LINE
  5
3FE8
330
21CC
100
AcDbEntity
  8
0
100
AcDbLine
 10
60.49996499999998
 20
13.99999500000001
 30
0.0
 11
60.49996499999998
 21
4.999995000000012
 31
0.0
  0
CIRCLE
  5
3FE9
330
21CC
100
AcDbEntity
  8
0
100
AcDbCircle
 10
53.49997499999995
 20
9.499995000000012
 30
0.0
 40
2.599999949999999
  0
CIRCLE
  5
3FEA
330
21CC
100
AcDbEntity
  8
0
100
AcDbCircle
 10
53.49997499999995
 20
9.499995000000012
 30
0.0
 40
3.500000249999999
  0
ARC
  5
3FEB
330
21CC
100
AcDbEntity
  8
0
100
AcDbCircle
 10
71.25
 20
-22.03008
 30
0.0
 40
10.00000049999999
100
AcDbArc
 50
180.0
 51
215.2474299999997
  0
ARC
  5
3FEC
330
21CC
100
AcDbEntity
  8
0
100
AcDbCircle
 10
53.49997499999995
 20
-17.90002500000002
 30
0.0
 40
7.750000499999998
100
AcDbArc
 50
0.0
 51
26.83096999999495
  0
ARC
  5
3FED
330
21CC
100
AcDbEntity
  8
0
100
AcDbCircle
 10
53.49997499999995
 20
-17.90002500000002
 30
0.0
 40
7.750000499999998
100
AcDbArc
 50
158.0252699999987
 51
180.0
  0
ARC
  5
3FEE
330
21CC
100
AcDbEntity
  8
0
100
AcDbCircle
 10
45.68984999999997
 20
-16.99999500000001
 30
0.0
 40
2.000000099999999
100
AcDbArc
 50
90.0
 51
159.5913000000023
  0
ARC
  5
3FEF
330
21CC
100
AcDbEntity
  8
0
100
AcDbCircle
 10
35.74996499999997
 20
-22.03008
 30
0.0
 40
10.00000049999999
100
AcDbArc
 50
324.7525699999982
 51
0.0
  0
LINE
  5
3FF0
330
21CC
100
AcDbEntity
  8
0
100
AcDbLine
 10
50.49997499999995
 20
-29.20001999999999
 30
0.0
 11
56.49997499999995
 21
-29.20001999999999
 31
0.0
  0
ARC
  5
3FF1
330
21CC
100
AcDbEntity
  8
0
100
AcDbCircle
 10
50.49997499999995
 20
-31.20000000000004
 30
0.0
 40
2.000000099999999
100
AcDbArc
 50
90.0
 51
180.0
  0
ARC
  5
3FF2
330
21CC
100
AcDbEntity
  8
0
100
AcDbCircle
 10
56.49997499999995
 20
-31.20000000000004
 30
0.0
 40
2.000000099999999
100
AcDbArc
 50
0.0
 51
90.0
  0
LINE
  5
3FF3
330
21CC
100
AcDbEntity
  8
0
100
AcDbLine
 10
45.75
 20
-22.03008
 30
0.0
 11
45.75
 21
-17.90002500000002
 31
0.0
  0
LINE
  5
3FF4
330
21CC
100
AcDbEntity
  8
0
100
AcDbLine
 10
61.24996499999998
 20
-22.03008
 30
0.0
 11
61.24996499999998
 21
-17.90002500000002
 31
0.0
  0
LINE
  5
3FF5
330
21CC
100
AcDbEntity
  8
0
100
AcDbLine
 10
59.49997499999994
 20
4.000004999999987
 30
0.0
 11
38.11248
 21
4.000004999999987
 31
0.0
  0
LINE
  5
3FF6
330
21CC
100
AcDbEntity
  8
0
100
AcDbLine
 10
59.49997499999994
 20
-4.000004999999987
 30
0.0
 11
38.11248
 21
-4.000004999999987
 31
0.0
  0
ARC
  5
3FF7
330
21CC
100
AcDbEntity
  8
0
100
AcDbCircle
 10
0.0
 20
0.0
 30
0.0
 40
38.70000000000001
100
AcDbArc
 50
354.0673528308031
 51
5.932647169196811
  0
ARC
  5
3FF8
330
21CC
100
AcDbEntity
  8
0
100
AcDbCircle
 10
38.11248
 20
-7.000004999999987
 30
0.0
 40
3.0
100
AcDbArc
 50
90.0
 51
169.5924799999993
  0
ARC
  5
3FF9
330
21CC
100
AcDbEntity
  8
0
100
AcDbCircle
 10
38.83662000000004
 20
-15.32240999999999
 30
0.0
 40
3.0
100
AcDbArc
 50
60.00006999999841
 51
158.4690599999984
  0
LINE
  5
3FFA
330
21CC
100
AcDbEntity
  8
0
100
AcDbLine
 10
40.33666500000004
 20
-12.72435000000007
 30
0.0
 11
44.27819999999996
 21
-15.0
 31
0.0
  0
ARC
  5
3FFB
330
21CC
100
AcDbEntity
  8
0
100
AcDbCircle
 10
38.11248
 20
7.000004999999987
 30
0.0
 40
3.0
100
AcDbArc
 50
190.4075200000006
 51
270.0
  0
LINE
  5
3FFC
330
21CC
100
AcDbEntity
  8
0
100
AcDbLine
 10
56.79996000000006
 20
-4.000004999999987
 30
0.0
 11
56.79996000000006
 21
-2.500004999999987
 31
0.0
  0
LINE
  5
3FFD
330
21CC
100
AcDbEntity
  8
0
100
AcDbLine
 10
50.20000499999992
 20
-4.000004999999987
 30
0.0
 11
50.20000499999992
 21
-2.500004999999987
 31
0.0
  0
ARC
  5
3FFE
330
21CC
100
AcDbEntity
  8
0
100
AcDbCircle
 10
59.49997499999994
 20
-4.999995000000012
 30
0.0
 40
1.000000035
100
AcDbArc
 50
0.0
 51
90.0
  0
LINE
  5
3FFF
330
21CC
100
AcDbEntity
  8
0
100
AcDbLine
 10
49.5
 20
-4.000004999999987
 30
0.0
 11
49.5
 21
4.000004999999987
 31
0.0
  0
LINE
  5
4000
330
21CC
100
AcDbEntity
  8
0
100
AcDbLine
 10
57.49996499999998
 20
-4.000004999999987
 30
0.0
 11
57.49996499999998
 21
4.000004999999987
 31
0.0
  0
LINE
  5
4001
330
21CC
100
AcDbEntity
  8
0
100
AcDbLine
 10
45.68984999999997
 20
-15.0
 30
0.0
 11
59.49997499999994
 21
-15.0
 31
0.0
  0
LINE
  5
4002
330
21CC
100
AcDbEntity
  8
0
100
AcDbLine
 10
60.49996499999998
 20
-4.999995000000012
 30
0.0
 11
60.49996499999998
 21
-13.99999500000001
 31
0.0
  0
ARC
  5
4003
330
21CC
100
AcDbEntity
  8
0
100
AcDbCircle
 10
59.49997499999994
 20
-13.99999500000001
 30
0.0
 40
1.000000035
100
AcDbArc
 50
270.0
 51
0.0
  0
LINE
  5
4004
330
21CC
100
AcDbEntity
  8
0
100
AcDbLine
 10
49.5
 20
-2.500004999999987
 30
0.0
 11
57.49996499999998
 21
-2.500004999999987
 31
0.0
  0
LINE
  5
4005
330
21CC
100
AcDbEntity
  8
0
100
AcDbLine
 10
50.19996000000003
 20
-2.500004999999987
 30
0.0
 11
49.5
 21
-1.287599999999997
 31
0.0
  0
ARC
  5
4006
330
21CC
100
AcDbEntity
  8
0
100
AcDbCircle
 10
59.49997499999994
 20
4.999995000000012
 30
0.0
 40
1.000000035
100
AcDbArc
 50
270.0
 51
0.0
  0
LINE
  5
4007
330
21CC
100
AcDbEntity
  8
0
100
AcDbLine
 10
57.49996499999998
 20
-1.287554999999997
 30
0.0
 11
56.80000500000005
 21
-2.499959999999987
 31
0.0
  0
ARC
  5
4008
330
21CC
100
AcDbEntity
  8
0
100
AcDbCircle
 10
45.68984999999997
 20
16.99999500000001
 30
0.0
 40
2.000000099999999
100
AcDbArc
 50
200.4086999999977
 51
270.0
  0
ARC
  5
4009
330
21CC
100
AcDbEntity
  8
0
100
AcDbCircle
 10
38.83662000000004
 20
15.32239500000002
 30
0.0
 40
3.0
100
AcDbArc
 50
201.5309400000015
 51
299.9999300000016
  0
LINE
  5
400A
330
21CC
100
AcDbEntity
  8
0
100
AcDbLine
 10
40.33662000000004
 20
12.72431999999992
 30
0.0
 11
44.27819999999996
 21
14.99996999999996
 31
0.0
  0
ARC
  5
400B
330
21CC
100
AcDbEntity
  8
0
100
AcDbCircle
 10
53.49997499999995
 20
9.499995000000012
 30
0.0
 40
6.0
100
AcDbArc
 50
66.4436730000003
 51
113.5563300000025
  0
LINE
  5
400C
330
21CC
100
AcDbEntity
  8
0
100
AcDbLine
 10
59.49997499999994
 20
15.0
 30
0.0
 11
45.68984999999997
 21
15.0
 31
0.0
  0
ARC
  5
400D
330
21CC
100
AcDbEntity
  8
0
100
AcDbCircle
 10
59.49997499999994
 20
13.99999500000001
 30
0.0
 40
1.000000035
100
AcDbArc
 50
0.0
 51
90.0
  0
LINE
  5
400E
330
21CC
100
AcDbEntity
  8
0
100
AcDbLine
 10
145.3873591089804
 20
38.99999999999994
 30
0.0
 11
145.3873591089804
 21
6.0
 31
0.0
  0
ARC
  5
400F
330
21CC
100
AcDbEntity
  8
0
100
AcDbCircle
 10
139.3873591089805
 20
38.99999999999994
 30
0.0
 40
6.0
100
AcDbArc
 50
0.0
 51
180.0
  0
ARC
  5
4010
330
21CC
100
AcDbEntity
  8
0
100
AcDbCircle
 10
234.3874291089803
 20
-60.84952499999997
 30
0.0
 40
31.750134
100
AcDbArc
 50
67.53591999999681
 51
112.46413
  0
ARC
  5
4011
330
21CC
100
AcDbEntity
  8
0
100
AcDbCircle
 10
196.2083341089803
 20
8.227229999999963
 30
0.0
 40
4.821000749999999
100
AcDbArc
 50
145.3301700000016
 51
214.6698299999984
  0
LINE
  5
4012
330
21CC
100
AcDbEntity
  8
0
100
AcDbLine
 10
199.3873891089804
 20
32.25551999999987
 30
0.0
 11
199.3873891089804
 21
-32.25553500000001
 31
0.0
  0
LINE
  5
4013
330
21CC
100
AcDbEntity
  8
0
100
AcDbLine
 10
192.2433691089804
 20
5.484825
 30
0.0
 11
199.3873891089804
 21
5.484825
 31
0.0
  0
LINE
  5
4014
330
21CC
100
AcDbEntity
  8
0
100
AcDbLine
 10
192.2433691089804
 20
-5.484839999999962
 30
0.0
 11
199.3873891089804
 21
-5.484839999999962
 31
0.0
  0
LINE
  5
4015
330
21CC
100
AcDbEntity
  8
0
100
AcDbLine
 10
192.2433691089804
 20
-10.96966499999996
 30
0.0
 11
199.3873891089804
 21
-10.96966499999996
 31
0.0
  0
LINE
  5
4016
330
21CC
100
AcDbEntity
  8
0
100
AcDbLine
 10
186.3873841089805
 20
6.0
 30
0.0
 11
186.3873841089805
 21
-6.0
 31
0.0
  0
LINE
  5
4017
330
21CC
100
AcDbEntity
  8
0
100
AcDbLine
 10
191.3873491089805
 20
8.227229999999963
 30
0.0
 11
191.3873491089805
 21
-8.227229999999963
 31
0.0
  0
LINE
  5
4018
330
21CC
100
AcDbEntity
  8
0
100
AcDbLine
 10
185.0017291089804
 20
-6.0
 30
0.0
 11
186.3873391089803
 21
-5.200019999999994
 31
0.0
  0
ARC
  5
4019
330
21CC
100
AcDbEntity
  8
0
100
AcDbCircle
 10
196.2083341089803
 20
-8.227229999999963
 30
0.0
 40
4.821000749999999
100
AcDbArc
 50
145.3301700000016
 51
214.6698299999984
  0
LINE
  5
401A
330
21CC
100
AcDbEntity
  8
0
100
AcDbLine
 10
186.3873841089805
 20
-5.200019999999994
 30
0.0
 11
191.3873491089805
 21
-5.200019999999994
 31
0.0
  0
LINE
  5
401B
330
21CC
100
AcDbEntity
  8
0
100
AcDbLine
 10
185.0017741089805
 20
6.0
 30
0.0
 11
186.3873841089805
 21
5.200004999999919
 31
0.0
  0
ARC
  5
401C
330
21CC
100
AcDbEntity
  8
0
100
AcDbCircle
 10
209.3873641089803
 20
0.0
 30
0.0
 40
18.0
100
AcDbArc
 50
162.2591100000006
 51
197.727735099647
  0
LINE
  5
401D
330
21CC
100
AcDbEntity
  8
0
100
AcDbLine
 10
186.3873841089805
 20
5.200004999999919
 30
0.0
 11
191.3873491089805
 21
5.200004999999919
 31
0.0
  0
LINE
  5
401E
330
21CC
100
AcDbEntity
  8
0
100
AcDbLine
 10
217.3873891089804
 20
-31.75000499999999
 30
0.0
 11
220.6874191089805
 21
-31.75000499999999
 31
0.0
  0
ARC
  5
401F
330
21CC
100
AcDbEntity
  8
0
100
AcDbCircle
 10
220.6874191089805
 20
-32.75000999999997
 30
0.0
 40
1.000000035
100
AcDbArc
 50
0.0
 51
90.0
  0
LINE
  5
4020
330
21CC
100
AcDbEntity
  8
0
100
AcDbLine
 10
192.2433691089804
 20
10.96966499999996
 30
0.0
 11
199.3873891089804
 21
10.96966499999996
 31
0.0
  0
ARC
  5
4021
330
21CC
100
AcDbEntity
  8
0
100
AcDbCircle
 10
248.0873491089803
 20
-32.75000999999997
 30
0.0
 40
1.000000035
100
AcDbArc
 50
90.0
 51
180.0
  0
LINE
  5
4022
330
21CC
100
AcDbEntity
  8
0
100
AcDbLine
 10
484.3848331089804
 20
25.24999500000001
 30
0.0
 11
484.3848331089804
 21
-25.24999500000001
 31
0.0
  0
LINE
  5
4023
330
21CC
100
AcDbEntity
  8
0
100
AcDbLine
 10
475.5665881089803
 20
-12.69998999999995
 30
0.0
 11
455.0347666089804
 21
-12.69998999999995
 31
0.0
  0
LINE
  5
4024
330
21CC
100
AcDbEntity
  8
0
100
AcDbLine
 10
431.9061196089803
 20
-30.58021500000006
 30
0.0
 11
451.8208411089804
 21
-13.86981000000003
 31
0.0
  0
LINE
  5
4025
330
21CC
100
AcDbEntity
  8
0
100
AcDbLine
 10
430.5120391089803
 20
30.31202999999999
 30
0.0
 11
430.5120391089803
 21
-30.31203000000004
 31
0.0
  0
ARC
  5
4026
330
21CC
100
AcDbEntity
  8
0
100
AcDbCircle
 10
428.6921791089805
 20
-26.74999500000001
 30
0.0
 40
5.000000249999999
100
AcDbArc
 50
270.0
 51
309.9999699999967
  0
LINE
  5
4027
330
21CC
100
AcDbEntity
  8
0
100
AcDbLine
 10
453.2149261089805
 20
11.98264500000004
 30
0.0
 11
453.2149261089805
 21
-11.98264500000004
 31
0.0
  0
ARC
  5
4028
330
21CC
100
AcDbEntity
  8
0
100
AcDbCircle
 10
455.0347666089804
 20
-17.70000000000004
 30
0.0
 40
5.000000249999999
100
AcDbArc
 50
90.0
 51
129.9999699999967
  0
LINE
  5
4029
330
21CC
100
AcDbEntity
  8
0
100
AcDbLine
 10
481.3432336089804
 20
-24.72361499999999
 30
0.0
 11
477.4459711089805
 21
-14.01594
 31
0.0
  0
LINE
  5
402A
330
21CC
100
AcDbEntity
  8
0
100
AcDbLine
 10
481.5348421089804
 20
22.32624404619036
 30
0.0
 11
481.5348421089804
 21
-22.32624404619036
 31
0.0
  0
ARC
  5
402B
330
21CC
100
AcDbEntity
  8
0
100
AcDbCircle
 10
482.0950081089804
 20
-24.45000000000004
 30
0.0
 40
0.8000000400000001
100
AcDbArc
 50
199.9993499999999
 51
270.0
  0
LINE
  5
402C
330
21CC
100
AcDbEntity
  8
0
100
AcDbLine
 10
484.3848331089804
 20
-25.24999500000001
 30
0.0
 11
482.0950081089804
 21
-25.24999500000001
 31
0.0
  0
LINE
  5
402D
330
21CC
100
AcDbEntity
  8
0
100
AcDbLine
 10
476.9670016089805
 20
-12.04692
 30
0.0
 11
476.9670016089805
 21
12.04692
 31
0.0
  0
ARC
  5
402E
330
21CC
100
AcDbEntity
  8
0
100
AcDbCircle
 10
475.5665881089803
 20
-14.70000000000004
 30
0.0
 40
2.000000099999999
100
AcDbArc
 50
19.9999129999999
 51
90.0
  0
LINE
  5
402F
330
21CC
100
AcDbEntity
  8
0
  6
CENTER
100
AcDbLine
 10
139.3873591089805
 20
0.0
 30
0.0
 11
489.2331736089804
 21
0.0
 31
0.0
  0
LINE
  5
4030
330
21CC
100
AcDbEntity
  8
0
100
AcDbLine
 10
217.3873991089803
 20
31.74998999999997
 30
0.0
 11
428.6921791089805
 21
31.74998999999997
 31
0.0
  0
LINE
  5
4031
330
21CC
100
AcDbEntity
  8
0
100
AcDbLine
 10
475.5665881089803
 20
12.69998999999995
 30
0.0
 11
455.0347666089804
 21
12.69998999999995
 31
0.0
  0
LINE
  5
4032
330
21CC
100
AcDbEntity
  8
0
100
AcDbLine
 10
431.9061196089803
 20
30.58021500000012
 30
0.0
 11
451.8208411089804
 21
13.86981000000003
 31
0.0
  0
ARC
  5
4033
330
21CC
100
AcDbEntity
  8
0
100
AcDbCircle
 10
428.6921791089805
 20
26.74999500000001
 30
0.0
 40
5.000000249999999
100
AcDbArc
 50
50.00003000000321
 51
90.0
  0
ARC
  5
4034
330
21CC
100
AcDbEntity
  8
0
100
AcDbCircle
 10
455.0347666089804
 20
17.70000000000004
 30
0.0
 40
5.000000249999999
100
AcDbArc
 50
230.0000300000032
 51
270.0
  0
LINE
  5
4035
330
21CC
100
AcDbEntity
  8
0
100
AcDbLine
 10
481.3432336089804
 20
24.72361499999999
 30
0.0
 11
477.4459711089805
 21
14.01594
 31
0.0
  0
ARC
  5
4036
330
21CC
100
AcDbEntity
  8
0
100
AcDbCircle
 10
482.0950081089804
 20
24.45000000000004
 30
0.0
 40
0.8000000400000001
100
AcDbArc
 50
90.0
 51
160.0006500000031
  0
LINE
  5
4037
330
21CC
100
AcDbEntity
  8
0
100
AcDbLine
 10
484.3848331089804
 20
25.24999500000001
 30
0.0
 11
482.0950081089804
 21
25.24999500000001
 31
0.0
  0
ARC
  5
4038
330
21CC
100
AcDbEntity
  8
0
100
AcDbCircle
 10
475.5665881089803
 20
14.70000000000004
 30
0.0
 40
2.000000099999999
100
AcDbArc
 50
270.0
 51
340.0000869999978
  0
LINE
  5
4039
330
21CC
100
AcDbEntity
  8
0
100
AcDbLine
 10
217.3873991089803
 20
-38.61837999999989
 30
0.0
 11
217.3873991089803
 21
6.399990000000343
 31
0.0
  0
LINE
  5
403A
330
21CC
100
AcDbEntity
  8
0
100
AcDbLine
 10
200.3873991089804
 20
-38.61837999999989
 30
0.0
 11
200.3873991089804
 21
6.266290000000026
 31
0.0
  0
LINE
  5
403B
330
21CC
100
AcDbEntity
  8
0
100
AcDbLine
 10
212.9418191089805
 20
46.74999999999994
 30
0.0
 11
204.8329891089804
 21
46.74999999999994
 31
0.0
  0
LINE
  5
403C
330
21CC
100
AcDbEntity
  8
0
100
AcDbLine
 10
204.6373991089804
 20
4.0
 30
0.0
 11
200.6373991089803
 21
4.0
 31
0.0
  0
LINE
  5
403D
330
21CC
100
AcDbEntity
  8
0
100
AcDbLine
 10
212.9418191089805
 20
-46.7500299999997
 30
0.0
 11
211.7374091089804
 21
-46.7500299999997
 31
0.0
  0
LINE
  5
403E
330
21CC
100
AcDbEntity
  8
0
100
AcDbLine
 10
200.4214691089805
 20
-38.87717999999995
 30
0.0
 11
201.9351891089804
 21
-44.52645999999958
 31
0.0
  0
LINE
  5
403F
330
21CC
100
AcDbEntity
  8
0
100
AcDbLine
 10
217.3533191089804
 20
-38.8771899999997
 30
0.0
 11
215.8395991089803
 21
-44.52646999999979
 31
0.0
  0
LINE
  5
4040
330
21CC
100
AcDbEntity
  8
0
100
AcDbLine
 10
215.8396091089805
 20
44.52645000000024
 30
0.0
 11
217.3533391089804
 21
38.87717000000014
 31
0.0
  0
LINE
  5
4041
330
21CC
100
AcDbEntity
  8
0
100
AcDbLine
 10
202.5309891089805
 20
15.0
 30
0.0
 11
202.5309891089805
 21
43.38345999999996
 31
0.0
  0
LINE
  5
4042
330
21CC
100
AcDbEntity
  8
0
100
AcDbLine
 10
215.2438191089804
 20
15.0
 30
0.0
 11
215.2438191089804
 21
43.21123000000028
 31
0.0
  0
LINE
  5
4043
330
21CC
100
AcDbEntity
  8
0
100
AcDbLine
 10
204.3875191089805
 20
-11.28499999999985
 30
0.0
 11
201.4108891089804
 21
-14.6613199999997
 31
0.0
  0
LINE
  5
4044
330
21CC
100
AcDbEntity
  8
0
100
AcDbLine
 10
213.3872791089804
 20
-11.28503
 30
0.0
 11
216.3638991089803
 21
-14.66134999999985
 31
0.0
  0
LINE
  5
4045
330
21CC
100
AcDbEntity
  8
0
100
AcDbLine
 10
207.0374291089803
 20
-52.0
 30
0.0
 11
210.7374091089805
 21
-52.0
 31
0.0
  0
LINE
  5
4046
330
21CC
100
AcDbEntity
  8
0
100
AcDbLine
 10
206.0374291089804
 20
-51.0
 30
0.0
 11
206.0374291089804
 21
-31.20001000000002
 31
0.0
  0
LINE
  5
4047
330
21CC
100
AcDbEntity
  8
0
100
AcDbLine
 10
200.6607791089805
 20
-15.0
 30
0.0
 11
200.6373991089803
 21
-15.0
 31
0.0
  0
LINE
  5
4048
330
21CC
100
AcDbEntity
  8
0
100
AcDbLine
 10
204.6373991089804
 20
-4.0
 30
0.0
 11
200.6373991089803
 21
-4.0
 31
0.0
  0
LINE
  5
4049
330
21CC
100
AcDbEntity
  8
0
100
AcDbLine
 10
204.6373991089804
 20
4.0
 30
0.0
 11
204.6373991089804
 21
15.0
 31
0.0
  0
LINE
  5
404A
330
21CC
100
AcDbEntity
  8
0
100
AcDbLine
 10
204.6373991089804
 20
15.0
 30
0.0
 11
200.6373991089803
 21
15.0
 31
0.0
  0
LINE
  5
404B
330
21CC
100
AcDbEntity
  8
0
100
AcDbLine
 10
204.6373991089804
 20
-10.62368999999989
 30
0.0
 11
204.6373991089804
 21
-4.0
 31
0.0
  0
LINE
  5
404C
330
21CC
100
AcDbEntity
  8
0
100
AcDbLine
 10
204.8873991089803
 20
-12.0
 30
0.0
 11
204.8873991089803
 21
14.42819000000008
 31
0.0
  0
LINE
  5
404D
330
21CC
100
AcDbEntity
  8
0
100
AcDbLine
 10
204.8873991089803
 20
-39.42822999999998
 30
0.0
 11
204.8873991089803
 21
-29.38961999999992
 31
0.0
  0
LINE
  5
404E
330
21CC
100
AcDbEntity
  8
0
100
AcDbLine
 10
201.1373991089803
 20
-27.20001000000002
 30
0.0
 11
201.1373991089803
 21
-17.90000000000009
 31
0.0
  0
LINE
  5
404F
330
21CC
100
AcDbEntity
  8
0
100
AcDbLine
 10
203.1373991089803
 20
-29.20001000000002
 30
0.0
 11
214.6373991089804
 21
-29.20001000000002
 31
0.0
  0
LINE
  5
4050
330
21CC
100
AcDbEntity
  8
0
100
AcDbLine
 10
203.8622291089804
 20
-12.0
 30
0.0
 11
213.9126091089804
 21
-12.0
 31
0.0
  0
LINE
  5
4051
330
21CC
100
AcDbEntity
  8
0
100
AcDbLine
 10
217.1373991089804
 20
12.5999999999999
 30
0.0
 11
217.6373991089803
 21
12.5999999999999
 31
0.0
  0
LINE
  5
4052
330
21CC
100
AcDbEntity
  8
0
100
AcDbLine
 10
217.1373991089804
 20
6.399990000000343
 30
0.0
 11
217.6373991089803
 21
6.399990000000343
 31
0.0
  0
LINE
  5
4053
330
21CC
100
AcDbEntity
  8
0
100
AcDbLine
 10
211.7374091089804
 20
-51.0
 30
0.0
 11
211.7374091089804
 21
-31.20001000000002
 31
0.0
  0
LINE
  5
4054
330
21CC
100
AcDbEntity
  8
0
100
AcDbLine
 10
217.1140291089804
 20
-15.0
 30
0.0
 11
217.1373991089804
 21
-15.0
 31
0.0
  0
LINE
  5
4055
330
21CC
100
AcDbEntity
  8
0
100
AcDbLine
 10
213.1373991089803
 20
-4.0
 30
0.0
 11
217.1373991089804
 21
-4.0
 31
0.0
  0
LINE
  5
4056
330
21CC
100
AcDbEntity
  8
0
100
AcDbLine
 10
213.1373991089803
 20
4.0
 30
0.0
 11
213.1373991089803
 21
15.0
 31
0.0
  0
LINE
  5
4057
330
21CC
100
AcDbEntity
  8
0
100
AcDbLine
 10
213.1373991089803
 20
4.0
 30
0.0
 11
217.1373991089804
 21
4.0
 31
0.0
  0
LINE
  5
4058
330
21CC
100
AcDbEntity
  8
0
100
AcDbLine
 10
213.1373991089803
 20
15.0
 30
0.0
 11
217.1373991089804
 21
15.0
 31
0.0
  0
LINE
  5
4059
330
21CC
100
AcDbEntity
  8
0
100
AcDbLine
 10
213.1373991089803
 20
-10.62368999999989
 30
0.0
 11
213.1373991089803
 21
-4.0
 31
0.0
  0
LINE
  5
405A
330
21CC
100
AcDbEntity
  8
0
100
AcDbLine
 10
212.8873991089804
 20
-12.0
 30
0.0
 11
212.8873991089804
 21
14.42819000000008
 31
0.0
  0
LINE
  5
405B
330
21CC
100
AcDbEntity
  8
0
100
AcDbLine
 10
212.8873991089804
 20
-39.42822999999998
 30
0.0
 11
212.8873991089804
 21
-29.38961999999992
 31
0.0
  0
LINE
  5
405C
330
21CC
100
AcDbEntity
  8
0
100
AcDbLine
 10
216.6373991089804
 20
-27.20001000000002
 30
0.0
 11
216.6373991089804
 21
-17.90000000000009
 31
0.0
  0
LINE
  5
405D
330
21CC
100
AcDbEntity
  8
0
100
AcDbLine
 10
215.2438191089804
 20
-29.00736999999981
 30
0.0
 11
215.2438191089804
 21
-44.21311999999988
 31
0.0
  0
LINE
  5
405E
330
21CC
100
AcDbEntity
  8
0
100
AcDbLine
 10
202.5309891089805
 20
-29.00736999999981
 30
0.0
 11
202.5309891089805
 21
-44.06271999999989
 31
0.0
  0
LINE
  5
405F
330
21CC
100
AcDbEntity
  8
0
100
AcDbLine
 10
218.1373991089803
 20
6.899990000000343
 30
0.0
 11
218.1373991089803
 21
12.09999999999991
 31
0.0
  0
LINE
  5
4060
330
21CC
100
AcDbEntity
  8
0
100
AcDbLine
 10
218.3873991089803
 20
34.97606000000036
 30
0.0
 11
218.3873991089803
 21
40.17606999999992
 31
0.0
  0
LINE
  5
4061
330
21CC
100
AcDbEntity
  8
0
100
AcDbLine
 10
216.8873991089804
 20
40.67606999999992
 30
0.0
 11
217.8873991089803
 21
40.67606999999992
 31
0.0
  0
LINE
  5
4062
330
21CC
100
AcDbEntity
  8
0
100
AcDbLine
 10
217.3873991089803
 20
34.47606000000035
 30
0.0
 11
217.8873991089803
 21
34.47606000000035
 31
0.0
  0
LINE
  5
4063
330
21CC
100
AcDbEntity
  8
0
100
AcDbLine
 10
218.3873991089803
 20
-34.97605999999996
 30
0.0
 11
218.3873991089803
 21
-40.17606999999998
 31
0.0
  0
LINE
  5
4064
330
21CC
100
AcDbEntity
  8
0
100
AcDbLine
 10
217.3873991089803
 20
-34.47605999999996
 30
0.0
 11
217.8873991089803
 21
-34.47605999999996
 31
0.0
  0
LINE
  5
4065
330
21CC
100
AcDbEntity
  8
0
100
AcDbLine
 10
216.8713191089805
 20
-40.67606999999997
 30
0.0
 11
217.8873991089803
 21
-40.67606999999997
 31
0.0
  0
LINE
  5
4066
330
21CC
100
AcDbEntity
  8
0
100
AcDbLine
 10
200.6373991089803
 20
-15.0
 30
0.0
 11
200.6373991089803
 21
15.0
 31
0.0
  0
LINE
  5
4067
330
21CC
100
AcDbEntity
  8
0
100
AcDbLine
 10
217.1373991089804
 20
-15.0
 30
0.0
 11
217.1373991089804
 21
15.0
 31
0.0
  0
LINE
  5
4068
330
21CC
100
AcDbEntity
  8
0
100
AcDbLine
 10
200.3873991089804
 20
12.73370000000022
 30
0.0
 11
200.3873991089804
 21
38.61833999999993
 31
0.0
  0
LINE
  5
4069
330
21CC
100
AcDbEntity
  8
0
100
AcDbLine
 10
217.3873991089803
 20
12.5999999999999
 30
0.0
 11
217.3873991089803
 21
38.61833999999993
 31
0.0
  0
LINE
  5
406A
330
21CC
100
AcDbEntity
  8
0
100
AcDbLine
 10
200.3873991089804
 20
40.82605999999981
 30
0.0
 11
200.8873991089803
 21
40.82605999999981
 31
0.0
  0
LINE
  5
406B
330
21CC
100
AcDbEntity
  8
0
100
AcDbLine
 10
200.3873991089804
 20
-40.82606999999962
 30
0.0
 11
200.8873991089803
 21
-40.82606999999962
 31
0.0
  0
LINE
  5
406C
330
21CC
100
AcDbEntity
  8
0
100
AcDbLine
 10
201.3873991089803
 20
42.57605999999981
 30
0.0
 11
201.4125991089804
 21
42.57605999999981
 31
0.0
  0
LINE
  5
406D
330
21CC
100
AcDbEntity
  8
0
100
AcDbLine
 10
200.3873991089804
 20
40.82605999999981
 30
0.0
 11
200.3873991089804
 21
41.57605999999981
 31
0.0
  0
LINE
  5
406E
330
21CC
100
AcDbEntity
  8
0
100
AcDbLine
 10
217.3873991089803
 20
40.67606999999992
 30
0.0
 11
217.3873991089803
 21
41.57605999999981
 31
0.0
  0
LINE
  5
406F
330
21CC
100
AcDbEntity
  8
0
100
AcDbLine
 10
201.9352091089804
 20
44.52645000000024
 30
0.0
 11
200.4214791089805
 21
38.87715000000019
 31
0.0
  0
LINE
  5
4070
330
21CC
100
AcDbEntity
  8
0
100
AcDbLine
 10
200.3873991089804
 20
-40.82606999999962
 30
0.0
 11
200.3873991089804
 21
-41.57606999999962
 31
0.0
  0
LINE
  5
4071
330
21CC
100
AcDbEntity
  8
0
100
AcDbLine
 10
217.3873991089803
 20
-40.67606999999997
 30
0.0
 11
217.3873991089803
 21
-41.57606999999962
 31
0.0
  0
LINE
  5
4072
330
21CC
100
AcDbEntity
  8
0
100
AcDbLine
 10
206.0374291089804
 20
-46.7500299999997
 30
0.0
 11
204.8329891089804
 21
-46.7500299999997
 31
0.0
  0
ARC
  5
4073
330
21CC
100
AcDbEntity
  8
0
100
AcDbCircle
 10
201.3873991089803
 20
-38.61837999999989
 30
0.0
 40
1.0
100
AcDbArc
 50
179.9999899999989
 51
195.0000100000155
  0
ARC
  5
4074
330
21CC
100
AcDbEntity
  8
0
100
AcDbCircle
 10
216.3873991089804
 20
-38.61837999999989
 30
0.0
 40
1.0
100
AcDbArc
 50
345.0000000000055
 51
0.0
  0
ARC
  5
4075
330
21CC
100
AcDbEntity
  8
0
100
AcDbCircle
 10
201.3873991089803
 20
38.61833999999993
 30
0.0
 40
1.0
100
AcDbArc
 50
165.0000000000055
 51
180.0000100000009
  0
ARC
  5
4076
330
21CC
100
AcDbEntity
  8
0
100
AcDbCircle
 10
216.3873991089804
 20
38.61833999999993
 30
0.0
 40
1.0
100
AcDbArc
 50
0.0
 51
14.99999999999445
  0
ARC
  5
4077
330
21CC
100
AcDbEntity
  8
0
100
AcDbCircle
 10
204.8329891089804
 20
-43.7500299999997
 30
0.0
 40
3.0
100
AcDbArc
 50
195.0000100000155
 51
269.9999970000023
  0
ARC
  5
4078
330
21CC
100
AcDbEntity
  8
0
100
AcDbCircle
 10
212.9418191089805
 20
-43.7500299999997
 30
0.0
 40
3.0
100
AcDbArc
 50
269.9999970000023
 51
345.0000000000055
  0
ARC
  5
4079
330
21CC
100
AcDbEntity
  8
0
100
AcDbCircle
 10
204.8329891089804
 20
43.74999999999994
 30
0.0
 40
3.0
100
AcDbArc
 50
90.0
 51
164.9999899999844
  0
ARC
  5
407A
330
21CC
100
AcDbEntity
  8
0
100
AcDbCircle
 10
212.9418191089805
 20
43.74999999999994
 30
0.0
 40
3.0
100
AcDbArc
 50
14.99999999999445
 51
90.0
  0
ARC
  5
407B
330
21CC
100
AcDbEntity
  8
0
100
AcDbCircle
 10
203.6373991089803
 20
-10.62368999999989
 30
0.0
 40
1.0
100
AcDbArc
 50
318.600000000004
 51
0.0
  0
ARC
  5
407C
330
21CC
100
AcDbEntity
  8
0
100
AcDbCircle
 10
214.1373991089803
 20
-10.62368999999989
 30
0.0
 40
1.0
100
AcDbArc
 50
179.9999899999989
 51
221.3999999999959
  0
ARC
  5
407D
330
21CC
100
AcDbEntity
  8
0
100
AcDbCircle
 10
200.6607791089805
 20
-14.0
 30
0.0
 40
1.0
100
AcDbArc
 50
269.9999970000023
 51
318.600000000004
  0
ARC
  5
407E
330
21CC
100
AcDbEntity
  8
0
100
AcDbCircle
 10
203.1373991089803
 20
-27.20001000000002
 30
0.0
 40
2.0
100
AcDbArc
 50
179.9999899999989
 51
270.0000040000056
  0
ARC
  5
407F
330
21CC
100
AcDbEntity
  8
0
100
AcDbCircle
 10
208.8873991089803
 20
-32.5
 30
0.0
 40
8.0
100
AcDbArc
 50
239.9999999999998
 51
249.1299300000056
  0
ARC
  5
4080
330
21CC
100
AcDbEntity
  8
0
100
AcDbCircle
 10
208.8873991089803
 20
-17.90000000000009
 30
0.0
 40
7.75
100
AcDbArc
 50
130.4219000000043
 51
179.9999899999989
  0
ARC
  5
4081
330
21CC
100
AcDbEntity
  8
0
100
AcDbCircle
 10
208.8873991089803
 20
7.5
 30
0.0
 40
8.0
100
AcDbArc
 50
59.99999999999986
 51
120.0000000000001
  0
ARC
  5
4082
330
21CC
100
AcDbEntity
  8
0
100
AcDbCircle
 10
204.0374291089804
 20
-31.20001000000002
 30
0.0
 40
2.0
100
AcDbArc
 50
359.9999949910625
 51
90.0
  0
ARC
  5
4083
330
21CC
100
AcDbEntity
  8
0
100
AcDbCircle
 10
207.0374291089803
 20
-51.0
 30
0.0
 40
1.0
100
AcDbArc
 50
179.9999899999989
 51
270.0000040000056
  0
ARC
  5
4084
330
21CC
100
AcDbEntity
  8
0
100
AcDbCircle
 10
210.7374091089805
 20
-51.0
 30
0.0
 40
1.0
100
AcDbArc
 50
269.9999970000023
 51
0.0
  0
ARC
  5
4085
330
21CC
100
AcDbEntity
  8
0
100
AcDbCircle
 10
213.7374091089804
 20
-31.20001000000002
 30
0.0
 40
2.0
100
AcDbArc
 50
90.0
 51
180.0000100000009
  0
ARC
  5
4086
330
21CC
100
AcDbEntity
  8
0
100
AcDbCircle
 10
214.6373991089804
 20
-27.20001000000002
 30
0.0
 40
2.0
100
AcDbArc
 50
269.9999970000023
 51
0.0
  0
ARC
  5
4087
330
21CC
100
AcDbEntity
  8
0
100
AcDbCircle
 10
208.8873991089803
 20
-32.5
 30
0.0
 40
8.0
100
AcDbArc
 50
290.8700709999917
 51
299.9999979999987
  0
ARC
  5
4088
330
21CC
100
AcDbEntity
  8
0
100
AcDbCircle
 10
208.8873991089803
 20
-17.90000000000009
 30
0.0
 40
7.75
100
AcDbArc
 50
0.0
 51
49.57807999999577
  0
ARC
  5
4089
330
21CC
100
AcDbEntity
  8
0
100
AcDbCircle
 10
217.6373991089803
 20
12.09999999999991
 30
0.0
 40
0.5
100
AcDbArc
 50
0.0
 51
90.0
  0
ARC
  5
408A
330
21CC
100
AcDbEntity
  8
0
100
AcDbCircle
 10
217.6373991089803
 20
6.899990000000343
 30
0.0
 40
0.5
100
AcDbArc
 50
269.9999970000023
 51
0.0
  0
ARC
  5
408B
330
21CC
100
AcDbEntity
  8
0
100
AcDbCircle
 10
217.1140291089804
 20
-14.0
 30
0.0
 40
1.0
100
AcDbArc
 50
221.3999999999959
 51
269.9999970000023
  0
ARC
  5
408C
330
21CC
100
AcDbEntity
  8
0
100
AcDbCircle
 10
217.8873991089803
 20
34.97606000000036
 30
0.0
 40
0.5
100
AcDbArc
 50
269.9999970000023
 51
0.0
  0
ARC
  5
408D
330
21CC
100
AcDbEntity
  8
0
100
AcDbCircle
 10
217.8873991089803
 20
40.17606999999992
 30
0.0
 40
0.5
100
AcDbArc
 50
0.0
 51
90.0
  0
ARC
  5
408E
330
21CC
100
AcDbEntity
  8
0
100
AcDbCircle
 10
217.8873991089803
 20
-34.97605999999996
 30
0.0
 40
0.5
100
AcDbArc
 50
0.0
 51
90.0
  0
ARC
  5
408F
330
21CC
100
AcDbEntity
  8
0
100
AcDbCircle
 10
217.8873991089803
 20
-40.17606999999998
 30
0.0
 40
0.5
100
AcDbArc
 50
269.9999970000023
 51
0.0
  0
ARC
  5
4090
330
21CC
100
AcDbEntity
  8
0
100
AcDbCircle
 10
201.3873991089803
 20
41.57605999999981
 30
0.0
 40
1.0
100
AcDbArc
 50
90.0
 51
180.0000100000009
  0
ARC
  5
4091
330
21CC
100
AcDbEntity
  8
0
100
AcDbCircle
 10
216.3873991089804
 20
41.57605999999981
 30
0.0
 40
1.0
100
AcDbArc
 50
0.0
 51
90.0
  0
ARC
  5
4092
330
21CC
100
AcDbEntity
  8
0
100
AcDbCircle
 10
201.3873991089803
 20
-41.57606999999962
 30
0.0
 40
1.0
100
AcDbArc
 50
179.9999899999989
 51
269.9999970000023
  0
ARC
  5
4093
330
21CC
100
AcDbEntity
  8
0
100
AcDbCircle
 10
216.3873991089804
 20
-41.57606999999962
 30
0.0
 40
1.0
100
AcDbArc
 50
269.9999970000023
 51
0.0
  0
ELLIPSE
  5
4094
330
21CC
100
AcDbEntity
  8
0
100
AcDbEllipse
 10
200.6373991089803
 20
9.5
 30
0.0
 11
0.0
 21
-3.250000099999999
 31
0.0
210
0.0
220
0.0
230
-1.0
 40
0.7692307400000001
 41
0.0
 42
3.1415927
  0
ELLIPSE
  5
4095
330
21CC
100
AcDbEntity
  8
0
100
AcDbEllipse
 10
200.3873991089804
 20
37.57605999999981
 30
0.0
 11
0.0
 21
-3.250000099999999
 31
0.0
210
0.0
220
0.0
230
-1.0
 40
0.7692307400000001
 41
0.0
 42
3.1415927
  0
ELLIPSE
  5
4096
330
21CC
100
AcDbEntity
  8
0
100
AcDbEllipse
 10
200.3873991089804
 20
-37.57606999999961
 30
0.0
 11
0.0
 21
3.250000099999999
 31
0.0
210
0.0
220
0.0
230
-1.0
 40
0.7692307400000001
 41
3.1415927
 42
6.283185299999999
  0
ARC
  5
4097
330
21CC
100
AcDbEntity
  8
0
100
AcDbCircle
 10
200.3873641089803
 20
-32.25000750000009
 30
0.0
 40
1.000000035
100
AcDbArc
 50
180.0
 51
270.0026199999975
  0
ARC
  5
4098
330
21CC
100
AcDbEntity
  8
0
100
AcDbCircle
 10
200.3873641089803
 20
32.25000750000009
 30
0.0
 40
1.000000035
100
AcDbArc
 50
89.99738000000247
 51
180.0
  0
ENDSEC
  0
SECTION
  2
OBJECTS
  0
DICTIONARY
  5
21BA
330
0
100
AcDbDictionary
281
     1
  3
ACAD_GROUP
350
21BB
  3
ACAD_LAYOUT
350
21C7
  3
ACAD_MLINESTYLE
350
21C4
  3
ACAD_PLOTSETTINGS
350
21C6
  3
ACAD_PLOTSTYLENAME
350
21BC
  3
AcDbVariableDictionary
350
2238
  0
DICTIONARY
  5
2244
330
21B0
100
AcDbDictionary
280
     1
281
     1
  3
ACAD_LAYERSTATES
360
2245
  0
DICTIONARY
  5
21F8
330
21CC
100
AcDbDictionary
280
     1
281
     1
  3
ACAD_LAYOUTSELFREF
360
2227
  0
DICTIONARY
  5
21FA
330
21C8
100
AcDbDictionary
280
     1
281
     1
  3
ACAD_LAYOUTSELFREF
360
2226
  0
DICTIONARY
  5
21BB
102
{ACAD_REACTORS
330
21BA
102
}
330
21BA
100
AcDbDictionary
281
     1
  0
DICTIONARY
  5
21C7
102
{ACAD_REACTORS
330
21BA
102
}
330
21BA
100
AcDbDictionary
281
     1
  3
Model
350
21CF
  3
ﾚｲｱｳﾄ1
350
21CB
  0
DICTIONARY
  5
21C4
102
{ACAD_REACTORS
330
21BA
102
}
330
21BA
100
AcDbDictionary
281
     1
  3
Standard
350
21C5
  0
DICTIONARY
  5
21C6
102
{ACAD_REACTORS
330
21BA
102
}
330
21BA
100
AcDbDictionary
281
     1
  0
ACDBDICTIONARYWDFLT
  5
21BC
102
{ACAD_REACTORS
330
21BA
102
}
330
21BA
100
AcDbDictionary
281
     1
  3
Normal
350
21BD
100
AcDbDictionaryWithDefault
340
21BD
  0
DICTIONARY
  5
2238
102
{ACAD_REACTORS
330
21BA
102
}
330
21BA
100
AcDbDictionary
281
     1
  3
DIMASSOC
350
2239
  0
DICTIONARY
  5
2245
102
{ACAD_REACTORS
330
2244
102
}
330
2244
100
AcDbDictionary
281
     1
  0
XRECORD
  5
2227
102
{ACAD_REACTORS
330
21F8
102
}
330
21F8
100
AcDbXrecord
280
     1
340
21CC
  0
XRECORD
  5
2226
102
{ACAD_REACTORS
330
21FA
102
}
330
21FA
100
AcDbXrecord
280
     1
340
21C8
  0
LAYOUT
  5
21CF
102
{ACAD_REACTORS
330
21C7
102
}
330
21C7
100
AcDbPlotSettings
  1

  2
SII LP-2150 (D-SCAN C2)
  4

  6

 40
0.0
 41
0.0
 42
0.0
 43
0.0
 44
0.0
 45
0.0
 46
0.0
 47
0.0
 48
0.0
 49
0.0
140
0.0
141
0.0
142
1.0
143
1.0
 70
  1712
 72
     0
 73
     0
 74
     0
  7

 75
     0
147
1.0
148
0.0
149
0.0
100
AcDbLayout
  1
Model
 70
     1
 71
     0
 10
0.0
 20
0.0
 11
12.0
 21
9.0
 12
0.0
 22
0.0
 32
0.0
 14
0.0
 24
0.0
 34
0.0
 15
0.0
 25
0.0
 35
0.0
146
0.0
 13
0.0
 23
0.0
 33
0.0
 16
1.0
 26
0.0
 36
0.0
 17
0.0
 27
1.0
 37
0.0
 76
     0
330
21CC
  0
LAYOUT
  5
21CB
102
{ACAD_REACTORS
330
21C7
102
}
330
21C7
100
AcDbPlotSettings
  1

  2
SII LP-2150 (D-SCAN C2)
  4

  6

 40
0.0
 41
0.0
 42
0.0
 43
0.0
 44
0.0
 45
0.0
 46
0.0
 47
0.0
 48
0.0
 49
0.0
140
0.0
141
0.0
142
1.0
143
1.0
 70
   688
 72
     0
 73
     0
 74
     5
  7

 75
    16
147
1.0
148
0.0
149
0.0
100
AcDbLayout
  1
ﾚｲｱｳﾄ1
 70
     1
 71
     1
 10
0.0
 20
0.0
 11
12.0
 21
9.0
 12
0.0
 22
0.0
 32
0.0
 14
1.000000000000000E+20
 24
1.000000000000000E+20
 34
1.000000000000000E+20
 15
-1.000000000000000E+20
 25
-1.000000000000000E+20
 35
-1.000000000000000E+20
146
0.0
 13
0.0
 23
0.0
 33
0.0
 16
1.0
 26
0.0
 36
0.0
 17
0.0
 27
1.0
 37
0.0
 76
     0
330
21C8
  0
MLINESTYLE
  5
21C5
102
{ACAD_REACTORS
330
21C4
102
}
330
21C4
100
AcDbMlineStyle
  2
STANDARD
 70
     0
  3

 62
   256
 51
90.0
 52
90.0
 71
     2
 49
0.5
 62
   256
  6
BYLAYER
 49
-0.5
 62
   256
  6
BYLAYER
  0
ACDBPLACEHOLDER
  5
21BD
102
{ACAD_REACTORS
330
21BC
102
}
330
21BC
  0
DICTIONARYVAR
  5
2239
102
{ACAD_REACTORS
330
2238
102
}
330
2238
100
DictionaryVariables
280
     0
  1
1
  0
ENDSEC
  0
EOF
