  0
SECTION
  2
HEADER
  9
$ACADVER
  1
AC1015
  9
$ACADMAINTVER
 70
    14
  9
$DWGCODEPAGE
  3
ANSI_932
  9
$INSBASE
 10
0.0
 20
0.0
 30
0.0
  9
$EXTMIN
 10
-10.02932952606409
 20
-407.2248212742326
 30
-0.0000000349181948
  9
$EXTMAX
 10
410.0177483776849
 20
238.0399222102342
 30
0.0000000814935746
  9
$LIMMIN
 10
0.0
 20
0.0
  9
$LIMMAX
 10
12.0
 20
9.0
  9
$ORTHOMODE
 70
     0
  9
$REGENMODE
 70
     1
  9
$FILLMODE
 70
     1
  9
$QTEXTMODE
 70
     0
  9
$MIRRTEXT
 70
     1
  9
$LTSCALE
 40
1.0
  9
$ATTMODE
 70
     1
  9
$TEXTSIZE
 40
0.2
  9
$TRACEWID
 40
0.05
  9
$TEXTSTYLE
  7
STANDARD
  9
$CLAYER
  8
0
  9
$CELTYPE
  6
CONTINUOUS
  9
$CECOLOR
 62
   256
  9
$CELTSCALE
 40
1.0
  9
$DISPSILH
 70
     0
  9
$DIMSCALE
 40
1.0
  9
$DIMASZ
 40
1.0
  9
$DIMEXO
 40
2.54
  9
$DIMDLI
 40
0.38
  9
$DIMRND
 40
0.0
  9
$DIMDLE
 40
0.0
  9
$DIMEXE
 40
2.54
  9
$DIMTP
 40
0.0
  9
$DIMTM
 40
0.0
  9
$DIMTXT
 40
3.2
  9
$DIMCEN
 40
0.09
  9
$DIMTSZ
 40
0.0
  9
$DIMTOL
 70
     0
  9
$DIMLIM
 70
     0
  9
$DIMTIH
 70
     0
  9
$DIMTOH
 70
     0
  9
$DIMSE1
 70
     0
  9
$DIMSE2
 70
     0
  9
$DIMTAD
 70
     1
  9
$DIMZIN
 70
     0
  9
$DIMBLK
  1

  9
$DIMASO
 70
     1
  9
$DIMSHO
 70
     0
  9
$DIMPOST
  1

  9
$DIMAPOST
  1

  9
$DIMALT
 70
     0
  9
$DIMALTD
 70
     2
  9
$DIMALTF
 40
25.4
  9
$DIMLFAC
 40
1.0
  9
$DIMTOFL
 70
     0
  9
$DIMTVP
 40
1.0
  9
$DIMTIX
 70
     0
  9
$DIMSOXD
 70
     0
  9
$DIMSAH
 70
     1
  9
$DIMBLK1
  1

  9
$DIMBLK2
  1

  9
$DIMSTYLE
  2
STANDARD
  9
$DIMCLRD
 70
     0
  9
$DIMCLRE
 70
     0
  9
$DIMCLRT
 70
     0
  9
$DIMTFAC
 40
1.0
  9
$DIMGAP
 40
1.6
  9
$DIMJUST
 70
     0
  9
$DIMSD1
 70
     0
  9
$DIMSD2
 70
     0
  9
$DIMTOLJ
 70
     1
  9
$DIMTZIN
 70
     0
  9
$DIMALTZ
 70
     0
  9
$DIMALTTZ
 70
     0
  9
$DIMUPT
 70
     0
  9
$DIMDEC
 70
     4
  9
$DIMTDEC
 70
     4
  9
$DIMALTU
 70
     2
  9
$DIMALTTD
 70
     2
  9
$DIMTXSTY
  7
STANDARD
  9
$DIMAUNIT
 70
     0
  9
$DIMADEC
 70
     0
  9
$DIMALTRND
 40
0.0
  9
$DIMAZIN
 70
     0
  9
$DIMDSEP
 70
    46
  9
$DIMATFIT
 70
     3
  9
$DIMFRAC
 70
     0
  9
$DIMLDRBLK
  1

  9
$DIMLUNIT
 70
     2
  9
$DIMLWD
 70
    -2
  9
$DIMLWE
 70
    -2
  9
$DIMTMOVE
 70
     0
  9
$LUNITS
 70
     2
  9
$LUPREC
 70
     4
  9
$SKETCHINC
 40
0.1
  9
$FILLETRAD
 40
0.0
  9
$AUNITS
 70
     0
  9
$AUPREC
 70
     0
  9
$MENU
  1
.
  9
$ELEVATION
 40
0.0
  9
$PELEVATION
 40
0.0
  9
$THICKNESS
 40
0.0
  9
$LIMCHECK
 70
     0
  9
$CHAMFERA
 40
0.0
  9
$CHAMFERB
 40
0.0
  9
$CHAMFERC
 40
0.0
  9
$CHAMFERD
 40
0.0
  9
$SKPOLY
 70
     0
  9
$TDCREATE
 40
2452488.423138738
  9
$TDUCREATE
 40
2452488.048138738
  9
$TDUPDATE
 40
2456906.721037905
  9
$TDUUPDATE
 40
2456906.346037905
  9
$TDINDWG
 40
0.2868485648
  9
$TDUSRTIMER
 40
0.2868483796
  9
$USRTIMER
 70
     1
  9
$ANGBASE
 50
0.0
  9
$ANGDIR
 70
     0
  9
$PDMODE
 70
     3
  9
$PDSIZE
 40
0.0
  9
$PLINEWID
 40
0.0
  9
$SPLFRAME
 70
     0
  9
$SPLINETYPE
 70
     6
  9
$SPLINESEGS
 70
     8
  9
$HANDSEED
  5
4F39
  9
$SURFTAB1
 70
     6
  9
$SURFTAB2
 70
     6
  9
$SURFTYPE
 70
     6
  9
$SURFU
 70
     6
  9
$SURFV
 70
     6
  9
$UCSBASE
  2

  9
$UCSNAME
  2

  9
$UCSORG
 10
0.0
 20
0.0
 30
0.0
  9
$UCSXDIR
 10
1.0
 20
0.0
 30
0.0
  9
$UCSYDIR
 10
0.0
 20
1.0
 30
0.0
  9
$UCSORTHOREF
  2

  9
$UCSORTHOVIEW
 70
     0
  9
$UCSORGTOP
 10
0.0
 20
0.0
 30
0.0
  9
$UCSORGBOTTOM
 10
0.0
 20
0.0
 30
0.0
  9
$UCSORGLEFT
 10
0.0
 20
0.0
 30
0.0
  9
$UCSORGRIGHT
 10
0.0
 20
0.0
 30
0.0
  9
$UCSORGFRONT
 10
0.0
 20
0.0
 30
0.0
  9
$UCSORGBACK
 10
0.0
 20
0.0
 30
0.0
  9
$PUCSBASE
  2

  9
$PUCSNAME
  2

  9
$PUCSORG
 10
0.0
 20
0.0
 30
0.0
  9
$PUCSXDIR
 10
1.0
 20
0.0
 30
0.0
  9
$PUCSYDIR
 10
0.0
 20
1.0
 30
0.0
  9
$PUCSORTHOREF
  2

  9
$PUCSORTHOVIEW
 70
     0
  9
$PUCSORGTOP
 10
0.0
 20
0.0
 30
0.0
  9
$PUCSORGBOTTOM
 10
0.0
 20
0.0
 30
0.0
  9
$PUCSORGLEFT
 10
0.0
 20
0.0
 30
0.0
  9
$PUCSORGRIGHT
 10
0.0
 20
0.0
 30
0.0
  9
$PUCSORGFRONT
 10
0.0
 20
0.0
 30
0.0
  9
$PUCSORGBACK
 10
0.0
 20
0.0
 30
0.0
  9
$USERI1
 70
     0
  9
$USERI2
 70
     0
  9
$USERI3
 70
     0
  9
$USERI4
 70
     0
  9
$USERI5
 70
     0
  9
$USERR1
 40
0.0
  9
$USERR2
 40
0.0
  9
$USERR3
 40
0.0
  9
$USERR4
 40
0.0
  9
$USERR5
 40
0.0
  9
$WORLDVIEW
 70
     1
  9
$SHADEDGE
 70
     3
  9
$SHADEDIF
 70
    70
  9
$TILEMODE
 70
     1
  9
$MAXACTVP
 70
    48
  9
$PINSBASE
 10
0.0
 20
0.0
 30
0.0
  9
$PLIMCHECK
 70
     0
  9
$PEXTMIN
 10
1.000000000000000E+20
 20
1.000000000000000E+20
 30
1.000000000000000E+20
  9
$PEXTMAX
 10
-1.000000000000000E+20
 20
-1.000000000000000E+20
 30
-1.000000000000000E+20
  9
$PLIMMIN
 10
0.0
 20
0.0
  9
$PLIMMAX
 10
12.0
 20
9.0
  9
$UNITMODE
 70
     0
  9
$VISRETAIN
 70
     1
  9
$PLINEGEN
 70
     0
  9
$PSLTSCALE
 70
     1
  9
$TREEDEPTH
 70
  3020
  9
$CMLSTYLE
  2
Standard
  9
$CMLJUST
 70
     0
  9
$CMLSCALE
 40
1.0
  9
$PROXYGRAPHICS
 70
     1
  9
$MEASUREMENT
 70
     0
  9
$CELWEIGHT
370
    -1
  9
$ENDCAPS
280
     0
  9
$JOINSTYLE
280
     0
  9
$LWDISPLAY
290
     0
  9
$INSUNITS
 70
     0
  9
$HYPERLINKBASE
  1

  9
$STYLESHEET
  1

  9
$XEDIT
290
     1
  9
$CEPSNTYPE
380
     0
  9
$PSTYLEMODE
290
     1
  9
$FINGERPRINTGUID
  2
{FFE95C04-33D2-4560-80D0-1E2918E4EC86}
  9
$VERSIONGUID
  2
{5729F5F0-9FC0-4D8E-A720-5ED3CF804A38}
  9
$EXTNAMES
290
     1
  9
$PSVPSCALE
 40
0.0
  9
$OLESTARTUP
290
     0
  0
ENDSEC
  0
SECTION
  2
CLASSES
  0
CLASS
  1
ACDBDICTIONARYWDFLT
  2
AcDbDictionaryWithDefault
  3
AutoCAD 2000
 90
        0
280
     0
281
     0
  0
CLASS
  1
ACDBPLACEHOLDER
  2
AcDbPlaceHolder
  3
AutoCAD 2000
 90
        0
280
     0
281
     0
  0
CLASS
  1
LAYOUT
  2
AcDbLayout
  3
AutoCAD 2000
 90
        0
280
     0
281
     0
  0
CLASS
  1
DICTIONARYVAR
  2
AcDbDictionaryVar
  3
AutoCAD 2000
 90
        0
280
     0
281
     0
  0
CLASS
  1
LONG_TRANSACTION
  2
AcDbLongTransaction
  3
AutoCAD 2000
 90
    32768
280
     0
281
     0
  0
CLASS
  1
LWPOLYLINE
  2
AcDbPolyline
  3
AutoCAD 2000
 90
    32768
280
     0
281
     1
  0
CLASS
  1
HATCH
  2
AcDbHatch
  3
AutoCAD 2000
 90
    32768
280
     0
281
     1
  0
CLASS
  1
XRECORD
  2
AcDbXrecord
  3
AutoCAD 2000
 90
    32768
280
     0
281
     0
  0
ENDSEC
  0
SECTION
  2
TABLES
  0
TABLE
  2
VPORT
  5
21B6
330
0
100
AcDbSymbolTable
 70
     2
  0
VPORT
  5
4F38
330
21B6
100
AcDbSymbolTableRecord
100
AcDbViewportTableRecord
  2
*Active
 70
     0
 10
0.0
 20
0.0
 11
1.0
 21
1.0
 12
199.9942094258103
 22
-84.59244953199926
 13
0.0
 23
0.0
 14
1.0
 24
1.0
 15
0.0
 25
0.0
 16
0.0
 26
0.0
 36
1.0
 17
0.0
 27
0.0
 37
0.0
 40
649.3616624907174
 41
1.953389830508474
 42
50.0
 43
0.0
 44
0.0
 50
0.0
 51
0.0
 71
     0
 72
   100
 73
     1
 74
     3
 75
     0
 76
     0
 77
     0
 78
     0
281
     0
 65
     1
110
0.0
120
0.0
130
0.0
111
1.0
121
0.0
131
0.0
112
0.0
122
1.0
132
0.0
 79
     0
146
0.0
  0
ENDTAB
  0
TABLE
  2
LTYPE
  5
21B3
330
0
100
AcDbSymbolTable
 70
     2
  0
LTYPE
  5
21C1
330
21B3
100
AcDbSymbolTableRecord
100
AcDbLinetypeTableRecord
  2
ByBlock
 70
     0
  3

 72
    65
 73
     0
 40
0.0
  0
LTYPE
  5
21C2
330
21B3
100
AcDbSymbolTableRecord
100
AcDbLinetypeTableRecord
  2
ByLayer
 70
     0
  3

 72
    65
 73
     0
 40
0.0
  0
LTYPE
  5
21C3
330
21B3
100
AcDbSymbolTableRecord
100
AcDbLinetypeTableRecord
  2
CONTINUOUS
 70
     0
  3
Solid line
 72
    65
 73
     0
 40
0.0
  0
LTYPE
  5
21D1
330
21B3
100
AcDbSymbolTableRecord
100
AcDbLinetypeTableRecord
  2
CENTER
 70
     0
  3
__ . __
 72
    65
 73
     4
 40
7.0
 49
4.0
 74
     0
 49
-1.0
 74
     0
 49
1.0
 74
     0
 49
-1.0
 74
     0
  0
ENDTAB
  0
TABLE
  2
LAYER
  5
21B0
102
{ACAD_XDICTIONARY
360
2244
102
}
330
0
100
AcDbSymbolTable
 70
     1
  0
LAYER
  5
21BE
330
21B0
100
AcDbSymbolTableRecord
100
AcDbLayerTableRecord
  2
0
 70
     0
 62
     7
  6
CONTINUOUS
370
    -3
390
21BD
  0
ENDTAB
  0
TABLE
  2
STYLE
  5
21B1
330
0
100
AcDbSymbolTable
 70
     1
  0
STYLE
  5
21BF
330
21B1
100
AcDbSymbolTableRecord
100
AcDbTextStyleTableRecord
  2
STANDARD
 70
     0
 40
0.0
 41
1.0
 50
0.0
 71
     0
 42
0.2
  3
txt
  4
BIGFONT
  0
ENDTAB
  0
TABLE
  2
VIEW
  5
21B4
330
0
100
AcDbSymbolTable
 70
     1
  0
VIEW
  5
21DE
330
21B4
100
AcDbSymbolTableRecord
100
AcDbViewTableRecord
  2
OLE1
 70
     0
 40
3692.141019219747
 10
1914.591370701856
 20
1272.206200738182
 41
4595.022665841169
 11
0.0
 21
0.0
 31
1.0
 12
0.0
 22
0.0
 32
0.0
 42
50.0
 43
0.0
 44
0.0
 50
0.0
 71
     0
281
     0
 72
     1
110
0.0
120
0.0
130
0.0
111
1.0
121
0.0
131
0.0
112
0.0
122
1.0
132
0.0
 79
     0
146
0.0
  0
ENDTAB
  0
TABLE
  2
UCS
  5
21B5
330
0
100
AcDbSymbolTable
 70
     0
  0
ENDTAB
  0
TABLE
  2
APPID
  5
21B7
330
0
100
AcDbSymbolTable
 70
     8
  0
APPID
  5
21C0
330
21B7
100
AcDbSymbolTableRecord
100
AcDbRegAppTableRecord
  2
ACAD
 70
     0
  0
APPID
  5
21DF
330
21B7
100
AcDbSymbolTableRecord
100
AcDbRegAppTableRecord
  2
MCAD_NO_VIS
 70
     0
  0
APPID
  5
21E0
330
21B7
100
AcDbSymbolTableRecord
100
AcDbRegAppTableRecord
  2
ACAD_TEMP_GRAPHIC
 70
     0
  0
APPID
  5
21E1
330
21B7
100
AcDbSymbolTableRecord
100
AcDbRegAppTableRecord
  2
ACATTRIBSERVICES
 70
     0
  0
APPID
  5
21E2
330
21B7
100
AcDbSymbolTableRecord
100
AcDbRegAppTableRecord
  2
CONTENTBLOCKICON
 70
     0
  0
APPID
  5
2241
330
21B7
100
AcDbSymbolTableRecord
100
AcDbRegAppTableRecord
  2
ACAD_DSTYLE_DIMJAG
 70
     0
  0
APPID
  5
2242
330
21B7
100
AcDbSymbolTableRecord
100
AcDbRegAppTableRecord
  2
ACAD_DSTYLE_DIMTALN
 70
     0
  0
APPID
  5
2243
330
21B7
100
AcDbSymbolTableRecord
100
AcDbRegAppTableRecord
  2
ACAD_PSEXT
 70
     0
  0
ENDTAB
  0
TABLE
  2
DIMSTYLE
  5
21B8
330
0
100
AcDbSymbolTable
 70
     1
100
AcDbDimStyleTable
 71
     0
  0
DIMSTYLE
105
21E3
330
21B8
100
AcDbSymbolTableRecord
100
AcDbDimStyleTableRecord
  2
STANDARD
 70
     0
279
     2
340
21BF
  0
ENDTAB
  0
TABLE
  2
BLOCK_RECORD
  5
21AF
330
0
100
AcDbSymbolTable
 70
     0
  0
BLOCK_RECORD
  5
21CC
102
{ACAD_XDICTIONARY
360
21F8
102
}
330
21AF
100
AcDbSymbolTableRecord
100
AcDbBlockTableRecord
  2
*Model_Space
340
21CF
  0
BLOCK_RECORD
  5
21C8
102
{ACAD_XDICTIONARY
360
21FA
102
}
330
21AF
100
AcDbSymbolTableRecord
100
AcDbBlockTableRecord
  2
*Paper_Space
340
21CB
  0
ENDTAB
  0
ENDSEC
  0
SECTION
  2
BLOCKS
  0
BLOCK
  5
21CD
330
21CC
100
AcDbEntity
  8
0
100
AcDbBlockBegin
  2
*Model_Space
 70
     0
 10
0.0
 20
0.0
 30
0.0
  3
*Model_Space
  1

  0
ENDBLK
  5
21CE
330
21CC
100
AcDbEntity
  8
0
100
AcDbBlockEnd
  0
BLOCK
  5
21C9
330
21C8
100
AcDbEntity
 67
     1
  8
0
100
AcDbBlockBegin
  2
*Paper_Space
 70
     0
 10
0.0
 20
0.0
 30
0.0
  3
*Paper_Space
  1

  0
ENDBLK
  5
21CA
330
21C8
100
AcDbEntity
 67
     1
  8
0
100
AcDbBlockEnd
  0
ENDSEC
  0
SECTION
  2
ENTITIES
  0
TEXT
  5
F6E
330
21CC
100
AcDbEntity
  8
0
  6
Continuous
100
AcDbText
 10
0.0
 20
190.0
 30
0.0
 40
48.000002
  1
SGQ 5S
 41
1.32095
100
AcDbText
  0
LINE
  5
49C8
330
21CC
100
AcDbEntity
  8
0
  6
CENTER
100
AcDbLine
 10
-10.00000000000011
 20
-291.5533442662809
 30
0.0
 11
410.0000059604644
 21
-291.5533442662809
 31
0.0
  0
LINE
  5
49C9
330
21CC
100
AcDbEntity
  8
0
  6
Continuous
100
AcDbLine
 10
115.0000017136335
 20
-221.6533493282054
 30
0.0
 11
21.49999999999999
 21
-221.6533493282054
 31
0.0
  0
ARC
  5
49CA
330
21CC
100
AcDbEntity
  8
0
  6
Continuous
100
AcDbCircle
 10
115.0000017136335
 20
-219.653349298403
 30
0.0
 40
2.000000029802321
100
AcDbArc
 50
270.0000043257204
 51
7.181642443657186
  0
ARC
  5
49CB
330
21CC
100
AcDbEntity
  8
0
  6
Continuous
100
AcDbCircle
 10
-319.0227708670909
 20
-291.4127192641854
 30
0.0
 40
441.6124333383505
100
AcDbArc
 50
351.0493243568514
 51
8.917268867931211
  0
LINE
  5
49CC
330
21CC
100
AcDbEntity
  8
0
  6
CENTER
100
AcDbLine
 10
200.0000029802321
 20
123.4989878512642
 30
0.0
 11
200.0000029802322
 21
-123.4989913828394
 31
0.0
  0
LINE
  5
49CD
330
21CC
100
AcDbEntity
  8
0
  6
CENTER
100
AcDbLine
 10
-10.00000000000011
 20
0.0
 30
0.0
 11
410.0000059604644
 21
0.0
 31
0.0
  0
LINE
  5
49CE
330
21CC
100
AcDbEntity
  8
0
  6
Continuous
100
AcDbLine
 10
114.3714617350615
 20
69.89999493807545
 30
0.0
 11
21.49999999999999
 21
69.89999493807545
 31
0.0
  0
LINE
  5
49CF
330
21CC
100
AcDbEntity
  8
0
  6
Continuous
100
AcDbLine
 10
114.3714616283002
 20
-69.90002545565403
 30
0.0
 11
21.48646838742911
 21
-69.90002545565403
 31
0.0
  0
ARC
  5
49D0
330
21CC
100
AcDbEntity
  8
0
  6
Continuous
100
AcDbCircle
 10
-319.0227708670906
 20
0.1406250020954758
 30
0.0
 40
441.6124333383505
100
AcDbArc
 50
350.8742346225886
 51
352.6591621585838
  0
LINE
  5
49D1
330
21CC
100
AcDbEntity
  8
0
  6
Continuous
100
AcDbLine
 10
285.6285442254036
 20
69.89999493807545
 30
0.0
 11
378.5000059604647
 21
69.89999493807499
 31
0.0
  0
ARC
  5
49D2
330
21CC
100
AcDbEntity
  8
0
  6
Continuous
100
AcDbCircle
 10
719.0227768275554
 20
0.1406250020954758
 30
0.0
 40
441.6124333383505
100
AcDbArc
 50
170.9111944837206
 51
172.6902400487017
  0
LINE
  5
49D3
330
21CC
100
AcDbEntity
  8
0
  6
Continuous
100
AcDbLine
 10
285.6285443321646
 20
-69.90002545565403
 30
0.0
 11
378.5135375730294
 21
-69.90002545565403
 31
0.0
  0
LINE
  5
49D4
330
21CC
100
AcDbEntity
  8
0
  6
Continuous
100
AcDbLine
 10
110.2500080338268
 20
-193.9033185871094
 30
0.0
 11
195.5000029802322
 21
-193.9033185871094
 31
0.0
  0
LINE
  5
49D5
330
21CC
100
AcDbEntity
  8
0
  6
Continuous
100
AcDbLine
 10
110.2500080338268
 20
-219.4033185871094
 30
0.0
 11
195.5000029802322
 21
-219.4033185871094
 31
0.0
  0
LINE
  5
49D6
330
21CC
100
AcDbEntity
  8
0
  6
Continuous
100
AcDbLine
 10
195.5000029802322
 20
-193.9033185871094
 30
0.0
 11
195.5000029802322
 21
-219.4033185871094
 31
0.0
  0
LINE
  5
49D7
330
21CC
100
AcDbEntity
  8
0
  6
Continuous
100
AcDbLine
 10
180.5000029802322
 20
-197.1533185871098
 30
0.0
 11
180.5000029802322
 21
-216.1533185871098
 31
0.0
  0
LINE
  5
49D8
330
21CC
100
AcDbEntity
  8
0
  6
Continuous
100
AcDbLine
 10
195.5000029802322
 20
-201.6533185871094
 30
0.0
 11
204.5000029802322
 21
-201.6533185871094
 31
0.0
  0
LINE
  5
49D9
330
21CC
100
AcDbEntity
  8
0
  6
Continuous
100
AcDbLine
 10
195.5000029802322
 20
-211.6533185871094
 30
0.0
 11
204.5000029802322
 21
-211.6533185871094
 31
0.0
  0
LINE
  5
49DA
330
21CC
100
AcDbEntity
  8
0
  6
Continuous
100
AcDbLine
 10
173.5000029802322
 20
-199.292102518842
 30
0.0
 11
173.5000029802322
 21
-214.0145346553777
 31
0.0
  0
LINE
  5
49DB
330
21CC
100
AcDbEntity
  8
0
  6
Continuous
100
AcDbLine
 10
174.4035292863845
 20
-196.8383638294189
 30
0.0
 11
180.5000029802322
 21
-196.8383638294189
 31
0.0
  0
LINE
  5
49DC
330
21CC
100
AcDbEntity
  8
0
  6
Continuous
100
AcDbLine
 10
174.4035292863845
 20
-201.7458412082642
 30
0.0
 11
180.5000029802322
 21
-201.7458412082642
 31
0.0
  0
LINE
  5
49DD
330
21CC
100
AcDbEntity
  8
0
  6
Continuous
100
AcDbLine
 10
174.4035292863845
 20
-211.5607959659546
 30
0.0
 11
180.5000029802322
 21
-211.5607959659546
 31
0.0
  0
LINE
  5
49DE
330
21CC
100
AcDbEntity
  8
0
  6
Continuous
100
AcDbLine
 10
174.4035292863845
 20
-216.4682733447998
 30
0.0
 11
180.5000029802322
 21
-216.4682733447998
 31
0.0
  0
LINE
  5
49DF
330
21CC
100
AcDbEntity
  8
0
  6
Continuous
100
AcDbLine
 10
101.2500029802322
 20
-197.1790525348633
 30
0.0
 11
173.5000029802322
 21
-197.1790525348633
 31
0.0
  0
LINE
  5
49E0
330
21CC
100
AcDbEntity
  8
0
  6
Continuous
100
AcDbLine
 10
101.2500029802322
 20
-216.1275846393555
 30
0.0
 11
173.5000029802322
 21
-216.1275846393555
 31
0.0
  0
LINE
  5
49E1
330
21CC
100
AcDbEntity
  8
0
  6
Continuous
100
AcDbLine
 10
180.5000029802322
 20
-198.6533185871094
 30
0.0
 11
195.5000029802322
 21
-198.6533185871094
 31
0.0
  0
LINE
  5
49E2
330
21CC
100
AcDbEntity
  8
0
  6
Continuous
100
AcDbLine
 10
180.5000029802322
 20
-214.6533185871094
 30
0.0
 11
195.5000029802322
 21
-214.6533185871094
 31
0.0
  0
ARC
  5
49E3
330
21CC
100
AcDbEntity
  8
0
  6
Continuous
100
AcDbCircle
 10
177.2836180925369
 20
-214.0145346553777
 30
0.0
 40
3.783614635467528
100
AcDbArc
 50
139.5701072360266
 51
220.4298891215059
  0
ARC
  5
49E4
330
21CC
100
AcDbEntity
  8
0
  6
Continuous
100
AcDbCircle
 10
187.2791701555252
 20
-206.6533185871098
 30
0.0
 40
13.77916812896729
100
AcDbArc
 50
159.1359354343493
 51
200.8640609231775
  0
ARC
  5
49E5
330
21CC
100
AcDbEntity
  8
0
  6
Continuous
100
AcDbCircle
 10
177.2836180925369
 20
-199.292102518842
 30
0.0
 40
3.783614635467528
100
AcDbArc
 50
139.5701072360266
 51
220.4298891215059
  0
ARC
  5
49E6
330
21CC
100
AcDbEntity
  8
0
  6
Continuous
100
AcDbCircle
 10
199.5000032633543
 20
-0.0000017657876015
 30
0.0
 40
87.24999999999999
100
AcDbArc
 50
93.24795910455405
 51
266.7520408954459
  0
ARC
  5
49E7
330
21CC
100
AcDbEntity
  8
0
  6
Continuous
100
AcDbCircle
 10
200.5000032633542
 20
-0.0000017657876015
 30
0.0
 40
87.24999999999999
100
AcDbArc
 50
273.247959104554
 51
86.75204089544594
  0
ARC
  5
49E8
330
21CC
100
AcDbEntity
  8
0
  6
Continuous
100
AcDbCircle
 10
199.5000032633543
 20
-0.0000017657876015
 30
0.0
 40
98.25000000000001
100
AcDbArc
 50
101.6253518832825
 51
258.3746481167174
  0
ARC
  5
49E9
330
21CC
100
AcDbEntity
  8
0
  6
Continuous
100
AcDbCircle
 10
200.5000032633542
 20
-0.0000017657876015
 30
0.0
 40
98.25000000000001
100
AcDbArc
 50
281.6253518832825
 51
78.37464811671742
  0
LINE
  5
49EA
330
21CC
100
AcDbEntity
  8
0
  6
Continuous
100
AcDbLine
 10
227.5000036656856
 20
-117.500003516674
 30
0.0
 11
219.5000035464763
 21
-117.500003516674
 31
0.0
  0
LINE
  5
49EB
330
21CC
100
AcDbEntity
  8
0
  6
Continuous
100
AcDbLine
 10
227.5000036656856
 20
-100.5000032633543
 30
0.0
 11
219.5000035464763
 21
-100.5000032633543
 31
0.0
  0
LINE
  5
49EC
330
21CC
100
AcDbEntity
  8
0
  6
Continuous
100
AcDbLine
 10
226.5964773460696
 20
-109.0000033900141
 30
0.0
 11
220.4035298660924
 21
-109.0000033900141
 31
0.0
  0
LINE
  5
49ED
330
21CC
100
AcDbEntity
  8
0
  6
Continuous
100
AcDbLine
 10
204.5000033229589
 20
-118.5000035315752
 30
0.0
 11
204.5000033229589
 21
-88.10824485009835
 31
0.0
  0
LINE
  5
49EE
330
21CC
100
AcDbEntity
  8
0
  6
Continuous
100
AcDbLine
 10
219.5000035464763
 20
-118.5000035315752
 30
0.0
 11
219.5000035464763
 21
-97.21400532841791
 31
0.0
  0
LINE
  5
49EF
330
21CC
100
AcDbEntity
  8
0
  6
Continuous
100
AcDbLine
 10
180.5000029802322
 20
-118.5000035315752
 30
0.0
 11
180.5000029802322
 21
-97.21400532841791
 31
0.0
  0
ARC
  5
49F0
330
21CC
100
AcDbEntity
  8
0
  6
Continuous
100
AcDbCircle
 10
229.9473208255667
 20
-104.7500033266842
 30
0.0
 40
10.4473163254159
100
AcDbArc
 50
155.9958379257028
 51
204.0041584318385
  0
ARC
  5
49F1
330
21CC
100
AcDbEntity
  8
0
  6
Continuous
100
AcDbCircle
 10
183.9473192013401
 20
-104.7500033266842
 30
0.0
 40
10.4473163254159
100
AcDbArc
 50
155.9958379257028
 51
204.0041584318385
  0
LINE
  5
49F2
330
21CC
100
AcDbEntity
  8
0
  6
Continuous
100
AcDbLine
 10
173.5000028759291
 20
-104.7500033266856
 30
0.0
 11
173.5000028759295
 21
-113.2500034533454
 31
0.0
  0
LINE
  5
49F3
330
21CC
100
AcDbEntity
  8
0
  6
Continuous
100
AcDbLine
 10
174.403529195546
 20
-117.5000035166753
 30
0.0
 11
180.5000029802381
 21
-117.5000035166749
 31
0.0
  0
LINE
  5
49F4
330
21CC
100
AcDbEntity
  8
0
  6
Continuous
100
AcDbLine
 10
174.4035291955456
 20
-109.0000033900155
 30
0.0
 11
180.5000029802376
 21
-109.000003390015
 31
0.0
  0
ARC
  5
49F5
330
21CC
100
AcDbEntity
  8
0
  6
Continuous
100
AcDbCircle
 10
183.9473192013401
 20
-113.2500034533441
 30
0.0
 40
10.4473163254159
100
AcDbArc
 50
155.9958379257028
 51
204.0041584318385
  0
LINE
  5
49F6
330
21CC
100
AcDbEntity
  8
0
  6
Continuous
100
AcDbLine
 10
180.5000029802322
 20
-118.5000035315752
 30
0.0
 11
195.5000032037496
 21
-118.5000035315752
 31
0.0
  0
ARC
  5
49F7
330
21CC
100
AcDbEntity
  8
0
  6
Continuous
100
AcDbCircle
 10
229.9473208255667
 20
-113.2500034533441
 30
0.0
 40
10.4473163254159
100
AcDbArc
 50
155.9958379257028
 51
204.0041584318385
  0
LINE
  5
49F8
330
21CC
100
AcDbEntity
  8
0
  6
Continuous
100
AcDbLine
 10
219.5000035464763
 20
-118.5000035315752
 30
0.0
 11
204.5000033229589
 21
-118.5000035315752
 31
0.0
  0
LINE
  5
49F9
330
21CC
100
AcDbEntity
  8
0
  6
Continuous
100
AcDbLine
 10
174.4035291955451
 20
-100.5000032633556
 30
0.0
 11
180.5000029802372
 21
-100.5000032633552
 31
0.0
  0
ARC
  5
49FA
330
21CC
100
AcDbEntity
  8
0
  6
Continuous
100
AcDbCircle
 10
217.0526863865952
 20
-104.7500033266842
 30
0.0
 40
10.4473163254159
100
AcDbArc
 50
335.9958380393903
 51
24.0041653756959
  0
LINE
  5
49FB
330
21CC
100
AcDbEntity
  8
0
  6
Continuous
100
AcDbLine
 10
227.5000036656856
 20
-117.500003516674
 30
0.0
 11
227.5000036656856
 21
-100.5000032633543
 31
0.0
  0
LINE
  5
49FC
330
21CC
100
AcDbEntity
  8
0
  6
Continuous
100
AcDbLine
 10
229.5000036954879
 20
-103.5000033080577
 30
0.0
 11
229.5000036954879
 21
-114.5000034719705
 31
0.0
  0
ARC
  5
49FD
330
21CC
100
AcDbEntity
  8
0
  6
Continuous
100
AcDbCircle
 10
217.0526863865952
 20
-113.2500034533441
 30
0.0
 40
10.4473163254159
100
AcDbArc
 50
335.9958380393903
 51
24.0041653756959
  0
ARC
  5
49FE
330
21CC
100
AcDbEntity
  8
0
  6
Continuous
100
AcDbCircle
 10
228.5000036805868
 20
-114.5000034719705
 30
0.0
 40
1.00000001490116
100
AcDbArc
 50
269.9999974955313
 51
0.0000086514148811
  0
LINE
  5
49FF
330
21CC
100
AcDbEntity
  8
0
  6
Continuous
100
AcDbLine
 10
228.5000036805868
 20
-115.5000034868717
 30
0.0
 11
227.5000036656856
 21
-115.5000034868717
 31
0.0
  0
ARC
  5
4A00
330
21CC
100
AcDbEntity
  8
0
  6
Continuous
100
AcDbCircle
 10
228.5000036805868
 20
-103.5000033080577
 30
0.0
 40
1.00000001490116
100
AcDbArc
 50
359.9999949910365
 51
89.99999567427954
  0
LINE
  5
4A01
330
21CC
100
AcDbEntity
  8
0
  6
Continuous
100
AcDbLine
 10
228.5000036805868
 20
-102.5000032931566
 30
0.0
 11
227.5000036656856
 21
-102.5000032931566
 31
0.0
  0
LINE
  5
4A02
330
21CC
100
AcDbEntity
  8
0
  6
Continuous
100
AcDbLine
 10
227.5000036656856
 20
117.4999999850988
 30
0.0
 11
219.5000035464763
 21
117.4999999850988
 31
0.0
  0
LINE
  5
4A03
330
21CC
100
AcDbEntity
  8
0
  6
Continuous
100
AcDbLine
 10
227.5000036656856
 20
100.499999731779
 30
0.0
 11
219.5000035464763
 21
100.499999731779
 31
0.0
  0
LINE
  5
4A04
330
21CC
100
AcDbEntity
  8
0
  6
Continuous
100
AcDbLine
 10
226.5964773460696
 20
108.9999998584389
 30
0.0
 11
220.4035298660924
 21
108.9999998584389
 31
0.0
  0
LINE
  5
4A05
330
21CC
100
AcDbEntity
  8
0
  6
Continuous
100
AcDbLine
 10
204.5000033229589
 20
118.5
 30
0.0
 11
204.5000033229589
 21
88.10824131852269
 31
0.0
  0
LINE
  5
4A06
330
21CC
100
AcDbEntity
  8
0
  6
Continuous
100
AcDbLine
 10
180.5000029802322
 20
118.5
 30
0.0
 11
180.5000029802322
 21
97.2140017968427
 31
0.0
  0
LINE
  5
4A07
330
21CC
100
AcDbEntity
  8
0
  6
Continuous
100
AcDbLine
 10
219.5000035464763
 20
118.5
 30
0.0
 11
219.5000035464763
 21
97.2140017968427
 31
0.0
  0
ARC
  5
4A08
330
21CC
100
AcDbEntity
  8
0
  6
Continuous
100
AcDbCircle
 10
229.9473208255667
 20
104.749999795109
 30
0.0
 40
10.4473163254159
100
AcDbArc
 50
155.9958379257028
 51
204.0041584318385
  0
ARC
  5
4A09
330
21CC
100
AcDbEntity
  8
0
  6
Continuous
100
AcDbCircle
 10
183.9473192013401
 20
104.749999795109
 30
0.0
 40
10.4473163254159
100
AcDbArc
 50
155.9958379257028
 51
204.0041584318385
  0
LINE
  5
4A0A
330
21CC
100
AcDbEntity
  8
0
  6
Continuous
100
AcDbLine
 10
174.4035291955401
 20
100.499999731779
 30
0.0
 11
180.5000029802322
 21
100.499999731779
 31
0.0
  0
LINE
  5
4A0B
330
21CC
100
AcDbEntity
  8
0
  6
Continuous
100
AcDbLine
 10
174.4035291955401
 20
117.4999999850988
 30
0.0
 11
180.5000029802322
 21
117.4999999850988
 31
0.0
  0
LINE
  5
4A0C
330
21CC
100
AcDbEntity
  8
0
  6
Continuous
100
AcDbLine
 10
174.4035291955401
 20
108.9999998584389
 30
0.0
 11
180.5000029802322
 21
108.9999998584389
 31
0.0
  0
ARC
  5
4A0D
330
21CC
100
AcDbEntity
  8
0
  6
Continuous
100
AcDbCircle
 10
183.9473192013401
 20
113.2499999217688
 30
0.0
 40
10.4473163254159
100
AcDbArc
 50
155.9958379257028
 51
204.0041584318385
  0
LINE
  5
4A0E
330
21CC
100
AcDbEntity
  8
0
  6
Continuous
100
AcDbLine
 10
173.5000028759241
 20
104.749999795109
 30
0.0
 11
173.5000028759241
 21
113.2499999217688
 31
0.0
  0
LINE
  5
4A0F
330
21CC
100
AcDbEntity
  8
0
  6
Continuous
100
AcDbLine
 10
180.5000029802322
 20
118.5
 30
0.0
 11
195.5000032037496
 21
118.5
 31
0.0
  0
ARC
  5
4A10
330
21CC
100
AcDbEntity
  8
0
  6
Continuous
100
AcDbCircle
 10
229.9473208255667
 20
113.2499999217688
 30
0.0
 40
10.4473163254159
100
AcDbArc
 50
155.9958379257028
 51
204.0041584318385
  0
LINE
  5
4A11
330
21CC
100
AcDbEntity
  8
0
  6
Continuous
100
AcDbLine
 10
219.5000035464763
 20
118.5
 30
0.0
 11
204.5000033229589
 21
118.5
 31
0.0
  0
ARC
  5
4A12
330
21CC
100
AcDbEntity
  8
0
  6
Continuous
100
AcDbCircle
 10
217.0526863865952
 20
104.749999795109
 30
0.0
 40
10.4473163254159
100
AcDbArc
 50
335.9958346242776
 51
24.00416196060964
  0
LINE
  5
4A13
330
21CC
100
AcDbEntity
  8
0
  6
Continuous
100
AcDbLine
 10
227.5000036656856
 20
117.4999999850988
 30
0.0
 11
227.5000036656856
 21
100.499999731779
 31
0.0
  0
LINE
  5
4A14
330
21CC
100
AcDbEntity
  8
0
  6
Continuous
100
AcDbLine
 10
229.5000036954879
 20
103.4999997764825
 30
0.0
 11
229.5000036954879
 21
114.4999999403953
 31
0.0
  0
ARC
  5
4A15
330
21CC
100
AcDbEntity
  8
0
  6
Continuous
100
AcDbCircle
 10
228.5000036805868
 20
103.4999997764825
 30
0.0
 40
1.00000001490116
100
AcDbArc
 50
270.0000043257204
 51
0.0000050089374039
  0
LINE
  5
4A16
330
21CC
100
AcDbEntity
  8
0
  6
Continuous
100
AcDbLine
 10
228.5000036805868
 20
102.4999997615814
 30
0.0
 11
227.5000036656856
 21
102.4999997615814
 31
0.0
  0
ARC
  5
4A17
330
21CC
100
AcDbEntity
  8
0
  6
Continuous
100
AcDbCircle
 10
217.0526863865952
 20
113.2499999217688
 30
0.0
 40
10.4473163254159
100
AcDbArc
 50
335.9958346242776
 51
24.00416196060964
  0
ARC
  5
4A18
330
21CC
100
AcDbEntity
  8
0
  6
Continuous
100
AcDbCircle
 10
228.5000036805868
 20
114.4999999403953
 30
0.0
 40
1.00000001490116
100
AcDbArc
 50
359.9999913485851
 51
90.00000250446868
  0
LINE
  5
4A19
330
21CC
100
AcDbEntity
  8
0
  6
Continuous
100
AcDbLine
 10
228.5000036805868
 20
115.4999999552965
 30
0.0
 11
227.5000036656856
 21
115.4999999552965
 31
0.0
  0
LINE
  5
4A1A
330
21CC
100
AcDbEntity
  8
0
  6
Continuous
100
AcDbLine
 10
101.2500029802322
 20
-197.1790525348633
 30
0.0
 11
101.2500029802322
 21
-216.1275846393555
 31
0.0
  0
LINE
  5
4A1B
330
21CC
100
AcDbEntity
  8
0
  6
Continuous
100
AcDbLine
 10
110.2500080338268
 20
-193.9033185871094
 30
0.0
 11
101.2500029802322
 21
-197.1790525348633
 31
0.0
  0
LINE
  5
4A1C
330
21CC
100
AcDbEntity
  8
0
  6
Continuous
100
AcDbLine
 10
110.2500080338268
 20
-219.4033185871094
 30
0.0
 11
101.2500029802322
 21
-216.1275846393555
 31
0.0
  0
LINE
  5
4A1D
330
21CC
100
AcDbEntity
  8
0
  6
Continuous
100
AcDbLine
 10
195.5000032037496
 20
-88.10824485009835
 30
0.0
 11
195.5000032037496
 21
-118.5000035315752
 31
0.0
  0
LINE
  5
4A1E
330
21CC
100
AcDbEntity
  8
0
  6
Continuous
100
AcDbLine
 10
195.5000032037496
 20
118.5
 30
0.0
 11
195.5000032037496
 21
88.10824131852269
 31
0.0
  0
LINE
  5
4A1F
330
21CC
100
AcDbEntity
  8
0
  6
Continuous
100
AcDbLine
 10
195.5000032037496
 20
113.9999999329447
 30
0.0
 11
204.5000033229589
 21
113.9999999329447
 31
0.0
  0
LINE
  5
4A20
330
21CC
100
AcDbEntity
  8
0
  6
Continuous
100
AcDbLine
 10
195.5000032037496
 20
103.9999997839331
 30
0.0
 11
204.5000033229589
 21
103.9999997839331
 31
0.0
  0
LINE
  5
4A21
330
21CC
100
AcDbEntity
  8
0
  6
Continuous
100
AcDbLine
 10
195.5000032037496
 20
-104.0000033155083
 30
0.0
 11
204.5000033229589
 21
-104.0000033155083
 31
0.0
  0
LINE
  5
4A22
330
21CC
100
AcDbEntity
  8
0
  6
Continuous
100
AcDbLine
 10
195.5000032037496
 20
-114.0000034645199
 30
0.0
 11
204.5000033229589
 21
-114.0000034645199
 31
0.0
  0
LINE
  5
4A23
330
21CC
100
AcDbEntity
  8
0
  6
Continuous
100
AcDbLine
 10
230.5000037252903
 20
-105.0000033155083
 30
0.0
 11
230.5000037252903
 21
-113.0000034645199
 31
0.0
  0
LINE
  5
4A24
330
21CC
100
AcDbEntity
  8
0
  6
Continuous
100
AcDbLine
 10
230.5000037252903
 20
-105.0000033155083
 30
0.0
 11
229.5000036954879
 21
-105.0000033155083
 31
0.0
  0
LINE
  5
4A25
330
21CC
100
AcDbEntity
  8
0
  6
Continuous
100
AcDbLine
 10
230.5000037252903
 20
-113.0000034645199
 30
0.0
 11
229.5000036954879
 21
-113.0000034645199
 31
0.0
  0
LINE
  5
4A26
330
21CC
100
AcDbEntity
  8
0
  6
Continuous
100
AcDbLine
 10
195.5000032037496
 20
-105.0000033155083
 30
0.0
 11
204.5000033229589
 21
-105.0000033155083
 31
0.0
  0
LINE
  5
4A27
330
21CC
100
AcDbEntity
  8
0
  6
Continuous
100
AcDbLine
 10
195.5000032037496
 20
-113.0000034645199
 30
0.0
 11
204.5000033229589
 21
-113.0000034645199
 31
0.0
  0
LINE
  5
4A28
330
21CC
100
AcDbEntity
  8
0
  6
Continuous
100
AcDbLine
 10
230.5000037252903
 20
104.9999997839331
 30
0.0
 11
230.5000037252903
 21
112.9999999329447
 31
0.0
  0
LINE
  5
4A29
330
21CC
100
AcDbEntity
  8
0
  6
Continuous
100
AcDbLine
 10
230.5000037252903
 20
112.9999999329447
 30
0.0
 11
229.5000036954879
 21
112.9999999329447
 31
0.0
  0
LINE
  5
4A2A
330
21CC
100
AcDbEntity
  8
0
  6
Continuous
100
AcDbLine
 10
230.5000037252903
 20
104.9999997839331
 30
0.0
 11
229.5000036954879
 21
104.9999997839331
 31
0.0
  0
LINE
  5
4A2B
330
21CC
100
AcDbEntity
  8
0
  6
Continuous
100
AcDbLine
 10
195.5000032037496
 20
112.9999999329447
 30
0.0
 11
204.5000033229589
 21
112.9999999329447
 31
0.0
  0
LINE
  5
4A2C
330
21CC
100
AcDbEntity
  8
0
  6
Continuous
100
AcDbLine
 10
195.5000032037496
 20
104.9999997839331
 30
0.0
 11
204.5000033229589
 21
104.9999997839331
 31
0.0
  0
LINE
  5
4A2D
330
21CC
100
AcDbEntity
  8
0
  6
Continuous
100
AcDbLine
 10
229.5000036954879
 20
113.9999999329447
 30
0.0
 11
230.5000037252903
 21
112.9999999329447
 31
0.0
  0
LINE
  5
4A2E
330
21CC
100
AcDbEntity
  8
0
  6
Continuous
100
AcDbLine
 10
230.5000037252903
 20
104.9999997839331
 30
0.0
 11
229.5000036954879
 21
103.9999997839331
 31
0.0
  0
LINE
  5
4A2F
330
21CC
100
AcDbEntity
  8
0
  6
Continuous
100
AcDbLine
 10
230.5000037252903
 20
-105.0000033155083
 30
0.0
 11
229.5000036954879
 21
-104.0000033155083
 31
0.0
  0
LINE
  5
4A30
330
21CC
100
AcDbEntity
  8
0
  6
Continuous
100
AcDbLine
 10
230.5000037252903
 20
-113.0000034645199
 30
0.0
 11
229.5000036954879
 21
-114.0000034645199
 31
0.0
  0
ARC
  5
4A31
330
21CC
100
AcDbEntity
  8
0
  6
Continuous
100
AcDbCircle
 10
-319.0227708670906
 20
0.1406250020954758
 30
0.0
 40
441.6124333383505
100
AcDbArc
 50
7.309759861853803
 51
9.088805516253612
  0
ARC
  5
4A32
330
21CC
100
AcDbEntity
  8
0
  6
Continuous
100
AcDbCircle
 10
719.0227768275554
 20
0.1406250020954758
 30
0.0
 40
441.6124333383505
100
AcDbArc
 50
187.3408379308931
 51
189.1257653774113
  0
CIRCLE
  5
4A33
330
21CC
100
AcDbEntity
  8
0
  6
Continuous
100
AcDbCircle
 10
200.0000029802322
 20
0.0
 30
0.0
 40
46.0
  0
CIRCLE
  5
4A34
330
21CC
100
AcDbEntity
  8
0
  6
Continuous
100
AcDbCircle
 10
200.0000029802322
 20
0.0
 30
0.0
 40
48.0
  0
CIRCLE
  5
4A35
330
21CC
100
AcDbEntity
  8
0
  6
Continuous
100
AcDbCircle
 10
200.0000029802322
 20
0.0
 30
0.0
 40
80.68483999999989
  0
ARC
  5
4A36
330
21CC
100
AcDbEntity
  8
0
  6
Continuous
100
AcDbCircle
 10
200.0000029802322
 20
0.0
 30
0.0
 40
89.75000533785078
100
AcDbArc
 50
92.87397360378765
 51
267.1260263962123
  0
ARC
  5
4A37
330
21CC
100
AcDbEntity
  8
0
  6
Continuous
100
AcDbCircle
 10
200.0000029802322
 20
0.0
 30
0.0
 40
91.40000400000008
100
AcDbArc
 50
87.17795083489754
 51
92.82204880970949
  0
LINE
  5
4A38
330
21CC
100
AcDbEntity
  8
0
  6
Continuous
100
AcDbLine
 10
180.5000029802322
 20
-384.4533699454523
 30
0.0
 11
195.5000029802322
 21
-384.4533699454523
 31
0.0
  0
LINE
  5
4A39
330
21CC
100
AcDbEntity
  8
0
  6
Continuous
100
AcDbLine
 10
180.5000029802322
 20
-368.4533699454523
 30
0.0
 11
195.5000029802322
 21
-368.4533699454523
 31
0.0
  0
LINE
  5
4A3A
330
21CC
100
AcDbEntity
  8
0
  6
Continuous
100
AcDbLine
 10
110.2500080338268
 20
-363.7033699454523
 30
0.0
 11
195.5000029802322
 21
-363.7033699454523
 31
0.0
  0
LINE
  5
4A3B
330
21CC
100
AcDbEntity
  8
0
  6
Continuous
100
AcDbLine
 10
110.2500080338268
 20
-389.2033699454523
 30
0.0
 11
195.5000029802322
 21
-389.2033699454523
 31
0.0
  0
LINE
  5
4A3C
330
21CC
100
AcDbEntity
  8
0
  6
Continuous
100
AcDbLine
 10
180.5000029802322
 20
-386.2683247031427
 30
0.0
 11
180.5000029802321
 21
-366.6384151877618
 31
0.0
  0
LINE
  5
4A3D
330
21CC
100
AcDbEntity
  8
0
  6
Continuous
100
AcDbLine
 10
174.4035292863845
 20
-366.6384151877618
 30
0.0
 11
180.5000029802321
 21
-366.6384151877618
 31
0.0
  0
LINE
  5
4A3E
330
21CC
100
AcDbEntity
  8
0
  6
Continuous
100
AcDbLine
 10
174.4035292863845
 20
-371.5458925666071
 30
0.0
 11
180.5000029802322
 21
-371.5458925666071
 31
0.0
  0
LINE
  5
4A3F
330
21CC
100
AcDbEntity
  8
0
  6
Continuous
100
AcDbLine
 10
174.4035292863845
 20
-381.3608473242975
 30
0.0
 11
180.5000029802322
 21
-381.3608473242975
 31
0.0
  0
LINE
  5
4A40
330
21CC
100
AcDbEntity
  8
0
  6
Continuous
100
AcDbLine
 10
174.4035292863845
 20
-386.2683247031427
 30
0.0
 11
180.5000029802322
 21
-386.2683247031427
 31
0.0
  0
LINE
  5
4A41
330
21CC
100
AcDbEntity
  8
0
  6
Continuous
100
AcDbLine
 10
195.5000029802322
 20
-389.2033699454523
 30
0.0
 11
195.5000029802322
 21
-363.7033699454523
 31
0.0
  0
LINE
  5
4A42
330
21CC
100
AcDbEntity
  8
0
  6
Continuous
100
AcDbLine
 10
195.5000029802322
 20
-371.4533699454523
 30
0.0
 11
204.5000029802321
 21
-371.4533699454523
 31
0.0
  0
LINE
  5
4A43
330
21CC
100
AcDbEntity
  8
0
  6
Continuous
100
AcDbLine
 10
195.5000029802322
 20
-381.4533699454523
 30
0.0
 11
204.5000029802321
 21
-381.4533699454523
 31
0.0
  0
LINE
  5
4A44
330
21CC
100
AcDbEntity
  8
0
  6
Continuous
100
AcDbLine
 10
101.2500029802322
 20
-366.9791038932062
 30
0.0
 11
173.5000029802322
 21
-366.9791038932062
 31
0.0
  0
LINE
  5
4A45
330
21CC
100
AcDbEntity
  8
0
  6
Continuous
100
AcDbLine
 10
101.2500029802322
 20
-385.9276359976984
 30
0.0
 11
173.5000029802322
 21
-385.9276359976984
 31
0.0
  0
ARC
  5
4A46
330
21CC
100
AcDbEntity
  8
0
  6
Continuous
100
AcDbCircle
 10
187.2791701555252
 20
-376.4533699454518
 30
0.0
 40
13.77916812896729
100
AcDbArc
 50
159.1359390767958
 51
200.8640645656506
  0
LINE
  5
4A47
330
21CC
100
AcDbEntity
  8
0
  6
Continuous
100
AcDbLine
 10
173.5000029802322
 20
-383.8145860137196
 30
0.0
 11
173.5000029802322
 21
-369.092153877184
 31
0.0
  0
ARC
  5
4A48
330
21CC
100
AcDbEntity
  8
0
  6
Continuous
100
AcDbCircle
 10
177.2836180925369
 20
-369.0921538771845
 30
0.0
 40
3.783614635467528
100
AcDbArc
 50
139.570110878494
 51
220.4298927639733
  0
ARC
  5
4A49
330
21CC
100
AcDbEntity
  8
0
  6
Continuous
100
AcDbCircle
 10
177.2836180925369
 20
-383.8145860137201
 30
0.0
 40
3.783614635467528
100
AcDbArc
 50
139.570110878494
 51
220.4298927639733
  0
LINE
  5
4A4A
330
21CC
100
AcDbEntity
  8
0
  6
Continuous
100
AcDbLine
 10
101.2500029802322
 20
-385.9276359976984
 30
0.0
 11
101.2500029802322
 21
-366.9791038932062
 31
0.0
  0
LINE
  5
4A4B
330
21CC
100
AcDbEntity
  8
0
  6
Continuous
100
AcDbLine
 10
110.2500080338268
 20
-389.2033699454523
 30
0.0
 11
101.2500029802322
 21
-385.9276359976984
 31
0.0
  0
LINE
  5
4A4C
330
21CC
100
AcDbEntity
  8
0
  6
Continuous
100
AcDbLine
 10
115.0000017136335
 20
-361.4533392043563
 30
0.0
 11
21.49999999999999
 21
-361.4533392043563
 31
0.0
  0
LINE
  5
4A4D
330
21CC
100
AcDbEntity
  8
0
  6
Continuous
100
AcDbLine
 10
110.2500080338268
 20
-363.7033699454523
 30
0.0
 11
101.2500029802322
 21
-366.9791038932062
 31
0.0
  0
ARC
  5
4A4E
330
21CC
100
AcDbEntity
  8
0
  6
Continuous
100
AcDbCircle
 10
115.0000017136335
 20
-363.4533392341586
 30
0.0
 40
2.000000029802321
100
AcDbArc
 50
352.8183575563427
 51
89.99999567427954
  0
ARC
  5
4A4F
330
21CC
100
AcDbEntity
  8
0
  6
Continuous
100
AcDbCircle
 10
200.0000029802322
 20
0.0
 30
0.0
 40
91.40000400000008
100
AcDbArc
 50
267.1779511902905
 51
272.8220491651024
  0
ARC
  5
4A50
330
21CC
100
AcDbEntity
  8
0
  6
Continuous
100
AcDbCircle
 10
200.0000029802326
 20
-0.0000153223622874
 30
0.0
 40
109.8117102598245
100
AcDbArc
 50
40.01928686178145
 51
73.8741461235589
  0
ARC
  5
4A51
330
21CC
100
AcDbEntity
  8
0
  6
Continuous
100
AcDbCircle
 10
114.3714617350612
 20
71.89999493807545
 30
0.0
 40
2.0
100
AcDbArc
 50
270.0000000000065
 51
319.9807131382185
  0
ARC
  5
4A52
330
21CC
100
AcDbEntity
  8
0
  6
Continuous
100
AcDbCircle
 10
114.3714616283002
 20
-71.90002545565403
 30
0.0
 40
2.0
100
AcDbArc
 50
40.01928677672003
 51
90.0
  0
ARC
  5
4A53
330
21CC
100
AcDbEntity
  8
0
  6
Continuous
100
AcDbCircle
 10
285.6285443321646
 20
-71.90002545565403
 30
0.0
 40
2.0
100
AcDbArc
 50
90.0
 51
139.9807132232799
  0
ARC
  5
4A54
330
21CC
100
AcDbEntity
  8
0
  6
Continuous
100
AcDbCircle
 10
285.6285442254036
 20
71.89999493807545
 30
0.0
 40
2.0
100
AcDbArc
 50
220.0192868617814
 51
270.0
  0
ARC
  5
4A55
330
21CC
100
AcDbEntity
  8
0
  6
Continuous
100
AcDbCircle
 10
200.0000029802326
 20
-0.0000153223622874
 30
0.0
 40
109.8117102598245
100
AcDbArc
 50
220.0192867767108
 51
256.0354110149485
  0
ARC
  5
4A56
330
21CC
100
AcDbEntity
  8
0
  6
Continuous
100
AcDbCircle
 10
200.0000029802326
 20
-0.0000153223622874
 30
0.0
 40
109.8117102598245
100
AcDbArc
 50
103.9645889850514
 51
139.9807131382185
  0
ARC
  5
4A57
330
21CC
100
AcDbEntity
  8
0
  6
Continuous
100
AcDbCircle
 10
200.0000029802326
 20
-0.0000153223622874
 30
0.0
 40
109.8117102598245
100
AcDbArc
 50
286.1258538764411
 51
319.9807132232891
  0
ARC
  5
4A58
330
21CC
100
AcDbEntity
  8
0
  6
Continuous
100
AcDbCircle
 10
200.0000029802322
 20
0.0
 30
0.0
 40
89.75000533785078
100
AcDbArc
 50
272.8739739657248
 51
87.12602603427511
  0
ARC
  5
4A5A
330
21CC
100
AcDbEntity
  8
0
  6
Continuous
100
AcDbCircle
 10
179.5000029802322
 20
97.2140017968427
 30
0.0
 40
1.0
100
AcDbArc
 50
281.6253518832825
 51
0.0
  0
ARC
  5
4A5B
330
21CC
100
AcDbEntity
  8
0
  6
Continuous
100
AcDbCircle
 10
220.5000035464763
 20
97.2140017968427
 30
0.0
 40
1.0
100
AcDbArc
 50
180.0
 51
258.3746481167174
  0
ARC
  5
4A5C
330
21CC
100
AcDbEntity
  8
0
  6
Continuous
100
AcDbCircle
 10
205.5000033229589
 20
88.10824131852269
 30
0.0
 40
1.0
100
AcDbArc
 50
180.0
 51
266.7520408954459
  0
ARC
  5
4A5D
330
21CC
100
AcDbEntity
  8
0
  6
Continuous
100
AcDbCircle
 10
194.5000032037496
 20
88.10824131852269
 30
0.0
 40
1.0
100
AcDbArc
 50
273.247959104554
 51
0.0
  0
ARC
  5
4A5E
330
21CC
100
AcDbEntity
  8
0
  6
Continuous
100
AcDbCircle
 10
179.5000029802322
 20
-97.21400532841791
 30
0.0
 40
1.0
100
AcDbArc
 50
0.0
 51
78.37464811671742
  0
ARC
  5
4A5F
330
21CC
100
AcDbEntity
  8
0
  6
Continuous
100
AcDbCircle
 10
220.5000035464763
 20
-97.21400532841791
 30
0.0
 40
1.0
100
AcDbArc
 50
101.6253518832825
 51
180.0
  0
ARC
  5
4A60
330
21CC
100
AcDbEntity
  8
0
  6
Continuous
100
AcDbCircle
 10
205.5000033229589
 20
-88.10824485009835
 30
0.0
 40
1.0
100
AcDbArc
 50
93.24795910455405
 51
180.0
  0
ARC
  5
4A61
330
21CC
100
AcDbEntity
  8
0
  6
Continuous
100
AcDbCircle
 10
194.5000032037496
 20
-88.10824485009835
 30
0.0
 40
1.0
100
AcDbArc
 50
0.0
 51
86.75204089544594
  0
LINE
  5
4A62
330
21CC
100
AcDbEntity
  8
0
  6
Continuous
100
AcDbLine
 10
4.0
 20
-212.6033442662806
 30
0.0
 11
3.999999999999886
 21
-370.5033442662811
 31
0.0
  0
LINE
  5
4A63
330
21CC
100
AcDbEntity
  8
0
  6
Continuous
100
AcDbLine
 10
12.82703296142688
 20
-391.5533442662809
 30
0.0
 11
12.82703296142688
 21
-191.5533442662808
 31
0.0
  0
LINE
  5
4A64
330
21CC
100
AcDbEntity
  8
0
  6
Continuous
100
AcDbLine
 10
10.67296703857312
 20
-391.5533442662809
 30
0.0
 11
10.67296703857312
 21
-191.5533442662808
 31
0.0
  0
LINE
  5
4A65
330
21CC
100
AcDbEntity
  8
0
  6
Continuous
100
AcDbLine
 10
17.5
 20
-191.5533442662808
 30
0.0
 11
17.5
 21
-391.5533442662809
 31
0.0
  0
LINE
  5
4A66
330
21CC
100
AcDbEntity
  8
0
  6
Continuous
100
AcDbLine
 10
6.0
 20
-191.5533442662808
 30
0.0
 11
6.0
 21
-391.5533442662809
 31
0.0
  0
LINE
  5
4A67
330
21CC
100
AcDbEntity
  8
0
  6
Continuous
100
AcDbLine
 10
18.5
 20
-192.5533442662808
 30
0.0
 11
18.5
 21
-390.5533442662808
 31
0.0
  0
LINE
  5
4A68
330
21CC
100
AcDbEntity
  8
0
  6
Continuous
100
AcDbLine
 10
5.0
 20
-192.5533442662808
 30
0.0
 11
5.0
 21
-390.5533442662808
 31
0.0
  0
LINE
  5
4A69
330
21CC
100
AcDbEntity
  8
0
  6
Continuous
100
AcDbLine
 10
0.0
 20
-213.603344266281
 30
0.0
 11
0.0
 21
-369.5033442662806
 31
0.0
  0
LINE
  5
4A6A
330
21CC
100
AcDbEntity
  8
0
  6
Continuous
100
AcDbLine
 10
23.5
 20
-380.5533442662808
 30
0.0
 11
0.0
 21
-380.5533442662808
 31
0.0
  0
LINE
  5
4A6B
330
21CC
100
AcDbEntity
  8
0
  6
Continuous
100
AcDbLine
 10
10.67296703857312
 20
-391.5533442662809
 30
0.0
 11
6.0
 21
-391.5533442662809
 31
0.0
  0
LINE
  5
4A6C
330
21CC
100
AcDbEntity
  8
0
  6
Continuous
100
AcDbLine
 10
5.0
 20
-390.5533442662808
 30
0.0
 11
6.0
 21
-391.5533442662809
 31
0.0
  0
ARC
  5
4A6D
330
21CC
100
AcDbEntity
  8
0
  6
Continuous
100
AcDbCircle
 10
11.75
 20
-394.3533442662806
 30
0.0
 40
3.0
100
AcDbArc
 50
68.96053021868642
 51
111.0394697813135
  0
LINE
  5
4A6E
330
21CC
100
AcDbEntity
  8
0
  6
Continuous
100
AcDbLine
 10
17.5
 20
-391.5533442662809
 30
0.0
 11
18.5
 21
-390.5533442662808
 31
0.0
  0
LINE
  5
4A6F
330
21CC
100
AcDbEntity
  8
0
  6
Continuous
100
AcDbLine
 10
17.5
 20
-391.5533442662809
 30
0.0
 11
12.82703296142688
 21
-391.5533442662809
 31
0.0
  0
LINE
  5
4A70
330
21CC
100
AcDbEntity
  8
0
  6
Continuous
100
AcDbLine
 10
5.0
 20
-371.5033442662806
 30
0.0
 11
4.0
 21
-370.5033442662811
 31
0.0
  0
ARC
  5
4A71
330
21CC
100
AcDbEntity
  8
0
  6
Continuous
100
AcDbCircle
 10
1.0
 20
-369.5033442662806
 30
0.0
 40
1.0
100
AcDbArc
 50
180.0
 51
270.0
  0
LINE
  5
4A72
330
21CC
100
AcDbEntity
  8
0
  6
Continuous
100
AcDbLine
 10
4.0
 20
-370.5033442662811
 30
0.0
 11
1.0
 21
-370.5033442662807
 31
0.0
  0
ARC
  5
4A73
330
21CC
100
AcDbEntity
  8
0
  6
Continuous
100
AcDbCircle
 10
1.0
 20
-213.603344266281
 30
0.0
 40
1.0
100
AcDbArc
 50
90.0
 51
180.0
  0
LINE
  5
4A74
330
21CC
100
AcDbEntity
  8
0
  6
Continuous
100
AcDbLine
 10
4.0
 20
-212.6033442662806
 30
0.0
 11
1.0
 21
-212.603344266281
 31
0.0
  0
LINE
  5
4A75
330
21CC
100
AcDbEntity
  8
0
  6
Continuous
100
AcDbLine
 10
5.0
 20
-211.603344266281
 30
0.0
 11
4.0
 21
-212.6033442662806
 31
0.0
  0
LINE
  5
4A76
330
21CC
100
AcDbEntity
  8
0
  6
Continuous
100
AcDbLine
 10
23.5
 20
-202.5533442662808
 30
0.0
 11
0.0
 21
-202.5533442662808
 31
0.0
  0
LINE
  5
4A77
330
21CC
100
AcDbEntity
  8
0
  6
Continuous
100
AcDbLine
 10
10.67296703857312
 20
-191.5533442662808
 30
0.0
 11
6.0
 21
-191.5533442662808
 31
0.0
  0
LINE
  5
4A78
330
21CC
100
AcDbEntity
  8
0
  6
Continuous
100
AcDbLine
 10
5.0
 20
-192.5533442662808
 30
0.0
 11
6.0
 21
-191.5533442662808
 31
0.0
  0
ARC
  5
4A79
330
21CC
100
AcDbEntity
  8
0
  6
Continuous
100
AcDbCircle
 10
11.75
 20
-188.7533442662811
 30
0.0
 40
3.0
100
AcDbArc
 50
248.9605302186864
 51
291.0394697813136
  0
LINE
  5
4A7A
330
21CC
100
AcDbEntity
  8
0
  6
Continuous
100
AcDbLine
 10
17.5
 20
-191.5533442662808
 30
0.0
 11
18.5
 21
-192.5533442662808
 31
0.0
  0
LINE
  5
4A7B
330
21CC
100
AcDbEntity
  8
0
  6
Continuous
100
AcDbLine
 10
17.5
 20
-191.5533442662808
 30
0.0
 11
12.82703296142688
 21
-191.5533442662808
 31
0.0
  0
ARC
  5
4A7C
330
21CC
100
AcDbEntity
  8
0
  6
Continuous
100
AcDbCircle
 10
21.49999999999999
 20
-218.6533493282054
 30
0.0
 40
3.0
100
AcDbArc
 50
180.0
 51
270.0
  0
ARC
  5
4A7D
330
21CC
100
AcDbEntity
  8
0
  6
Continuous
100
AcDbCircle
 10
21.49999999999999
 20
-364.4533392043563
 30
0.0
 40
3.0
100
AcDbArc
 50
90.0
 51
180.0
  0
LINE
  5
4A7E
330
21CC
100
AcDbEntity
  8
0
  6
Continuous
100
AcDbLine
 10
18.5
 20
99.0
 30
0.0
 11
18.5
 21
-99.0
 31
0.0
  0
LINE
  5
4A7F
330
21CC
100
AcDbEntity
  8
0
  6
Continuous
100
AcDbLine
 10
0.0
 20
77.94999999999982
 30
0.0
 11
0.0
 21
-77.95000000000027
 31
0.0
  0
LINE
  5
4A80
330
21CC
100
AcDbEntity
  8
0
  6
Continuous
100
AcDbLine
 10
5.0
 20
99.0
 30
0.0
 11
5.0
 21
-99.0
 31
0.0
  0
LINE
  5
4A81
330
21CC
100
AcDbEntity
  8
0
  6
Continuous
100
AcDbLine
 10
6.0
 20
100.0
 30
0.0
 11
6.0
 21
-100.0
 31
0.0
  0
LINE
  5
4A82
330
21CC
100
AcDbEntity
  8
0
  6
Continuous
100
AcDbLine
 10
17.5
 20
100.0
 30
0.0
 11
17.5
 21
-100.0
 31
0.0
  0
LINE
  5
4A83
330
21CC
100
AcDbEntity
  8
0
  6
Continuous
100
AcDbLine
 10
10.67296703857312
 20
-100.0
 30
0.0
 11
10.67296703857312
 21
100.0
 31
0.0
  0
LINE
  5
4A84
330
21CC
100
AcDbEntity
  8
0
  6
Continuous
100
AcDbLine
 10
12.82703296142688
 20
-100.0
 30
0.0
 11
12.82703296142688
 21
100.0
 31
0.0
  0
LINE
  5
4A85
330
21CC
100
AcDbEntity
  8
0
  6
Continuous
100
AcDbLine
 10
4.0
 20
78.94999999999981
 30
0.0
 11
3.999999999999886
 21
-78.95000000000027
 31
0.0
  0
LINE
  5
4A86
330
21CC
100
AcDbEntity
  8
0
  6
Continuous
100
AcDbLine
 10
5.0
 20
-99.0
 30
0.0
 11
6.0
 21
-100.0
 31
0.0
  0
LINE
  5
4A87
330
21CC
100
AcDbEntity
  8
0
  6
Continuous
100
AcDbLine
 10
23.5
 20
-89.0
 30
0.0
 11
0.0
 21
-89.0
 31
0.0
  0
LINE
  5
4A88
330
21CC
100
AcDbEntity
  8
0
  6
Continuous
100
AcDbLine
 10
17.5
 20
-100.0
 30
0.0
 11
18.5
 21
-99.0
 31
0.0
  0
LINE
  5
4A89
330
21CC
100
AcDbEntity
  8
0
  6
Continuous
100
AcDbLine
 10
17.5
 20
-100.0
 30
0.0
 11
12.82703296142688
 21
-100.0
 31
0.0
  0
ARC
  5
4A8A
330
21CC
100
AcDbEntity
  8
0
  6
Continuous
100
AcDbCircle
 10
11.75
 20
-102.8000000000001
 30
0.0
 40
3.0
100
AcDbArc
 50
68.96053021868642
 51
111.0394697813135
  0
LINE
  5
4A8B
330
21CC
100
AcDbEntity
  8
0
  6
Continuous
100
AcDbLine
 10
10.67296703857312
 20
-100.0
 30
0.0
 11
6.0
 21
-100.0
 31
0.0
  0
LINE
  5
4A8C
330
21CC
100
AcDbEntity
  8
0
  6
Continuous
100
AcDbLine
 10
4.0
 20
-78.95000000000027
 30
0.0
 11
1.0
 21
-78.95000000000027
 31
0.0
  0
ARC
  5
4A8D
330
21CC
100
AcDbEntity
  8
0
  6
Continuous
100
AcDbCircle
 10
1.0
 20
-77.95000000000027
 30
0.0
 40
1.0
100
AcDbArc
 50
180.0
 51
270.0
  0
LINE
  5
4A8E
330
21CC
100
AcDbEntity
  8
0
  6
Continuous
100
AcDbLine
 10
5.0
 20
-79.95000000000027
 30
0.0
 11
4.0
 21
-78.95000000000027
 31
0.0
  0
ARC
  5
4A8F
330
21CC
100
AcDbEntity
  8
0
  6
Continuous
100
AcDbCircle
 10
21.49999999999999
 20
-72.89999493807545
 30
0.0
 40
3.0
100
AcDbArc
 50
90.0
 51
180.0
  0
LINE
  5
4A90
330
21CC
100
AcDbEntity
  8
0
  6
Continuous
100
AcDbLine
 10
5.0
 20
79.94999999999982
 30
0.0
 11
4.0
 21
78.94999999999981
 31
0.0
  0
LINE
  5
4A91
330
21CC
100
AcDbEntity
  8
0
  6
Continuous
100
AcDbLine
 10
4.0
 20
78.94999999999981
 30
0.0
 11
1.0
 21
78.94999999999981
 31
0.0
  0
ARC
  5
4A92
330
21CC
100
AcDbEntity
  8
0
  6
Continuous
100
AcDbCircle
 10
1.0
 20
77.94999999999982
 30
0.0
 40
1.0
100
AcDbArc
 50
90.0
 51
180.0
  0
ARC
  5
4A93
330
21CC
100
AcDbEntity
  8
0
  6
Continuous
100
AcDbCircle
 10
21.49999999999999
 20
72.89999493807545
 30
0.0
 40
3.0
100
AcDbArc
 50
180.0
 51
270.0
  0
LINE
  5
4A94
330
21CC
100
AcDbEntity
  8
0
  6
Continuous
100
AcDbLine
 10
5.0
 20
99.0
 30
0.0
 11
6.0
 21
100.0
 31
0.0
  0
LINE
  5
4A95
330
21CC
100
AcDbEntity
  8
0
  6
Continuous
100
AcDbLine
 10
23.5
 20
89.0
 30
0.0
 11
0.0
 21
89.0
 31
0.0
  0
LINE
  5
4A96
330
21CC
100
AcDbEntity
  8
0
  6
Continuous
100
AcDbLine
 10
17.5
 20
100.0
 30
0.0
 11
18.5
 21
99.0
 31
0.0
  0
LINE
  5
4A97
330
21CC
100
AcDbEntity
  8
0
  6
Continuous
100
AcDbLine
 10
17.5
 20
100.0
 30
0.0
 11
12.82703296142688
 21
100.0
 31
0.0
  0
ARC
  5
4A98
330
21CC
100
AcDbEntity
  8
0
  6
Continuous
100
AcDbCircle
 10
11.75
 20
102.8000000000001
 30
0.0
 40
3.0
100
AcDbArc
 50
248.9605302186864
 51
291.0394697813136
  0
LINE
  5
4A99
330
21CC
100
AcDbEntity
  8
0
  6
Continuous
100
AcDbLine
 10
10.67296703857312
 20
100.0
 30
0.0
 11
6.0
 21
100.0
 31
0.0
  0
LINE
  5
4A9A
330
21CC
100
AcDbEntity
  8
0
  6
Continuous
100
AcDbLine
 10
396.0000059604647
 20
78.94999999999981
 30
0.0
 11
396.0000059604647
 21
-78.95000000000027
 31
0.0
  0
LINE
  5
4A9B
330
21CC
100
AcDbEntity
  8
0
  6
Continuous
100
AcDbLine
 10
387.1729729990377
 20
-100.0
 30
0.0
 11
387.1729729990377
 21
100.0
 31
0.0
  0
LINE
  5
4A9C
330
21CC
100
AcDbEntity
  8
0
  6
Continuous
100
AcDbLine
 10
389.3270389218914
 20
-100.0
 30
0.0
 11
389.3270389218914
 21
100.0
 31
0.0
  0
LINE
  5
4A9D
330
21CC
100
AcDbEntity
  8
0
  6
Continuous
100
AcDbLine
 10
382.5000059604647
 20
100.0
 30
0.0
 11
382.5000059604647
 21
-100.0
 31
0.0
  0
LINE
  5
4A9E
330
21CC
100
AcDbEntity
  8
0
  6
Continuous
100
AcDbLine
 10
394.0000059604646
 20
100.0
 30
0.0
 11
394.0000059604646
 21
-100.0
 31
0.0
  0
LINE
  5
4A9F
330
21CC
100
AcDbEntity
  8
0
  6
Continuous
100
AcDbLine
 10
395.0000059604647
 20
99.0
 30
0.0
 11
395.0000059604647
 21
-99.0
 31
0.0
  0
LINE
  5
4AA0
330
21CC
100
AcDbEntity
  8
0
  6
Continuous
100
AcDbLine
 10
400.0000059604647
 20
77.94999999999982
 30
0.0
 11
400.0000059604647
 21
-77.95000000000027
 31
0.0
  0
LINE
  5
4AA1
330
21CC
100
AcDbEntity
  8
0
  6
Continuous
100
AcDbLine
 10
381.5000059604646
 20
99.0
 30
0.0
 11
381.5000059604646
 21
-99.0
 31
0.0
  0
LINE
  5
4AA2
330
21CC
100
AcDbEntity
  8
0
  6
Continuous
100
AcDbLine
 10
376.5000059604647
 20
-89.0
 30
0.0
 11
400.0000059604647
 21
-89.0
 31
0.0
  0
LINE
  5
4AA3
330
21CC
100
AcDbEntity
  8
0
  6
Continuous
100
AcDbLine
 10
395.0000059604647
 20
-99.0
 30
0.0
 11
394.0000059604646
 21
-100.0
 31
0.0
  0
LINE
  5
4AA4
330
21CC
100
AcDbEntity
  8
0
  6
Continuous
100
AcDbLine
 10
395.0000059604647
 20
-79.95000000000027
 30
0.0
 11
396.0000059604647
 21
-78.95000000000027
 31
0.0
  0
ARC
  5
4AA5
330
21CC
100
AcDbEntity
  8
0
  6
Continuous
100
AcDbCircle
 10
399.0000059604647
 20
-77.95000000000027
 30
0.0
 40
1.0
100
AcDbArc
 50
270.0
 51
0.0
  0
LINE
  5
4AA6
330
21CC
100
AcDbEntity
  8
0
  6
Continuous
100
AcDbLine
 10
396.0000059604647
 20
-78.95000000000027
 30
0.0
 11
399.0000059604647
 21
-78.95000000000027
 31
0.0
  0
LINE
  5
4AA7
330
21CC
100
AcDbEntity
  8
0
  6
Continuous
100
AcDbLine
 10
382.5000059604647
 20
-100.0
 30
0.0
 11
381.5000059604646
 21
-99.0
 31
0.0
  0
LINE
  5
4AA8
330
21CC
100
AcDbEntity
  8
0
  6
Continuous
100
AcDbLine
 10
389.3270389218914
 20
-100.0
 30
0.0
 11
394.0000059604646
 21
-100.0
 31
0.0
  0
ARC
  5
4AA9
330
21CC
100
AcDbEntity
  8
0
  6
Continuous
100
AcDbCircle
 10
388.2500059604647
 20
-102.8000000000001
 30
0.0
 40
3.0
100
AcDbArc
 50
68.96053021868642
 51
111.0394697813135
  0
LINE
  5
4AAA
330
21CC
100
AcDbEntity
  8
0
  6
Continuous
100
AcDbLine
 10
382.5000059604647
 20
-100.0
 30
0.0
 11
387.1729729990377
 21
-100.0
 31
0.0
  0
ARC
  5
4AAB
330
21CC
100
AcDbEntity
  8
0
  6
Continuous
100
AcDbCircle
 10
378.5000059604647
 20
-72.89999493807545
 30
0.0
 40
3.0
100
AcDbArc
 50
0.0
 51
90.0
  0
ARC
  5
4AAC
330
21CC
100
AcDbEntity
  8
0
  6
Continuous
100
AcDbCircle
 10
378.5000059604647
 20
72.89999493807545
 30
0.0
 40
3.0
100
AcDbArc
 50
270.0
 51
0.0
  0
LINE
  5
4AAD
330
21CC
100
AcDbEntity
  8
0
  6
Continuous
100
AcDbLine
 10
376.5000059604647
 20
89.0
 30
0.0
 11
400.0000059604647
 21
89.0
 31
0.0
  0
LINE
  5
4AAE
330
21CC
100
AcDbEntity
  8
0
  6
Continuous
100
AcDbLine
 10
395.0000059604647
 20
99.0
 30
0.0
 11
394.0000059604646
 21
100.0
 31
0.0
  0
ARC
  5
4AAF
330
21CC
100
AcDbEntity
  8
0
  6
Continuous
100
AcDbCircle
 10
399.0000059604647
 20
77.94999999999982
 30
0.0
 40
1.0
100
AcDbArc
 50
0.0
 51
90.0
  0
LINE
  5
4AB0
330
21CC
100
AcDbEntity
  8
0
  6
Continuous
100
AcDbLine
 10
396.0000059604647
 20
78.94999999999981
 30
0.0
 11
399.0000059604647
 21
78.94999999999981
 31
0.0
  0
LINE
  5
4AB1
330
21CC
100
AcDbEntity
  8
0
  6
Continuous
100
AcDbLine
 10
395.0000059604647
 20
79.94999999999982
 30
0.0
 11
396.0000059604647
 21
78.94999999999981
 31
0.0
  0
LINE
  5
4AB2
330
21CC
100
AcDbEntity
  8
0
  6
Continuous
100
AcDbLine
 10
382.5000059604647
 20
100.0
 30
0.0
 11
381.5000059604646
 21
99.0
 31
0.0
  0
LINE
  5
4AB3
330
21CC
100
AcDbEntity
  8
0
  6
Continuous
100
AcDbLine
 10
389.3270389218914
 20
100.0
 30
0.0
 11
394.0000059604646
 21
100.0
 31
0.0
  0
ARC
  5
4AB4
330
21CC
100
AcDbEntity
  8
0
  6
Continuous
100
AcDbCircle
 10
388.2500059604647
 20
102.8000000000001
 30
0.0
 40
3.0
100
AcDbArc
 50
248.9605302186864
 51
291.0394697813136
  0
LINE
  5
4AB5
330
21CC
100
AcDbEntity
  8
0
  6
Continuous
100
AcDbLine
 10
382.5000059604647
 20
100.0
 30
0.0
 11
387.1729729990377
 21
100.0
 31
0.0
  0
LINE
  5
4E3D
330
21CC
100
AcDbEntity
  8
0
  6
CENTER
100
AcDbLine
 10
200.0000029802322
 20
-175.9033185871089
 30
0.0
 11
200.0000029802321
 21
-407.2033699454522
 31
0.0
  0
LINE
  5
4E3E
330
21CC
100
AcDbEntity
  8
0
  6
Continuous
100
AcDbLine
 10
285.0000042468309
 20
-221.6533493282054
 30
0.0
 11
378.5000059604644
 21
-221.6533493282054
 31
0.0
  0
ARC
  5
4E3F
330
21CC
100
AcDbEntity
  8
0
  6
Continuous
100
AcDbCircle
 10
285.0000042468309
 20
-219.653349298403
 30
0.0
 40
2.000000029802321
100
AcDbArc
 50
172.8183575563428
 51
269.9999956742795
  0
ARC
  5
4E40
330
21CC
100
AcDbEntity
  8
0
  6
Continuous
100
AcDbCircle
 10
719.0227768275551
 20
-291.4127192641854
 30
0.0
 40
441.6124333383505
100
AcDbArc
 50
171.0827311320687
 51
188.9506756431218
  0
LINE
  5
4E41
330
21CC
100
AcDbEntity
  8
0
  6
Continuous
100
AcDbLine
 10
289.7499979266376
 20
-193.9033185871094
 30
0.0
 11
204.5000029802322
 21
-193.9033185871094
 31
0.0
  0
LINE
  5
4E42
330
21CC
100
AcDbEntity
  8
0
  6
Continuous
100
AcDbLine
 10
289.7499979266376
 20
-219.4033185871094
 30
0.0
 11
204.5000029802322
 21
-219.4033185871094
 31
0.0
  0
LINE
  5
4E43
330
21CC
100
AcDbEntity
  8
0
  6
Continuous
100
AcDbLine
 10
204.5000029802322
 20
-193.9033185871094
 30
0.0
 11
204.5000029802322
 21
-219.4033185871094
 31
0.0
  0
LINE
  5
4E44
330
21CC
100
AcDbEntity
  8
0
  6
Continuous
100
AcDbLine
 10
298.7500029802322
 20
-197.1790525348633
 30
0.0
 11
226.5000029802322
 21
-197.1790525348633
 31
0.0
  0
LINE
  5
4E45
330
21CC
100
AcDbEntity
  8
0
  6
Continuous
100
AcDbLine
 10
298.7500029802322
 20
-216.1275846393555
 30
0.0
 11
226.5000029802322
 21
-216.1275846393555
 31
0.0
  0
LINE
  5
4E46
330
21CC
100
AcDbEntity
  8
0
  6
Continuous
100
AcDbLine
 10
219.5000029802322
 20
-198.6533185871094
 30
0.0
 11
204.5000029802322
 21
-198.6533185871094
 31
0.0
  0
LINE
  5
4E47
330
21CC
100
AcDbEntity
  8
0
  6
Continuous
100
AcDbLine
 10
219.5000029802322
 20
-214.6533185871094
 30
0.0
 11
204.5000029802322
 21
-214.6533185871094
 31
0.0
  0
LINE
  5
4E48
330
21CC
100
AcDbEntity
  8
0
  6
Continuous
100
AcDbLine
 10
298.7500029802322
 20
-197.1790525348633
 30
0.0
 11
298.7500029802322
 21
-216.1275846393555
 31
0.0
  0
LINE
  5
4E49
330
21CC
100
AcDbEntity
  8
0
  6
Continuous
100
AcDbLine
 10
289.7499979266376
 20
-193.9033185871094
 30
0.0
 11
298.7500029802322
 21
-197.1790525348633
 31
0.0
  0
LINE
  5
4E4A
330
21CC
100
AcDbEntity
  8
0
  6
Continuous
100
AcDbLine
 10
289.7499979266376
 20
-219.4033185871094
 30
0.0
 11
298.7500029802322
 21
-216.1275846393555
 31
0.0
  0
LINE
  5
4E4B
330
21CC
100
AcDbEntity
  8
0
  6
Continuous
100
AcDbLine
 10
219.5000029802321
 20
-384.4533699454523
 30
0.0
 11
204.5000029802321
 21
-384.4533699454523
 31
0.0
  0
LINE
  5
4E4C
330
21CC
100
AcDbEntity
  8
0
  6
Continuous
100
AcDbLine
 10
219.5000029802322
 20
-368.4533699454523
 30
0.0
 11
204.5000029802321
 21
-368.4533699454523
 31
0.0
  0
LINE
  5
4E4D
330
21CC
100
AcDbEntity
  8
0
  6
Continuous
100
AcDbLine
 10
289.7499979266375
 20
-363.7033699454523
 30
0.0
 11
204.5000029802321
 21
-363.7033699454523
 31
0.0
  0
LINE
  5
4E4E
330
21CC
100
AcDbEntity
  8
0
  6
Continuous
100
AcDbLine
 10
289.7499979266375
 20
-389.2033699454523
 30
0.0
 11
204.5000029802321
 21
-389.2033699454523
 31
0.0
  0
LINE
  5
4E4F
330
21CC
100
AcDbEntity
  8
0
  6
Continuous
100
AcDbLine
 10
204.5000029802321
 20
-389.2033699454523
 30
0.0
 11
204.5000029802321
 21
-363.7033699454523
 31
0.0
  0
LINE
  5
4E50
330
21CC
100
AcDbEntity
  8
0
  6
Continuous
100
AcDbLine
 10
298.7500029802321
 20
-366.9791038932062
 30
0.0
 11
226.5000029802321
 21
-366.9791038932062
 31
0.0
  0
LINE
  5
4E51
330
21CC
100
AcDbEntity
  8
0
  6
Continuous
100
AcDbLine
 10
298.7500029802321
 20
-385.9276359976984
 30
0.0
 11
226.5000029802321
 21
-385.9276359976984
 31
0.0
  0
LINE
  5
4E52
330
21CC
100
AcDbEntity
  8
0
  6
Continuous
100
AcDbLine
 10
298.7500029802321
 20
-385.9276359976984
 30
0.0
 11
298.7500029802321
 21
-366.9791038932062
 31
0.0
  0
LINE
  5
4E53
330
21CC
100
AcDbEntity
  8
0
  6
Continuous
100
AcDbLine
 10
289.7499979266375
 20
-389.2033699454523
 30
0.0
 11
298.7500029802321
 21
-385.9276359976984
 31
0.0
  0
LINE
  5
4E54
330
21CC
100
AcDbEntity
  8
0
  6
Continuous
100
AcDbLine
 10
285.0000042468308
 20
-361.4533392043563
 30
0.0
 11
378.5000059604642
 21
-361.4533392043563
 31
0.0
  0
LINE
  5
4E55
330
21CC
100
AcDbEntity
  8
0
  6
Continuous
100
AcDbLine
 10
289.7499979266375
 20
-363.7033699454523
 30
0.0
 11
298.7500029802321
 21
-366.9791038932062
 31
0.0
  0
ARC
  5
4E56
330
21CC
100
AcDbEntity
  8
0
  6
Continuous
100
AcDbCircle
 10
285.0000042468308
 20
-363.4533392341586
 30
0.0
 40
2.000000029802321
100
AcDbArc
 50
90.00000432572047
 51
187.1816424436571
  0
LINE
  5
4E57
330
21CC
100
AcDbEntity
  8
0
  6
Continuous
100
AcDbLine
 10
396.0000059604644
 20
-212.6033442662806
 30
0.0
 11
396.0000059604644
 21
-370.5033442662811
 31
0.0
  0
LINE
  5
4E58
330
21CC
100
AcDbEntity
  8
0
  6
Continuous
100
AcDbLine
 10
387.1729729990375
 20
-391.5533442662809
 30
0.0
 11
387.1729729990375
 21
-191.5533442662808
 31
0.0
  0
LINE
  5
4E59
330
21CC
100
AcDbEntity
  8
0
  6
Continuous
100
AcDbLine
 10
389.3270389218912
 20
-391.5533442662809
 30
0.0
 11
389.3270389218912
 21
-191.5533442662808
 31
0.0
  0
LINE
  5
4E5A
330
21CC
100
AcDbEntity
  8
0
  6
Continuous
100
AcDbLine
 10
382.5000059604644
 20
-191.5533442662808
 30
0.0
 11
382.5000059604642
 21
-391.5533442662809
 31
0.0
  0
LINE
  5
4E5B
330
21CC
100
AcDbEntity
  8
0
  6
Continuous
100
AcDbLine
 10
394.0000059604644
 20
-191.5533442662808
 30
0.0
 11
394.0000059604642
 21
-391.5533442662809
 31
0.0
  0
LINE
  5
4E5C
330
21CC
100
AcDbEntity
  8
0
  6
Continuous
100
AcDbLine
 10
381.5000059604644
 20
-192.5533442662808
 30
0.0
 11
381.5000059604642
 21
-390.5533442662808
 31
0.0
  0
LINE
  5
4E5D
330
21CC
100
AcDbEntity
  8
0
  6
Continuous
100
AcDbLine
 10
395.0000059604644
 20
-192.5533442662808
 30
0.0
 11
395.0000059604642
 21
-390.5533442662808
 31
0.0
  0
LINE
  5
4E5E
330
21CC
100
AcDbEntity
  8
0
  6
Continuous
100
AcDbLine
 10
400.0000059604644
 20
-213.603344266281
 30
0.0
 11
400.0000059604642
 21
-369.5033442662806
 31
0.0
  0
LINE
  5
4E5F
330
21CC
100
AcDbEntity
  8
0
  6
Continuous
100
AcDbLine
 10
376.5000059604642
 20
-380.5533442662808
 30
0.0
 11
400.0000059604642
 21
-380.5533442662808
 31
0.0
  0
LINE
  5
4E60
330
21CC
100
AcDbEntity
  8
0
  6
Continuous
100
AcDbLine
 10
389.3270389218912
 20
-391.5533442662809
 30
0.0
 11
394.0000059604642
 21
-391.5533442662809
 31
0.0
  0
LINE
  5
4E61
330
21CC
100
AcDbEntity
  8
0
  6
Continuous
100
AcDbLine
 10
395.0000059604642
 20
-390.5533442662808
 30
0.0
 11
394.0000059604642
 21
-391.5533442662809
 31
0.0
  0
ARC
  5
4E62
330
21CC
100
AcDbEntity
  8
0
  6
Continuous
100
AcDbCircle
 10
388.2500059604642
 20
-394.3533442662806
 30
0.0
 40
3.0
100
AcDbArc
 50
68.96053021868642
 51
111.0394697813135
  0
LINE
  5
4E63
330
21CC
100
AcDbEntity
  8
0
  6
Continuous
100
AcDbLine
 10
382.5000059604642
 20
-391.5533442662809
 30
0.0
 11
381.5000059604642
 21
-390.5533442662808
 31
0.0
  0
LINE
  5
4E64
330
21CC
100
AcDbEntity
  8
0
  6
Continuous
100
AcDbLine
 10
382.5000059604642
 20
-391.5533442662809
 30
0.0
 11
387.1729729990375
 21
-391.5533442662809
 31
0.0
  0
LINE
  5
4E65
330
21CC
100
AcDbEntity
  8
0
  6
Continuous
100
AcDbLine
 10
395.0000059604642
 20
-371.5033442662806
 30
0.0
 11
396.0000059604642
 21
-370.5033442662811
 31
0.0
  0
ARC
  5
4E66
330
21CC
100
AcDbEntity
  8
0
  6
Continuous
100
AcDbCircle
 10
399.0000059604642
 20
-369.5033442662806
 30
0.0
 40
1.0
100
AcDbArc
 50
270.0
 51
0.0
  0
LINE
  5
4E67
330
21CC
100
AcDbEntity
  8
0
  6
Continuous
100
AcDbLine
 10
396.0000059604642
 20
-370.5033442662811
 30
0.0
 11
399.0000059604642
 21
-370.5033442662807
 31
0.0
  0
ARC
  5
4E68
330
21CC
100
AcDbEntity
  8
0
  6
Continuous
100
AcDbCircle
 10
399.0000059604644
 20
-213.603344266281
 30
0.0
 40
1.0
100
AcDbArc
 50
0.0
 51
90.0
  0
LINE
  5
4E69
330
21CC
100
AcDbEntity
  8
0
  6
Continuous
100
AcDbLine
 10
396.0000059604644
 20
-212.6033442662806
 30
0.0
 11
399.0000059604644
 21
-212.603344266281
 31
0.0
  0
LINE
  5
4E6A
330
21CC
100
AcDbEntity
  8
0
  6
Continuous
100
AcDbLine
 10
395.0000059604644
 20
-211.603344266281
 30
0.0
 11
396.0000059604644
 21
-212.6033442662806
 31
0.0
  0
LINE
  5
4E6B
330
21CC
100
AcDbEntity
  8
0
  6
Continuous
100
AcDbLine
 10
376.5000059604644
 20
-202.5533442662808
 30
0.0
 11
400.0000059604644
 21
-202.5533442662808
 31
0.0
  0
LINE
  5
4E6C
330
21CC
100
AcDbEntity
  8
0
  6
Continuous
100
AcDbLine
 10
389.3270389218912
 20
-191.5533442662808
 30
0.0
 11
394.0000059604644
 21
-191.5533442662808
 31
0.0
  0
LINE
  5
4E6D
330
21CC
100
AcDbEntity
  8
0
  6
Continuous
100
AcDbLine
 10
395.0000059604644
 20
-192.5533442662808
 30
0.0
 11
394.0000059604644
 21
-191.5533442662808
 31
0.0
  0
ARC
  5
4E6E
330
21CC
100
AcDbEntity
  8
0
  6
Continuous
100
AcDbCircle
 10
388.2500059604645
 20
-188.7533442662811
 30
0.0
 40
3.0
100
AcDbArc
 50
248.9605302186864
 51
291.0394697813136
  0
LINE
  5
4E6F
330
21CC
100
AcDbEntity
  8
0
  6
Continuous
100
AcDbLine
 10
382.5000059604644
 20
-191.5533442662808
 30
0.0
 11
381.5000059604644
 21
-192.5533442662808
 31
0.0
  0
LINE
  5
4E70
330
21CC
100
AcDbEntity
  8
0
  6
Continuous
100
AcDbLine
 10
382.5000059604644
 20
-191.5533442662808
 30
0.0
 11
387.1729729990375
 21
-191.5533442662808
 31
0.0
  0
ARC
  5
4E71
330
21CC
100
AcDbEntity
  8
0
  6
Continuous
100
AcDbCircle
 10
378.5000059604644
 20
-218.6533493282054
 30
0.0
 40
3.0
100
AcDbArc
 50
270.0
 51
0.0
  0
ARC
  5
4E72
330
21CC
100
AcDbEntity
  8
0
  6
Continuous
100
AcDbCircle
 10
378.5000059604642
 20
-364.4533392043563
 30
0.0
 40
3.0
100
AcDbArc
 50
0.0
 51
90.0
  0
LINE
  5
4EF6
330
21CC
100
AcDbEntity
  8
0
  6
Continuous
100
AcDbLine
 10
234.5000030249355
 20
-371.4533699454523
 30
0.0
 11
229.5000031292437
 21
-371.4533699454523
 31
0.0
  0
LINE
  5
4EF7
330
21CC
100
AcDbEntity
  8
0
  6
Continuous
100
AcDbLine
 10
234.5000030249355
 20
-381.4533699454523
 30
0.0
 11
229.5000031292437
 21
-381.4533699454523
 31
0.0
  0
ARC
  5
4EF8
330
21CC
100
AcDbEntity
  8
0
  6
Continuous
100
AcDbCircle
 10
213.7208062410352
 20
-376.4533699454523
 30
0.0
 40
13.77919673919677
100
AcDbArc
 50
339.1359956260674
 51
20.86400437393256
  0
LINE
  5
4EF9
330
21CC
100
AcDbEntity
  8
0
  6
Continuous
100
AcDbLine
 10
227.500002980232
 20
-384.7033699454523
 30
0.0
 11
227.500002980232
 21
-368.2033699454523
 31
0.0
  0
LINE
  5
4EFA
330
21CC
100
AcDbEntity
  8
0
  6
Continuous
100
AcDbLine
 10
219.5000029802321
 20
-384.7033699454523
 30
0.0
 11
219.5000029802321
 21
-368.2033699454523
 31
0.0
  0
ARC
  5
4EFB
330
21CC
100
AcDbEntity
  8
0
  6
Continuous
100
AcDbCircle
 10
233.2791997194289
 20
-376.4533699454523
 30
0.0
 40
13.77919673919677
100
AcDbArc
 50
159.1359956260674
 51
200.8640043739325
  0
ARC
  5
4EFC
330
21CC
100
AcDbEntity
  8
0
  6
Continuous
100
AcDbCircle
 10
222.3464795351026
 20
-369.0921574454523
 30
0.0
 40
4.907476425170898
100
AcDbArc
 50
330.0000090143786
 51
29.99999098562142
  0
ARC
  5
4EFD
330
21CC
100
AcDbEntity
  8
0
  6
Continuous
100
AcDbCircle
 10
224.6535264253615
 20
-369.0921574454523
 30
0.0
 40
4.907476425170898
100
AcDbArc
 50
150.0000090143785
 51
209.9999909856214
  0
LINE
  5
4EFE
330
21CC
100
AcDbEntity
  8
0
  6
Continuous
100
AcDbLine
 10
220.4035267612794
 20
-366.6384199454523
 30
0.0
 11
226.596479097732
 21
-366.6384199454523
 31
0.0
  0
LINE
  5
4EFF
330
21CC
100
AcDbEntity
  8
0
  6
Continuous
100
AcDbLine
 10
226.596479097732
 20
-366.6384199454523
 30
0.0
 11
227.500002980232
 21
-368.2033699454523
 31
0.0
  0
LINE
  5
4F00
330
21CC
100
AcDbEntity
  8
0
  6
Continuous
100
AcDbLine
 10
220.4035268627321
 20
-366.6384199454523
 30
0.0
 11
219.5000029802321
 21
-368.2033699454523
 31
0.0
  0
LINE
  5
4F01
330
21CC
100
AcDbEntity
  8
0
  6
Continuous
100
AcDbLine
 10
220.4035267612794
 20
-371.5458949454523
 30
0.0
 11
226.596479097732
 21
-371.5458949454523
 31
0.0
  0
LINE
  5
4F02
330
21CC
100
AcDbEntity
  8
0
  6
Continuous
100
AcDbLine
 10
220.4035268476189
 20
-381.3608449454523
 30
0.0
 11
226.5964790977318
 21
-381.3608449454523
 31
0.0
  0
LINE
  5
4F03
330
21CC
100
AcDbEntity
  8
0
  6
Continuous
100
AcDbLine
 10
220.4035267612794
 20
-386.2683199454522
 30
0.0
 11
226.5964790977318
 21
-386.2683199454522
 31
0.0
  0
ARC
  5
4F04
330
21CC
100
AcDbEntity
  8
0
  6
Continuous
100
AcDbCircle
 10
222.3464795351026
 20
-383.8145824454522
 30
0.0
 40
4.907476425170898
100
AcDbArc
 50
330.0000090143786
 51
29.99999098562142
  0
LINE
  5
4F05
330
21CC
100
AcDbEntity
  8
0
  6
Continuous
100
AcDbLine
 10
226.5964790977318
 20
-386.2683199454522
 30
0.0
 11
227.500002980232
 21
-384.7033699454523
 31
0.0
  0
LINE
  5
4F06
330
21CC
100
AcDbEntity
  8
0
  6
Continuous
100
AcDbLine
 10
220.4035268627321
 20
-386.2683199454522
 30
0.0
 11
219.5000029802321
 21
-384.7033699454523
 31
0.0
  0
ARC
  5
4F07
330
21CC
100
AcDbEntity
  8
0
  6
Continuous
100
AcDbCircle
 10
224.6535264253615
 20
-383.8145824454522
 30
0.0
 40
4.907476425170898
100
AcDbArc
 50
150.0000090143785
 51
209.9999909856214
  0
LINE
  5
4F08
330
21CC
100
AcDbEntity
  8
0
  6
Continuous
100
AcDbLine
 10
229.5000031292437
 20
-370.9533698634959
 30
0.0
 11
229.5000031292437
 21
-381.9533700274087
 31
0.0
  0
ARC
  5
4F09
330
21CC
100
AcDbEntity
  8
0
  6
Continuous
100
AcDbCircle
 10
228.5000031143425
 20
-381.9533700274087
 30
0.0
 40
1.00000001490116
100
AcDbArc
 50
269.9999974955313
 51
0.0000086514148811
  0
LINE
  5
4F0A
330
21CC
100
AcDbEntity
  8
0
  6
Continuous
100
AcDbLine
 10
228.5000031143425
 20
-382.9533700423098
 30
0.0
 11
227.5000030994414
 21
-382.9533700423098
 31
0.0
  0
ARC
  5
4F0B
330
21CC
100
AcDbEntity
  8
0
  6
Continuous
100
AcDbCircle
 10
228.5000031143425
 20
-370.9533698634959
 30
0.0
 40
1.00000001490116
100
AcDbArc
 50
359.9999949910365
 51
89.99999567427954
  0
LINE
  5
4F0C
330
21CC
100
AcDbEntity
  8
0
  6
Continuous
100
AcDbLine
 10
228.5000031143425
 20
-369.9533698485947
 30
0.0
 11
227.5000030994414
 21
-369.9533698485947
 31
0.0
  0
LINE
  5
4F0D
330
21CC
100
AcDbEntity
  8
0
  6
Continuous
100
AcDbLine
 10
235.500002980232
 20
-380.4533700199581
 30
0.0
 11
229.5000031292437
 21
-380.4533700199581
 31
0.0
  0
LINE
  5
4F0E
330
21CC
100
AcDbEntity
  8
0
  6
Continuous
100
AcDbLine
 10
235.500002980232
 20
-372.4533698709465
 30
0.0
 11
229.5000031292437
 21
-372.4533698709465
 31
0.0
  0
LINE
  5
4F0F
330
21CC
100
AcDbEntity
  8
0
  6
Continuous
100
AcDbLine
 10
235.500002980232
 20
-372.4533698709465
 30
0.0
 11
235.500002980232
 21
-380.4533700199581
 31
0.0
  0
LINE
  5
4F10
330
21CC
100
AcDbEntity
  8
0
  6
Continuous
100
AcDbLine
 10
235.500002980232
 20
-372.4533698709465
 30
0.0
 11
234.5000030249355
 21
-371.4533699454523
 31
0.0
  0
LINE
  5
4F11
330
21CC
100
AcDbEntity
  8
0
  6
Continuous
100
AcDbLine
 10
234.5000030249355
 20
-381.4533699454523
 30
0.0
 11
235.500002980232
 21
-380.4533700199581
 31
0.0
  0
LINE
  5
4F12
330
21CC
100
AcDbEntity
  8
0
  6
Continuous
100
AcDbLine
 10
234.5000030249355
 20
-201.6533185871094
 30
0.0
 11
229.5000031292438
 21
-201.6533185871094
 31
0.0
  0
LINE
  5
4F13
330
21CC
100
AcDbEntity
  8
0
  6
Continuous
100
AcDbLine
 10
234.5000030249355
 20
-211.6533185871094
 30
0.0
 11
229.5000031292438
 21
-211.6533185871094
 31
0.0
  0
ARC
  5
4F14
330
21CC
100
AcDbEntity
  8
0
  6
Continuous
100
AcDbCircle
 10
213.7208062410352
 20
-206.6533185871094
 30
0.0
 40
13.77919673919677
100
AcDbArc
 50
339.1359956260674
 51
20.86400437393256
  0
LINE
  5
4F15
330
21CC
100
AcDbEntity
  8
0
  6
Continuous
100
AcDbLine
 10
227.500002980232
 20
-214.9033185871094
 30
0.0
 11
227.500002980232
 21
-198.4033185871094
 31
0.0
  0
LINE
  5
4F16
330
21CC
100
AcDbEntity
  8
0
  6
Continuous
100
AcDbLine
 10
219.5000029802322
 20
-214.9033185871094
 30
0.0
 11
219.5000029802322
 21
-198.4033185871094
 31
0.0
  0
ARC
  5
4F17
330
21CC
100
AcDbEntity
  8
0
  6
Continuous
100
AcDbCircle
 10
233.279199719429
 20
-206.6533185871094
 30
0.0
 40
13.77919673919677
100
AcDbArc
 50
159.1359956260674
 51
200.8640043739325
  0
ARC
  5
4F18
330
21CC
100
AcDbEntity
  8
0
  6
Continuous
100
AcDbCircle
 10
222.3464795351026
 20
-199.2921060871094
 30
0.0
 40
4.907476425170898
100
AcDbArc
 50
330.0000090143786
 51
29.99999098562142
  0
ARC
  5
4F19
330
21CC
100
AcDbEntity
  8
0
  6
Continuous
100
AcDbCircle
 10
224.6535264253616
 20
-199.2921060871094
 30
0.0
 40
4.907476425170898
100
AcDbArc
 50
150.0000090143785
 51
209.9999909856214
  0
LINE
  5
4F1A
330
21CC
100
AcDbEntity
  8
0
  6
Continuous
100
AcDbLine
 10
220.4035267612794
 20
-196.8383685871094
 30
0.0
 11
226.596479097732
 21
-196.8383685871094
 31
0.0
  0
LINE
  5
4F1B
330
21CC
100
AcDbEntity
  8
0
  6
Continuous
100
AcDbLine
 10
226.596479097732
 20
-196.8383685871094
 30
0.0
 11
227.500002980232
 21
-198.4033185871094
 31
0.0
  0
LINE
  5
4F1C
330
21CC
100
AcDbEntity
  8
0
  6
Continuous
100
AcDbLine
 10
220.4035268627321
 20
-196.8383685871094
 30
0.0
 11
219.5000029802322
 21
-198.4033185871094
 31
0.0
  0
LINE
  5
4F1D
330
21CC
100
AcDbEntity
  8
0
  6
Continuous
100
AcDbLine
 10
220.4035267612794
 20
-201.7458435871094
 30
0.0
 11
226.596479097732
 21
-201.7458435871094
 31
0.0
  0
LINE
  5
4F1E
330
21CC
100
AcDbEntity
  8
0
  6
Continuous
100
AcDbLine
 10
220.4035268476189
 20
-211.5607935871094
 30
0.0
 11
226.5964790977319
 21
-211.5607935871094
 31
0.0
  0
LINE
  5
4F1F
330
21CC
100
AcDbEntity
  8
0
  6
Continuous
100
AcDbLine
 10
220.4035267612794
 20
-216.4682685871093
 30
0.0
 11
226.5964790977319
 21
-216.4682685871093
 31
0.0
  0
ARC
  5
4F20
330
21CC
100
AcDbEntity
  8
0
  6
Continuous
100
AcDbCircle
 10
222.3464795351026
 20
-214.0145310871094
 30
0.0
 40
4.907476425170898
100
AcDbArc
 50
330.0000090143786
 51
29.99999098562142
  0
LINE
  5
4F21
330
21CC
100
AcDbEntity
  8
0
  6
Continuous
100
AcDbLine
 10
226.5964790977319
 20
-216.4682685871093
 30
0.0
 11
227.500002980232
 21
-214.9033185871094
 31
0.0
  0
LINE
  5
4F22
330
21CC
100
AcDbEntity
  8
0
  6
Continuous
100
AcDbLine
 10
220.4035268627322
 20
-216.4682685871093
 30
0.0
 11
219.5000029802322
 21
-214.9033185871094
 31
0.0
  0
ARC
  5
4F23
330
21CC
100
AcDbEntity
  8
0
  6
Continuous
100
AcDbCircle
 10
224.6535264253616
 20
-214.0145310871094
 30
0.0
 40
4.907476425170898
100
AcDbArc
 50
150.0000090143785
 51
209.9999909856214
  0
LINE
  5
4F24
330
21CC
100
AcDbEntity
  8
0
  6
Continuous
100
AcDbLine
 10
229.5000031292438
 20
-201.153318505153
 30
0.0
 11
229.5000031292438
 21
-212.1533186690657
 31
0.0
  0
ARC
  5
4F25
330
21CC
100
AcDbEntity
  8
0
  6
Continuous
100
AcDbCircle
 10
228.5000031143427
 20
-212.1533186690657
 30
0.0
 40
1.00000001490116
100
AcDbArc
 50
269.9999974955313
 51
0.0000086514148811
  0
LINE
  5
4F26
330
21CC
100
AcDbEntity
  8
0
  6
Continuous
100
AcDbLine
 10
228.5000031143427
 20
-213.1533186839669
 30
0.0
 11
227.5000030994415
 21
-213.1533186839669
 31
0.0
  0
ARC
  5
4F27
330
21CC
100
AcDbEntity
  8
0
  6
Continuous
100
AcDbCircle
 10
228.5000031143427
 20
-201.153318505153
 30
0.0
 40
1.00000001490116
100
AcDbArc
 50
359.9999949910365
 51
89.99999567427954
  0
LINE
  5
4F28
330
21CC
100
AcDbEntity
  8
0
  6
Continuous
100
AcDbLine
 10
228.5000031143427
 20
-200.1533184902518
 30
0.0
 11
227.5000030994415
 21
-200.1533184902518
 31
0.0
  0
LINE
  5
4F29
330
21CC
100
AcDbEntity
  8
0
  6
Continuous
100
AcDbLine
 10
235.500002980232
 20
-210.6533186616152
 30
0.0
 11
229.5000031292438
 21
-210.6533186616152
 31
0.0
  0
LINE
  5
4F2A
330
21CC
100
AcDbEntity
  8
0
  6
Continuous
100
AcDbLine
 10
235.500002980232
 20
-202.6533185126036
 30
0.0
 11
229.5000031292438
 21
-202.6533185126036
 31
0.0
  0
LINE
  5
4F2B
330
21CC
100
AcDbEntity
  8
0
  6
Continuous
100
AcDbLine
 10
235.500002980232
 20
-202.6533185126036
 30
0.0
 11
235.500002980232
 21
-210.6533186616152
 31
0.0
  0
LINE
  5
4F2C
330
21CC
100
AcDbEntity
  8
0
  6
Continuous
100
AcDbLine
 10
235.500002980232
 20
-202.6533185126036
 30
0.0
 11
234.5000030249355
 21
-201.6533185871094
 31
0.0
  0
LINE
  5
4F2D
330
21CC
100
AcDbEntity
  8
0
  6
Continuous
100
AcDbLine
 10
234.5000030249355
 20
-211.6533185871094
 30
0.0
 11
235.500002980232
 21
-210.6533186616152
 31
0.0
  0
ENDSEC
  0
SECTION
  2
OBJECTS
  0
DICTIONARY
  5
21BA
330
0
100
AcDbDictionary
281
     1
  3
ACAD_GROUP
350
21BB
  3
ACAD_LAYOUT
350
21C7
  3
ACAD_MLINESTYLE
350
21C4
  3
ACAD_PLOTSETTINGS
350
21C6
  3
ACAD_PLOTSTYLENAME
350
21BC
  3
AcDbVariableDictionary
350
2238
  0
DICTIONARY
  5
2244
330
21B0
100
AcDbDictionary
280
     1
281
     1
  3
ACAD_LAYERSTATES
360
2245
  0
DICTIONARY
  5
21F8
330
21CC
100
AcDbDictionary
280
     1
281
     1
  3
ACAD_LAYOUTSELFREF
360
2227
  0
DICTIONARY
  5
21FA
330
21C8
100
AcDbDictionary
280
     1
281
     1
  3
ACAD_LAYOUTSELFREF
360
2226
  0
DICTIONARY
  5
21BB
102
{ACAD_REACTORS
330
21BA
102
}
330
21BA
100
AcDbDictionary
281
     1
  0
DICTIONARY
  5
21C7
102
{ACAD_REACTORS
330
21BA
102
}
330
21BA
100
AcDbDictionary
281
     1
  3
Model
350
21CF
  3
ﾚｲｱｳﾄ1
350
21CB
  0
DICTIONARY
  5
21C4
102
{ACAD_REACTORS
330
21BA
102
}
330
21BA
100
AcDbDictionary
281
     1
  3
Standard
350
21C5
  0
DICTIONARY
  5
21C6
102
{ACAD_REACTORS
330
21BA
102
}
330
21BA
100
AcDbDictionary
281
     1
  0
ACDBDICTIONARYWDFLT
  5
21BC
102
{ACAD_REACTORS
330
21BA
102
}
330
21BA
100
AcDbDictionary
281
     1
  3
Normal
350
21BD
100
AcDbDictionaryWithDefault
340
21BD
  0
DICTIONARY
  5
2238
102
{ACAD_REACTORS
330
21BA
102
}
330
21BA
100
AcDbDictionary
281
     1
  3
DIMASSOC
350
2239
  0
DICTIONARY
  5
2245
102
{ACAD_REACTORS
330
2244
102
}
330
2244
100
AcDbDictionary
281
     1
  0
XRECORD
  5
2227
102
{ACAD_REACTORS
330
21F8
102
}
330
21F8
100
AcDbXrecord
280
     1
340
21CC
  0
XRECORD
  5
2226
102
{ACAD_REACTORS
330
21FA
102
}
330
21FA
100
AcDbXrecord
280
     1
340
21C8
  0
LAYOUT
  5
21CF
102
{ACAD_REACTORS
330
21C7
102
}
330
21C7
100
AcDbPlotSettings
  1

  2
SII LP-2150 (D-SCAN C2)
  4

  6

 40
0.0
 41
0.0
 42
0.0
 43
0.0
 44
0.0
 45
0.0
 46
0.0
 47
0.0
 48
0.0
 49
0.0
140
0.0
141
0.0
142
1.0
143
1.0
 70
  1712
 72
     0
 73
     0
 74
     0
  7

 75
     0
147
1.0
148
0.0
149
0.0
100
AcDbLayout
  1
Model
 70
     1
 71
     0
 10
0.0
 20
0.0
 11
12.0
 21
9.0
 12
0.0
 22
0.0
 32
0.0
 14
0.0
 24
0.0
 34
0.0
 15
0.0
 25
0.0
 35
0.0
146
0.0
 13
0.0
 23
0.0
 33
0.0
 16
1.0
 26
0.0
 36
0.0
 17
0.0
 27
1.0
 37
0.0
 76
     0
330
21CC
  0
LAYOUT
  5
21CB
102
{ACAD_REACTORS
330
21C7
102
}
330
21C7
100
AcDbPlotSettings
  1

  2
SII LP-2150 (D-SCAN C2)
  4

  6

 40
0.0
 41
0.0
 42
0.0
 43
0.0
 44
0.0
 45
0.0
 46
0.0
 47
0.0
 48
0.0
 49
0.0
140
0.0
141
0.0
142
1.0
143
1.0
 70
   688
 72
     0
 73
     0
 74
     5
  7

 75
    16
147
1.0
148
0.0
149
0.0
100
AcDbLayout
  1
ﾚｲｱｳﾄ1
 70
     1
 71
     1
 10
0.0
 20
0.0
 11
12.0
 21
9.0
 12
0.0
 22
0.0
 32
0.0
 14
1.000000000000000E+20
 24
1.000000000000000E+20
 34
1.000000000000000E+20
 15
-1.000000000000000E+20
 25
-1.000000000000000E+20
 35
-1.000000000000000E+20
146
0.0
 13
0.0
 23
0.0
 33
0.0
 16
1.0
 26
0.0
 36
0.0
 17
0.0
 27
1.0
 37
0.0
 76
     0
330
21C8
  0
MLINESTYLE
  5
21C5
102
{ACAD_REACTORS
330
21C4
102
}
330
21C4
100
AcDbMlineStyle
  2
STANDARD
 70
     0
  3

 62
   256
 51
90.0
 52
90.0
 71
     2
 49
0.5
 62
   256
  6
BYLAYER
 49
-0.5
 62
   256
  6
BYLAYER
  0
ACDBPLACEHOLDER
  5
21BD
102
{ACAD_REACTORS
330
21BC
102
}
330
21BC
  0
DICTIONARYVAR
  5
2239
102
{ACAD_REACTORS
330
2238
102
}
330
2238
100
DictionaryVariables
280
     0
  1
1
  0
ENDSEC
  0
EOF
