  0
SECTION
  2
HEADER
  9
$ACADVER
  1
AC1015
  9
$ACADMAINTVER
 70
    14
  9
$DWGCODEPAGE
  3
ANSI_932
  9
$INSBASE
 10
0.0
 20
0.0
 30
0.0
  9
$EXTMIN
 10
-10.01236968808927
 20
-341.2164418109842
 30
-0.0000000349181948
  9
$EXTMAX
 10
333.9566160535
 20
198.0024760807193
 30
0.0000000814935746
  9
$LIMMIN
 10
0.0
 20
0.0
  9
$LIMMAX
 10
12.0
 20
9.0
  9
$ORTHOMODE
 70
     0
  9
$REGENMODE
 70
     1
  9
$FILLMODE
 70
     1
  9
$QTEXTMODE
 70
     0
  9
$MIRRTEXT
 70
     1
  9
$LTSCALE
 40
1.0
  9
$ATTMODE
 70
     1
  9
$TEXTSIZE
 40
0.2
  9
$TRACEWID
 40
0.05
  9
$TEXTSTYLE
  7
STANDARD
  9
$CLAYER
  8
0
  9
$CELTYPE
  6
CONTINUOUS
  9
$CECOLOR
 62
   256
  9
$CELTSCALE
 40
1.0
  9
$DISPSILH
 70
     0
  9
$DIMSCALE
 40
1.0
  9
$DIMASZ
 40
1.0
  9
$DIMEXO
 40
2.54
  9
$DIMDLI
 40
0.38
  9
$DIMRND
 40
0.0
  9
$DIMDLE
 40
0.0
  9
$DIMEXE
 40
2.54
  9
$DIMTP
 40
0.0
  9
$DIMTM
 40
0.0
  9
$DIMTXT
 40
3.2
  9
$DIMCEN
 40
0.09
  9
$DIMTSZ
 40
0.0
  9
$DIMTOL
 70
     0
  9
$DIMLIM
 70
     0
  9
$DIMTIH
 70
     0
  9
$DIMTOH
 70
     0
  9
$DIMSE1
 70
     0
  9
$DIMSE2
 70
     0
  9
$DIMTAD
 70
     1
  9
$DIMZIN
 70
     0
  9
$DIMBLK
  1

  9
$DIMASO
 70
     1
  9
$DIMSHO
 70
     0
  9
$DIMPOST
  1

  9
$DIMAPOST
  1

  9
$DIMALT
 70
     0
  9
$DIMALTD
 70
     2
  9
$DIMALTF
 40
25.4
  9
$DIMLFAC
 40
1.0
  9
$DIMTOFL
 70
     0
  9
$DIMTVP
 40
1.0
  9
$DIMTIX
 70
     0
  9
$DIMSOXD
 70
     0
  9
$DIMSAH
 70
     1
  9
$DIMBLK1
  1

  9
$DIMBLK2
  1

  9
$DIMSTYLE
  2
STANDARD
  9
$DIMCLRD
 70
     0
  9
$DIMCLRE
 70
     0
  9
$DIMCLRT
 70
     0
  9
$DIMTFAC
 40
1.0
  9
$DIMGAP
 40
1.6
  9
$DIMJUST
 70
     0
  9
$DIMSD1
 70
     0
  9
$DIMSD2
 70
     0
  9
$DIMTOLJ
 70
     1
  9
$DIMTZIN
 70
     0
  9
$DIMALTZ
 70
     0
  9
$DIMALTTZ
 70
     0
  9
$DIMUPT
 70
     0
  9
$DIMDEC
 70
     4
  9
$DIMTDEC
 70
     4
  9
$DIMALTU
 70
     2
  9
$DIMALTTD
 70
     2
  9
$DIMTXSTY
  7
STANDARD
  9
$DIMAUNIT
 70
     0
  9
$DIMADEC
 70
     0
  9
$DIMALTRND
 40
0.0
  9
$DIMAZIN
 70
     0
  9
$DIMDSEP
 70
    46
  9
$DIMATFIT
 70
     3
  9
$DIMFRAC
 70
     0
  9
$DIMLDRBLK
  1

  9
$DIMLUNIT
 70
     2
  9
$DIMLWD
 70
    -2
  9
$DIMLWE
 70
    -2
  9
$DIMTMOVE
 70
     0
  9
$LUNITS
 70
     2
  9
$LUPREC
 70
     4
  9
$SKETCHINC
 40
0.1
  9
$FILLETRAD
 40
0.0
  9
$AUNITS
 70
     0
  9
$AUPREC
 70
     0
  9
$MENU
  1
.
  9
$ELEVATION
 40
0.0
  9
$PELEVATION
 40
0.0
  9
$THICKNESS
 40
0.0
  9
$LIMCHECK
 70
     0
  9
$CHAMFERA
 40
0.0
  9
$CHAMFERB
 40
0.0
  9
$CHAMFERC
 40
0.0
  9
$CHAMFERD
 40
0.0
  9
$SKPOLY
 70
     0
  9
$TDCREATE
 40
2452488.423138738
  9
$TDUCREATE
 40
2452488.048138738
  9
$TDUPDATE
 40
2456906.721046435
  9
$TDUUPDATE
 40
2456906.346046435
  9
$TDINDWG
 40
0.2867645139
  9
$TDUSRTIMER
 40
0.2867643287
  9
$USRTIMER
 70
     1
  9
$ANGBASE
 50
0.0
  9
$ANGDIR
 70
     0
  9
$PDMODE
 70
     3
  9
$PDSIZE
 40
0.0
  9
$PLINEWID
 40
0.0
  9
$SPLFRAME
 70
     0
  9
$SPLINETYPE
 70
     6
  9
$SPLINESEGS
 70
     8
  9
$HANDSEED
  5
4F39
  9
$SURFTAB1
 70
     6
  9
$SURFTAB2
 70
     6
  9
$SURFTYPE
 70
     6
  9
$SURFU
 70
     6
  9
$SURFV
 70
     6
  9
$UCSBASE
  2

  9
$UCSNAME
  2

  9
$UCSORG
 10
0.0
 20
0.0
 30
0.0
  9
$UCSXDIR
 10
1.0
 20
0.0
 30
0.0
  9
$UCSYDIR
 10
0.0
 20
1.0
 30
0.0
  9
$UCSORTHOREF
  2

  9
$UCSORTHOVIEW
 70
     0
  9
$UCSORGTOP
 10
0.0
 20
0.0
 30
0.0
  9
$UCSORGBOTTOM
 10
0.0
 20
0.0
 30
0.0
  9
$UCSORGLEFT
 10
0.0
 20
0.0
 30
0.0
  9
$UCSORGRIGHT
 10
0.0
 20
0.0
 30
0.0
  9
$UCSORGFRONT
 10
0.0
 20
0.0
 30
0.0
  9
$UCSORGBACK
 10
0.0
 20
0.0
 30
0.0
  9
$PUCSBASE
  2

  9
$PUCSNAME
  2

  9
$PUCSORG
 10
0.0
 20
0.0
 30
0.0
  9
$PUCSXDIR
 10
1.0
 20
0.0
 30
0.0
  9
$PUCSYDIR
 10
0.0
 20
1.0
 30
0.0
  9
$PUCSORTHOREF
  2

  9
$PUCSORTHOVIEW
 70
     0
  9
$PUCSORGTOP
 10
0.0
 20
0.0
 30
0.0
  9
$PUCSORGBOTTOM
 10
0.0
 20
0.0
 30
0.0
  9
$PUCSORGLEFT
 10
0.0
 20
0.0
 30
0.0
  9
$PUCSORGRIGHT
 10
0.0
 20
0.0
 30
0.0
  9
$PUCSORGFRONT
 10
0.0
 20
0.0
 30
0.0
  9
$PUCSORGBACK
 10
0.0
 20
0.0
 30
0.0
  9
$USERI1
 70
     0
  9
$USERI2
 70
     0
  9
$USERI3
 70
     0
  9
$USERI4
 70
     0
  9
$USERI5
 70
     0
  9
$USERR1
 40
0.0
  9
$USERR2
 40
0.0
  9
$USERR3
 40
0.0
  9
$USERR4
 40
0.0
  9
$USERR5
 40
0.0
  9
$WORLDVIEW
 70
     1
  9
$SHADEDGE
 70
     3
  9
$SHADEDIF
 70
    70
  9
$TILEMODE
 70
     1
  9
$MAXACTVP
 70
    48
  9
$PINSBASE
 10
0.0
 20
0.0
 30
0.0
  9
$PLIMCHECK
 70
     0
  9
$PEXTMIN
 10
1.000000000000000E+20
 20
1.000000000000000E+20
 30
1.000000000000000E+20
  9
$PEXTMAX
 10
-1.000000000000000E+20
 20
-1.000000000000000E+20
 30
-1.000000000000000E+20
  9
$PLIMMIN
 10
0.0
 20
0.0
  9
$PLIMMAX
 10
12.0
 20
9.0
  9
$UNITMODE
 70
     0
  9
$VISRETAIN
 70
     1
  9
$PLINEGEN
 70
     0
  9
$PSLTSCALE
 70
     1
  9
$TREEDEPTH
 70
  3020
  9
$CMLSTYLE
  2
Standard
  9
$CMLJUST
 70
     0
  9
$CMLSCALE
 40
1.0
  9
$PROXYGRAPHICS
 70
     1
  9
$MEASUREMENT
 70
     0
  9
$CELWEIGHT
370
    -1
  9
$ENDCAPS
280
     0
  9
$JOINSTYLE
280
     0
  9
$LWDISPLAY
290
     0
  9
$INSUNITS
 70
     0
  9
$HYPERLINKBASE
  1

  9
$STYLESHEET
  1

  9
$XEDIT
290
     1
  9
$CEPSNTYPE
380
     0
  9
$PSTYLEMODE
290
     1
  9
$FINGERPRINTGUID
  2
{FFE95C04-33D2-4560-80D0-1E2918E4EC86}
  9
$VERSIONGUID
  2
{F4DE57B8-9619-4E75-AA7E-C8A0B2B4ADD3}
  9
$EXTNAMES
290
     1
  9
$PSVPSCALE
 40
0.0
  9
$OLESTARTUP
290
     0
  0
ENDSEC
  0
SECTION
  2
CLASSES
  0
CLASS
  1
ACDBDICTIONARYWDFLT
  2
AcDbDictionaryWithDefault
  3
AutoCAD 2000
 90
        0
280
     0
281
     0
  0
CLASS
  1
ACDBPLACEHOLDER
  2
AcDbPlaceHolder
  3
AutoCAD 2000
 90
        0
280
     0
281
     0
  0
CLASS
  1
LAYOUT
  2
AcDbLayout
  3
AutoCAD 2000
 90
        0
280
     0
281
     0
  0
CLASS
  1
DICTIONARYVAR
  2
AcDbDictionaryVar
  3
AutoCAD 2000
 90
        0
280
     0
281
     0
  0
CLASS
  1
LONG_TRANSACTION
  2
AcDbLongTransaction
  3
AutoCAD 2000
 90
    32768
280
     0
281
     0
  0
CLASS
  1
LWPOLYLINE
  2
AcDbPolyline
  3
AutoCAD 2000
 90
    32768
280
     0
281
     1
  0
CLASS
  1
HATCH
  2
AcDbHatch
  3
AutoCAD 2000
 90
    32768
280
     0
281
     1
  0
CLASS
  1
XRECORD
  2
AcDbXrecord
  3
AutoCAD 2000
 90
    32768
280
     0
281
     0
  0
ENDSEC
  0
SECTION
  2
TABLES
  0
TABLE
  2
VPORT
  5
21B6
330
0
100
AcDbSymbolTable
 70
     2
  0
VPORT
  5
4F38
330
21B6
100
AcDbSymbolTableRecord
100
AcDbViewportTableRecord
  2
*Active
 70
     0
 10
0.0
 20
0.0
 11
1.0
 21
1.0
 12
161.9721231827052
 22
-71.60698286513241
 13
0.0
 23
0.0
 14
1.0
 24
1.0
 15
0.0
 25
0.0
 16
0.0
 26
0.0
 36
1.0
 17
0.0
 27
0.0
 37
0.0
 40
542.6425300687936
 41
1.953389830508474
 42
50.0
 43
0.0
 44
0.0
 50
0.0
 51
0.0
 71
     0
 72
   100
 73
     1
 74
     3
 75
     0
 76
     0
 77
     0
 78
     0
281
     0
 65
     1
110
0.0
120
0.0
130
0.0
111
1.0
121
0.0
131
0.0
112
0.0
122
1.0
132
0.0
 79
     0
146
0.0
  0
ENDTAB
  0
TABLE
  2
LTYPE
  5
21B3
330
0
100
AcDbSymbolTable
 70
     2
  0
LTYPE
  5
21C1
330
21B3
100
AcDbSymbolTableRecord
100
AcDbLinetypeTableRecord
  2
ByBlock
 70
     0
  3

 72
    65
 73
     0
 40
0.0
  0
LTYPE
  5
21C2
330
21B3
100
AcDbSymbolTableRecord
100
AcDbLinetypeTableRecord
  2
ByLayer
 70
     0
  3

 72
    65
 73
     0
 40
0.0
  0
LTYPE
  5
21C3
330
21B3
100
AcDbSymbolTableRecord
100
AcDbLinetypeTableRecord
  2
CONTINUOUS
 70
     0
  3
Solid line
 72
    65
 73
     0
 40
0.0
  0
LTYPE
  5
21D1
330
21B3
100
AcDbSymbolTableRecord
100
AcDbLinetypeTableRecord
  2
CENTER
 70
     0
  3
__ . __
 72
    65
 73
     4
 40
7.0
 49
4.0
 74
     0
 49
-1.0
 74
     0
 49
1.0
 74
     0
 49
-1.0
 74
     0
  0
ENDTAB
  0
TABLE
  2
LAYER
  5
21B0
102
{ACAD_XDICTIONARY
360
2244
102
}
330
0
100
AcDbSymbolTable
 70
     1
  0
LAYER
  5
21BE
330
21B0
100
AcDbSymbolTableRecord
100
AcDbLayerTableRecord
  2
0
 70
     0
 62
     7
  6
CONTINUOUS
370
    -3
390
21BD
  0
ENDTAB
  0
TABLE
  2
STYLE
  5
21B1
330
0
100
AcDbSymbolTable
 70
     1
  0
STYLE
  5
21BF
330
21B1
100
AcDbSymbolTableRecord
100
AcDbTextStyleTableRecord
  2
STANDARD
 70
     0
 40
0.0
 41
1.0
 50
0.0
 71
     0
 42
0.2
  3
txt
  4
BIGFONT
  0
ENDTAB
  0
TABLE
  2
VIEW
  5
21B4
330
0
100
AcDbSymbolTable
 70
     1
  0
VIEW
  5
21DE
330
21B4
100
AcDbSymbolTableRecord
100
AcDbViewTableRecord
  2
OLE1
 70
     0
 40
3692.141019219747
 10
1914.591370701856
 20
1272.206200738182
 41
4595.022665841169
 11
0.0
 21
0.0
 31
1.0
 12
0.0
 22
0.0
 32
0.0
 42
50.0
 43
0.0
 44
0.0
 50
0.0
 71
     0
281
     0
 72
     1
110
0.0
120
0.0
130
0.0
111
1.0
121
0.0
131
0.0
112
0.0
122
1.0
132
0.0
 79
     0
146
0.0
  0
ENDTAB
  0
TABLE
  2
UCS
  5
21B5
330
0
100
AcDbSymbolTable
 70
     0
  0
ENDTAB
  0
TABLE
  2
APPID
  5
21B7
330
0
100
AcDbSymbolTable
 70
     8
  0
APPID
  5
21C0
330
21B7
100
AcDbSymbolTableRecord
100
AcDbRegAppTableRecord
  2
ACAD
 70
     0
  0
APPID
  5
21DF
330
21B7
100
AcDbSymbolTableRecord
100
AcDbRegAppTableRecord
  2
MCAD_NO_VIS
 70
     0
  0
APPID
  5
21E0
330
21B7
100
AcDbSymbolTableRecord
100
AcDbRegAppTableRecord
  2
ACAD_TEMP_GRAPHIC
 70
     0
  0
APPID
  5
21E1
330
21B7
100
AcDbSymbolTableRecord
100
AcDbRegAppTableRecord
  2
ACATTRIBSERVICES
 70
     0
  0
APPID
  5
21E2
330
21B7
100
AcDbSymbolTableRecord
100
AcDbRegAppTableRecord
  2
CONTENTBLOCKICON
 70
     0
  0
APPID
  5
2241
330
21B7
100
AcDbSymbolTableRecord
100
AcDbRegAppTableRecord
  2
ACAD_DSTYLE_DIMJAG
 70
     0
  0
APPID
  5
2242
330
21B7
100
AcDbSymbolTableRecord
100
AcDbRegAppTableRecord
  2
ACAD_DSTYLE_DIMTALN
 70
     0
  0
APPID
  5
2243
330
21B7
100
AcDbSymbolTableRecord
100
AcDbRegAppTableRecord
  2
ACAD_PSEXT
 70
     0
  0
ENDTAB
  0
TABLE
  2
DIMSTYLE
  5
21B8
330
0
100
AcDbSymbolTable
 70
     1
100
AcDbDimStyleTable
 71
     0
  0
DIMSTYLE
105
21E3
330
21B8
100
AcDbSymbolTableRecord
100
AcDbDimStyleTableRecord
  2
STANDARD
 70
     0
279
     2
340
21BF
  0
ENDTAB
  0
TABLE
  2
BLOCK_RECORD
  5
21AF
330
0
100
AcDbSymbolTable
 70
     0
  0
BLOCK_RECORD
  5
21CC
102
{ACAD_XDICTIONARY
360
21F8
102
}
330
21AF
100
AcDbSymbolTableRecord
100
AcDbBlockTableRecord
  2
*Model_Space
340
21CF
  0
BLOCK_RECORD
  5
21C8
102
{ACAD_XDICTIONARY
360
21FA
102
}
330
21AF
100
AcDbSymbolTableRecord
100
AcDbBlockTableRecord
  2
*Paper_Space
340
21CB
  0
ENDTAB
  0
ENDSEC
  0
SECTION
  2
BLOCKS
  0
BLOCK
  5
21CD
330
21CC
100
AcDbEntity
  8
0
100
AcDbBlockBegin
  2
*Model_Space
 70
     0
 10
0.0
 20
0.0
 30
0.0
  3
*Model_Space
  1

  0
ENDBLK
  5
21CE
330
21CC
100
AcDbEntity
  8
0
100
AcDbBlockEnd
  0
BLOCK
  5
21C9
330
21C8
100
AcDbEntity
 67
     1
  8
0
100
AcDbBlockBegin
  2
*Paper_Space
 70
     0
 10
0.0
 20
0.0
 30
0.0
  3
*Paper_Space
  1

  0
ENDBLK
  5
21CA
330
21C8
100
AcDbEntity
 67
     1
  8
0
100
AcDbBlockEnd
  0
ENDSEC
  0
SECTION
  2
ENTITIES
  0
TEXT
  5
F6E
330
21CC
100
AcDbEntity
  8
0
  6
Continuous
100
AcDbText
 10
0.0
 20
150.0
 30
0.0
 40
48.000002
  1
SGQ 4S
 41
1.32095
100
AcDbText
  0
LINE
  5
4B98
330
21CC
100
AcDbEntity
  8
0
  6
CENTER
100
AcDbLine
 10
330.0000047683715
 20
-250.1543279384973
 30
0.0
 11
-10.0
 21
-250.1543279384971
 31
0.0
  0
LINE
  5
4B99
330
21CC
100
AcDbEntity
  8
0
  6
Continuous
100
AcDbLine
 10
81.25000238418534
 20
-182.3800574367644
 30
0.0
 11
138.5000023841855
 21
-182.3800574367644
 31
0.0
  0
LINE
  5
4B9A
330
21CC
100
AcDbEntity
  8
0
  6
Continuous
100
AcDbLine
 10
81.25000238418579
 20
-194.3285904949309
 30
0.0
 11
138.5000023841855
 21
-194.3285904949309
 31
0.0
  0
LINE
  5
4B9B
330
21CC
100
AcDbEntity
  8
0
  6
Continuous
100
AcDbLine
 10
156.0000023841855
 20
-197.6043239658477
 30
0.0
 11
90.25000238418579
 21
-197.6043239658477
 31
0.0
  0
LINE
  5
4B9C
330
21CC
100
AcDbEntity
  8
0
  6
Continuous
100
AcDbLine
 10
156.0000023841855
 20
-179.1043239658477
 30
0.0
 11
90.25000238418533
 21
-179.1043239658477
 31
0.0
  0
LINE
  5
4B9D
330
21CC
100
AcDbEntity
  8
0
  6
Continuous
100
AcDbLine
 10
81.25000238418579
 20
-305.9800653820639
 30
0.0
 11
138.5000023841855
 21
-305.9800653820639
 31
0.0
  0
LINE
  5
4B9E
330
21CC
100
AcDbEntity
  8
0
  6
Continuous
100
AcDbLine
 10
81.25000238418534
 20
-317.9285984402304
 30
0.0
 11
138.5000023841855
 21
-317.9285984402304
 31
0.0
  0
LINE
  5
4B9F
330
21CC
100
AcDbEntity
  8
0
  6
Continuous
100
AcDbLine
 10
156.0000023841855
 20
-321.2043319111471
 30
0.0
 11
90.25000238418533
 21
-321.2043319111471
 31
0.0
  0
LINE
  5
4BA0
330
21CC
100
AcDbEntity
  8
0
  6
Continuous
100
AcDbLine
 10
156.0000023841855
 20
-302.7043319111471
 30
0.0
 11
90.25000238418579
 21
-302.7043319111471
 31
0.0
  0
ARC
  5
4BA1
330
21CC
100
AcDbEntity
  8
0
  6
Continuous
100
AcDbCircle
 10
94.00000140070915
 20
-302.9543317770367
 30
0.0
 40
2.000000029802321
100
AcDbArc
 50
7.180755459366443
 51
89.99999567429256
  0
LINE
  5
4BA2
330
21CC
100
AcDbEntity
  8
0
  6
Continuous
100
AcDbLine
 10
90.25000126759072
 20
-302.704333473559
 30
0.0
 11
81.25000260254092
 21
-305.9800652133717
 31
0.0
  0
LINE
  5
4BA3
330
21CC
100
AcDbEntity
  8
0
  6
Continuous
100
AcDbLine
 10
90.25000126758982
 20
-321.2043303487344
 30
0.0
 11
81.25000260254024
 21
-317.9285986089225
 31
0.0
  0
LINE
  5
4BA4
330
21CC
100
AcDbEntity
  8
0
  6
Continuous
100
AcDbLine
 10
81.25000238418556
 20
-317.928598440229
 30
0.0
 11
81.25000238418556
 21
-305.9800653820625
 31
0.0
  0
LINE
  5
4BA5
330
21CC
100
AcDbEntity
  8
0
  6
Continuous
100
AcDbLine
 10
94.00000140070915
 20
-199.3543241297604
 30
0.0
 11
7.413052919239817
 21
-199.3543241297604
 31
0.0
  0
LINE
  5
4BA6
330
21CC
100
AcDbEntity
  8
0
  6
Continuous
100
AcDbLine
 10
94.00000140070915
 20
-300.9543317472343
 30
0.0
 11
7.413052919239817
 21
-300.9543317472343
 31
0.0
  0
ARC
  5
4BA7
330
21CC
100
AcDbEntity
  8
0
  6
Continuous
100
AcDbCircle
 10
20.90911896391389
 20
-250.1543279385002
 30
0.0
 40
90.66024915367735
100
AcDbArc
 50
327.3095896211287
 51
32.69041037887117
  0
LINE
  5
4BA8
330
21CC
100
AcDbEntity
  8
0
  6
Continuous
100
AcDbLine
 10
90.25000126759072
 20
-197.6043224034354
 30
0.0
 11
81.25000260254092
 21
-194.3285906636231
 31
0.0
  0
ARC
  5
4BA9
330
21CC
100
AcDbEntity
  8
0
  6
Continuous
100
AcDbCircle
 10
94.00000140070915
 20
-197.3543240999581
 30
0.0
 40
2.000000029802321
100
AcDbArc
 50
270.0000043257074
 51
352.8192445406335
  0
LINE
  5
4BAA
330
21CC
100
AcDbEntity
  8
0
  6
Continuous
100
AcDbLine
 10
90.25000126758982
 20
-179.1043255282602
 30
0.0
 11
81.25000260254024
 21
-182.3800572680722
 31
0.0
  0
LINE
  5
4BAB
330
21CC
100
AcDbEntity
  8
0
  6
Continuous
100
AcDbLine
 10
81.25000238418556
 20
-182.3800574367655
 30
0.0
 11
81.25000238418556
 21
-194.3285904949321
 31
0.0
  0
LINE
  5
4BAC
330
21CC
100
AcDbEntity
  8
0
  6
CENTER
100
AcDbLine
 10
160.0000023841857
 20
-166.6043239658477
 30
0.0
 11
160.0000023841857
 21
-341.2043319111471
 31
0.0
  0
LINE
  5
4BAD
330
21CC
100
AcDbEntity
  8
0
  6
Continuous
100
AcDbLine
 10
156.0000023841855
 20
-179.1043239658477
 30
0.0
 11
156.0000023841855
 21
-197.6043239658477
 31
0.0
  0
LINE
  5
4BAE
330
21CC
100
AcDbEntity
  8
0
  6
Continuous
100
AcDbLine
 10
156.0000023841855
 20
-184.3543239658476
 30
0.0
 11
164.000002384186
 21
-184.3543239658476
 31
0.0
  0
LINE
  5
4BAF
330
21CC
100
AcDbEntity
  8
0
  6
Continuous
100
AcDbLine
 10
156.0000023841855
 20
-192.3543239658476
 30
0.0
 11
164.000002384186
 21
-192.3543239658476
 31
0.0
  0
ARC
  5
4BB0
330
21CC
100
AcDbEntity
  8
0
  6
Continuous
100
AcDbCircle
 10
142.2909624725623
 20
-182.7251587932708
 30
0.0
 40
2.790960788726806
100
AcDbArc
 50
137.7544653697283
 51
222.2455309878258
  0
LINE
  5
4BB1
330
21CC
100
AcDbEntity
  8
0
  6
Continuous
100
AcDbLine
 10
140.2248957306189
 20
-184.6015471046566
 30
0.0
 11
145.0000021606727
 21
-184.6015471046566
 31
0.0
  0
LINE
  5
4BB2
330
21CC
100
AcDbEntity
  8
0
  6
Continuous
100
AcDbLine
 10
140.2248957306189
 20
-180.8487702434658
 30
0.0
 11
145.0000021606727
 21
-180.8487702434658
 31
0.0
  0
ARC
  5
4BB3
330
21CC
100
AcDbEntity
  8
0
  6
Continuous
100
AcDbCircle
 10
142.2909624725623
 20
-193.9834891384245
 30
0.0
 40
2.790960788726806
100
AcDbArc
 50
137.7544653697283
 51
222.2455309878258
  0
LINE
  5
4BB4
330
21CC
100
AcDbEntity
  8
0
  6
Continuous
100
AcDbLine
 10
140.2248957306189
 20
-192.1071008270382
 30
0.0
 11
145.0000021606727
 21
-192.1071008270382
 31
0.0
  0
LINE
  5
4BB5
330
21CC
100
AcDbEntity
  8
0
  6
Continuous
100
AcDbLine
 10
140.2248957306189
 20
-195.859877688229
 30
0.0
 11
145.0000021606727
 21
-195.859877688229
 31
0.0
  0
LINE
  5
4BB6
330
21CC
100
AcDbEntity
  8
0
  6
Continuous
100
AcDbLine
 10
145.0000021606727
 20
-180.3543239658477
 30
0.0
 11
145.0000021606727
 21
-196.3543239658477
 31
0.0
  0
ARC
  5
4BB7
330
21CC
100
AcDbEntity
  8
0
  6
Continuous
100
AcDbCircle
 10
149.5765020996375
 20
-188.3543239658477
 30
0.0
 40
10.07649993896484
100
AcDbArc
 50
158.1345204190074
 51
201.8654759385425
  0
LINE
  5
4BB8
330
21CC
100
AcDbEntity
  8
0
  6
Continuous
100
AcDbLine
 10
139.5000021606726
 20
-182.725158793271
 30
0.0
 11
139.5000021606726
 21
-193.9834891384248
 31
0.0
  0
LINE
  5
4BB9
330
21CC
100
AcDbEntity
  8
0
  6
Continuous
100
AcDbLine
 10
145.0000021606727
 20
-180.3543239658477
 30
0.0
 11
156.0000023841855
 21
-180.3543239658477
 31
0.0
  0
LINE
  5
4BBA
330
21CC
100
AcDbEntity
  8
0
  6
Continuous
100
AcDbLine
 10
145.0000021606727
 20
-196.3543239658477
 30
0.0
 11
156.0000023841855
 21
-196.3543239658477
 31
0.0
  0
LINE
  5
4BBB
330
21CC
100
AcDbEntity
  8
0
  6
CENTER
100
AcDbLine
 10
330.0000047683715
 20
0.0
 30
0.0
 11
-10.0
 21
0.0
 31
0.0
  0
LINE
  5
4BBC
330
21CC
100
AcDbEntity
  8
0
  6
Continuous
100
AcDbLine
 10
226.3849359710231
 20
-50.80000380873684
 30
0.0
 11
312.5869518491317
 21
-50.80000380873684
 31
0.0
  0
LINE
  5
4BBD
330
21CC
100
AcDbEntity
  8
0
  6
Continuous
100
AcDbLine
 10
226.3849359710229
 20
50.80000380873684
 30
0.0
 11
312.5869518491317
 21
50.80000380873684
 31
0.0
  0
ARC
  5
4BBE
330
21CC
100
AcDbEntity
  8
0
  6
Continuous
100
AcDbCircle
 10
160.0000023841857
 20
0.0
 30
0.0
 40
69.74999682390262
100
AcDbArc
 50
92.46509519063822
 51
267.5349048093617
  0
CIRCLE
  5
4BBF
330
21CC
100
AcDbEntity
  8
0
  6
Continuous
100
AcDbCircle
 10
160.0000023841857
 20
0.0
 30
0.0
 40
57.01260993902974
  0
ARC
  5
4BC0
330
21CC
100
AcDbEntity
  8
0
  6
Continuous
100
AcDbCircle
 10
160.0000023841857
 20
0.0
 30
0.0
 40
67.75000100955367
100
AcDbArc
 50
93.33545624468413
 51
266.6645437553158
  0
ARC
  5
4BC1
330
21CC
100
AcDbEntity
  8
0
  6
Continuous
100
AcDbCircle
 10
160.0000023841857
 20
0.0
 30
0.0
 40
78.75000117346643
100
AcDbArc
 50
101.5736242802804
 51
258.4263757197195
  0
LINE
  5
4BC2
330
21CC
100
AcDbEntity
  8
0
  6
Continuous
100
AcDbLine
 10
93.61506879734838
 20
-50.80000380873684
 30
0.0
 11
7.413052919239817
 21
-50.80000380873684
 31
0.0
  0
ARC
  5
4BC3
330
21CC
100
AcDbEntity
  8
0
  6
Continuous
100
AcDbCircle
 10
20.90911896391389
 20
-0.0000000000029559
 30
0.0
 40
90.66024915367735
100
AcDbArc
 50
325.9211126456706
 51
327.8980895422826
  0
LINE
  5
4BC4
330
21CC
100
AcDbEntity
  8
0
  6
Continuous
100
AcDbLine
 10
93.61506879734861
 20
50.80000380873684
 30
0.0
 11
7.413052919239817
 21
50.80000380873684
 31
0.0
  0
ARC
  5
4BC5
330
21CC
100
AcDbEntity
  8
0
  6
Continuous
100
AcDbCircle
 10
20.90911896391389
 20
-0.0000000000029559
 30
0.0
 40
90.66024915367735
100
AcDbArc
 50
32.10191045771741
 51
34.07888735432932
  0
LINE
  5
4BC7
330
21CC
100
AcDbEntity
  8
0
  6
CENTER
100
AcDbLine
 10
160.0000023841857
 20
100.5471102235585
 30
0.0
 11
160.0000023841857
 21
-100.5471102235585
 31
0.0
  0
ARC
  5
4BC8
330
21CC
100
AcDbEntity
  8
0
  6
Continuous
100
AcDbCircle
 10
160.0000023841857
 20
0.0
 30
0.0
 40
69.74999682390262
100
AcDbArc
 50
272.4650951906382
 51
87.53490480936177
  0
CIRCLE
  5
4BC9
330
21CC
100
AcDbEntity
  8
0
  6
Continuous
100
AcDbCircle
 10
160.0000023841857
 20
0.0
 30
0.0
 40
27.00002999999992
  0
CIRCLE
  5
4BCA
330
21CC
100
AcDbEntity
  8
0
  6
Continuous
100
AcDbCircle
 10
160.0000023841857
 20
0.0
 30
0.0
 40
25.00057955265629
  0
ARC
  5
4BCB
330
21CC
100
AcDbEntity
  8
0
  6
Continuous
100
AcDbCircle
 10
160.0000023841857
 20
0.0
 30
0.0
 40
67.75000100955367
100
AcDbArc
 50
273.335456244684
 51
86.66454375531584
  0
ARC
  5
4BCC
330
21CC
100
AcDbEntity
  8
0
  6
Continuous
100
AcDbCircle
 10
160.0000023841857
 20
0.0
 30
0.0
 40
78.75000117346643
100
AcDbArc
 50
281.5736242802804
 51
78.42637571971953
  0
LINE
  5
4BCD
330
21CC
100
AcDbEntity
  8
0
  6
Continuous
100
AcDbLine
 10
181.5000027045607
 20
-94.00000140070938
 30
0.0
 11
181.5000027045607
 21
-81.00000120699428
 31
0.0
  0
LINE
  5
4BCE
330
21CC
100
AcDbEntity
  8
0
  6
Continuous
100
AcDbLine
 10
175.0000026077032
 20
-95.50000142306112
 30
0.0
 11
175.0000026077032
 21
-78.12850107365034
 31
0.0
  0
LINE
  5
4BCF
330
21CC
100
AcDbEntity
  8
0
  6
Continuous
100
AcDbLine
 10
163.0000024288892
 20
-95.50000142306112
 30
0.0
 11
163.0000024288892
 21
-68.63353872893345
 31
0.0
  0
LINE
  5
4BD0
330
21CC
100
AcDbEntity
  8
0
  6
Continuous
100
AcDbLine
 10
157.0000023394823
 20
-95.50000142306112
 30
0.0
 11
157.0000023394823
 21
-68.63353872893345
 31
0.0
  0
LINE
  5
4BD1
330
21CC
100
AcDbEntity
  8
0
  6
Continuous
100
AcDbLine
 10
145.0000021606683
 20
-95.50000142306112
 30
0.0
 11
145.0000021606683
 21
-78.12850107365034
 31
0.0
  0
ARC
  5
4BD2
330
21CC
100
AcDbEntity
  8
0
  6
Continuous
100
AcDbCircle
 10
147.1479971877931
 20
-90.7500013522806
 30
0.0
 40
7.647994632244027
100
AcDbArc
 50
154.8526281831849
 51
205.1473681743535
  0
ARC
  5
4BD3
330
21CC
100
AcDbEntity
  8
0
  6
Continuous
100
AcDbCircle
 10
182.6479977167844
 20
-90.7500013522806
 30
0.0
 40
7.647995109081192
100
AcDbArc
 50
154.8526281831849
 51
205.1473681743535
  0
ARC
  5
4BD4
330
21CC
100
AcDbEntity
  8
0
  6
Continuous
100
AcDbCircle
 10
173.8520075954795
 20
-90.7500013522806
 30
0.0
 40
7.647995109081192
100
AcDbArc
 50
334.8526282968782
 51
25.14737511822298
  0
ARC
  5
4BD5
330
21CC
100
AcDbEntity
  8
0
  6
Continuous
100
AcDbCircle
 10
182.5000027194619
 20
-92.50000137835764
 30
0.0
 40
1.00000001490116
100
AcDbArc
 50
270.0000043257074
 51
0.0000050089374039
  0
LINE
  5
4BD6
330
21CC
100
AcDbEntity
  8
0
  6
Continuous
100
AcDbLine
 10
140.2248956594651
 20
-94.00000140071028
 30
0.0
 11
145.0000021606733
 21
-94.00000140071028
 31
0.0
  0
LINE
  5
4BD7
330
21CC
100
AcDbEntity
  8
0
  6
Continuous
100
AcDbLine
 10
145.0000021606683
 20
-95.50000142306112
 30
0.0
 11
157.0000023394823
 21
-95.50000142306112
 31
0.0
  0
LINE
  5
4BD8
330
21CC
100
AcDbEntity
  8
0
  6
Continuous
100
AcDbLine
 10
181.5000027045607
 20
-94.00000140070938
 30
0.0
 11
175.0000026077032
 21
-94.00000140070938
 31
0.0
  0
LINE
  5
4BD9
330
21CC
100
AcDbEntity
  8
0
  6
Continuous
100
AcDbLine
 10
182.5000027194619
 20
-93.5000013932588
 30
0.0
 11
181.5000027045607
 21
-93.5000013932588
 31
0.0
  0
LINE
  5
4BDA
330
21CC
100
AcDbEntity
  8
0
  6
Continuous
100
AcDbLine
 10
175.0000026077032
 20
-95.50000142306112
 30
0.0
 11
163.0000024288892
 21
-95.50000142306112
 31
0.0
  0
LINE
  5
4BDB
330
21CC
100
AcDbEntity
  8
0
  6
Continuous
100
AcDbLine
 10
163.0000024288892
 20
-84.50000124424718
 30
0.0
 11
157.0000023394823
 21
-84.50000124424718
 31
0.0
  0
LINE
  5
4BDC
330
21CC
100
AcDbEntity
  8
0
  6
Continuous
100
AcDbLine
 10
163.0000024288892
 20
-90.50000136345648
 30
0.0
 11
157.0000023394823
 21
-90.50000136345648
 31
0.0
  0
ARC
  5
4BDD
330
21CC
100
AcDbEntity
  8
0
  6
Continuous
100
AcDbCircle
 10
160.0000023841857
 20
0.0
 30
0.0
 40
70.75056024500373
100
AcDbArc
 50
267.5697875704672
 51
272.4302124295328
  0
LINE
  5
4BDE
330
21CC
100
AcDbEntity
  8
0
  6
Continuous
100
AcDbLine
 10
163.0000024288892
 20
-83.50000124424719
 30
0.0
 11
157.0000023394823
 21
-83.50000124424719
 31
0.0
  0
LINE
  5
4BDF
330
21CC
100
AcDbEntity
  8
0
  6
Continuous
100
AcDbLine
 10
163.0000024288892
 20
-91.50000136345648
 30
0.0
 11
157.0000023394823
 21
-91.50000136345648
 31
0.0
  0
LINE
  5
4BE0
330
21CC
100
AcDbEntity
  8
0
  6
Continuous
100
AcDbLine
 10
140.2248956594644
 20
-81.00000120699519
 30
0.0
 11
145.0000021606727
 21
-81.00000120699519
 31
0.0
  0
LINE
  5
4BE1
330
21CC
100
AcDbEntity
  8
0
  6
Continuous
100
AcDbLine
 10
139.5000020787165
 20
-84.25000125542396
 30
0.0
 11
139.5000020787169
 21
-90.75000135228151
 31
0.0
  0
LINE
  5
4BE2
330
21CC
100
AcDbEntity
  8
0
  6
Continuous
100
AcDbLine
 10
140.2248956594646
 20
-87.50000130385274
 30
0.0
 11
145.0000021606731
 21
-87.50000130385251
 31
0.0
  0
ARC
  5
4BE3
330
21CC
100
AcDbEntity
  8
0
  6
Continuous
100
AcDbCircle
 10
147.1479971877931
 20
-84.25000125542306
 30
0.0
 40
7.647994632244027
100
AcDbArc
 50
154.8526281831849
 51
205.1473681743535
  0
LINE
  5
4BE4
330
21CC
100
AcDbEntity
  8
0
  6
Continuous
100
AcDbLine
 10
189.0000028163194
 20
-90.50000136345648
 30
0.0
 11
183.500002734363
 21
-90.50000136345648
 31
0.0
  0
LINE
  5
4BE5
330
21CC
100
AcDbEntity
  8
0
  6
Continuous
100
AcDbLine
 10
189.0000028163194
 20
-84.50000124424718
 30
0.0
 11
183.500002734363
 21
-84.50000124424718
 31
0.0
  0
LINE
  5
4BE6
330
21CC
100
AcDbEntity
  8
0
  6
Continuous
100
AcDbLine
 10
188.0000028163194
 20
-91.50000136345648
 30
0.0
 11
183.500002734363
 21
-91.50000136345648
 31
0.0
  0
LINE
  5
4BE7
330
21CC
100
AcDbEntity
  8
0
  6
Continuous
100
AcDbLine
 10
188.0000028163194
 20
-83.50000124424719
 30
0.0
 11
183.500002734363
 21
-83.50000124424719
 31
0.0
  0
LINE
  5
4BE8
330
21CC
100
AcDbEntity
  8
0
  6
Continuous
100
AcDbLine
 10
181.5000027045607
 20
-81.00000120699428
 30
0.0
 11
175.0000026077032
 21
-81.00000120699428
 31
0.0
  0
LINE
  5
4BE9
330
21CC
100
AcDbEntity
  8
0
  6
Continuous
100
AcDbLine
 10
180.7751091238128
 20
-87.50000130385183
 30
0.0
 11
175.7248961884513
 21
-87.50000130385183
 31
0.0
  0
LINE
  5
4BEA
330
21CC
100
AcDbEntity
  8
0
  6
Continuous
100
AcDbLine
 10
182.5000027194619
 20
-81.50000121444486
 30
0.0
 11
181.5000027045607
 21
-81.50000121444486
 31
0.0
  0
LINE
  5
4BEB
330
21CC
100
AcDbEntity
  8
0
  6
Continuous
100
AcDbLine
 10
183.500002734363
 20
-82.50000122934602
 30
0.0
 11
183.500002734363
 21
-92.50000137835764
 31
0.0
  0
ARC
  5
4BEC
330
21CC
100
AcDbEntity
  8
0
  6
Continuous
100
AcDbCircle
 10
182.6479977167844
 20
-84.25000125542306
 30
0.0
 40
7.647995109081192
100
AcDbArc
 50
154.8526281831849
 51
205.1473681743535
  0
ARC
  5
4BED
330
21CC
100
AcDbEntity
  8
0
  6
Continuous
100
AcDbCircle
 10
173.8520075954795
 20
-84.25000125542306
 30
0.0
 40
7.647995109081192
100
AcDbArc
 50
334.8526282968782
 51
25.14736828804689
  0
ARC
  5
4BEE
330
21CC
100
AcDbEntity
  8
0
  6
Continuous
100
AcDbCircle
 10
182.5000027194619
 20
-82.50000122934602
 30
0.0
 40
1.00000001490116
100
AcDbArc
 50
359.9999949910365
 51
89.99999567427954
  0
LINE
  5
4BEF
330
21CC
100
AcDbEntity
  8
0
  6
Continuous
100
AcDbLine
 10
189.0000028163194
 20
-90.50000136345648
 30
0.0
 11
188.0000028163194
 21
-91.50000136345648
 31
0.0
  0
LINE
  5
4BF0
330
21CC
100
AcDbEntity
  8
0
  6
Continuous
100
AcDbLine
 10
188.0000028163194
 20
-83.50000124424719
 30
0.0
 11
189.0000028163194
 21
-84.50000124424718
 31
0.0
  0
LINE
  5
4BF1
330
21CC
100
AcDbEntity
  8
0
  6
Continuous
100
AcDbLine
 10
189.0000028163194
 20
-84.50000124424718
 30
0.0
 11
189.0000028163194
 21
-90.50000136345648
 31
0.0
  0
LINE
  5
4BF2
330
21CC
100
AcDbEntity
  8
0
  6
Continuous
100
AcDbLine
 10
188.0000028163194
 20
-83.50000124424719
 30
0.0
 11
188.0000028163194
 21
-91.50000136345648
 31
0.0
  0
ARC
  5
4BF3
330
21CC
100
AcDbEntity
  8
0
  6
Continuous
100
AcDbCircle
 10
299.0908858044576
 20
-0.0000000000029559
 30
0.0
 40
90.66024915367735
100
AcDbArc
 50
212.1019104577174
 51
214.0788873543293
  0
LINE
  5
4BF4
330
21CC
100
AcDbEntity
  8
0
  6
Continuous
100
AcDbLine
 10
163.0000024288892
 20
84.50000124424695
 30
0.0
 11
157.0000023394823
 21
84.50000124424695
 31
0.0
  0
LINE
  5
4BF5
330
21CC
100
AcDbEntity
  8
0
  6
Continuous
100
AcDbLine
 10
163.0000024288892
 20
90.50000136345625
 30
0.0
 11
157.0000023394823
 21
90.50000136345625
 31
0.0
  0
LINE
  5
4BF6
330
21CC
100
AcDbEntity
  8
0
  6
Continuous
100
AcDbLine
 10
163.0000024288892
 20
91.50000136345624
 30
0.0
 11
157.0000023394823
 21
91.50000136345624
 31
0.0
  0
LINE
  5
4BF7
330
21CC
100
AcDbEntity
  8
0
  6
Continuous
100
AcDbLine
 10
163.0000024288892
 20
83.50000124424695
 30
0.0
 11
157.0000023394823
 21
83.50000124424695
 31
0.0
  0
ARC
  5
4BF8
330
21CC
100
AcDbEntity
  8
0
  6
Continuous
100
AcDbCircle
 10
160.0000023841857
 20
0.0
 30
0.0
 40
70.75056024500373
100
AcDbArc
 50
87.5697875704672
 51
92.43021242953279
  0
LINE
  5
4BF9
330
21CC
100
AcDbEntity
  8
0
  6
Continuous
100
AcDbLine
 10
145.0000021606683
 20
95.50000142306089
 30
0.0
 11
145.0000021606683
 21
78.12850107365012
 31
0.0
  0
LINE
  5
4BFA
330
21CC
100
AcDbEntity
  8
0
  6
Continuous
100
AcDbLine
 10
157.0000023394823
 20
95.50000142306089
 30
0.0
 11
157.0000023394823
 21
68.63353872893322
 31
0.0
  0
LINE
  5
4BFB
330
21CC
100
AcDbEntity
  8
0
  6
Continuous
100
AcDbLine
 10
145.0000021606683
 20
95.50000142306089
 30
0.0
 11
157.0000023394823
 21
95.50000142306089
 31
0.0
  0
LINE
  5
4BFC
330
21CC
100
AcDbEntity
  8
0
  6
Continuous
100
AcDbLine
 10
139.5000020787119
 20
84.25000125542283
 30
0.0
 11
139.5000020787119
 21
90.75000135228037
 31
0.0
  0
ARC
  5
4BFD
330
21CC
100
AcDbEntity
  8
0
  6
Continuous
100
AcDbCircle
 10
147.1479971877931
 20
84.25000125542283
 30
0.0
 40
7.647994632244027
100
AcDbArc
 50
154.8526281831849
 51
205.1473681743535
  0
ARC
  5
4BFE
330
21CC
100
AcDbEntity
  8
0
  6
Continuous
100
AcDbCircle
 10
147.1479971877931
 20
90.75000135228037
 30
0.0
 40
7.647994632244027
100
AcDbArc
 50
154.8526281831849
 51
205.1473681743535
  0
LINE
  5
4BFF
330
21CC
100
AcDbEntity
  8
0
  6
Continuous
100
AcDbLine
 10
140.2248956594599
 20
81.00000120699405
 30
0.0
 11
145.0000021606683
 21
81.00000120699405
 31
0.0
  0
LINE
  5
4C00
330
21CC
100
AcDbEntity
  8
0
  6
Continuous
100
AcDbLine
 10
140.2248956594599
 20
87.5000013038516
 30
0.0
 11
145.0000021606683
 21
87.5000013038516
 31
0.0
  0
LINE
  5
4C01
330
21CC
100
AcDbEntity
  8
0
  6
Continuous
100
AcDbLine
 10
140.2248956594599
 20
94.00000140070915
 30
0.0
 11
145.0000021606683
 21
94.00000140070915
 31
0.0
  0
LINE
  5
4C02
330
21CC
100
AcDbEntity
  8
0
  6
Continuous
100
AcDbLine
 10
163.0000024288892
 20
95.50000142306089
 30
0.0
 11
163.0000024288892
 21
68.63353872893322
 31
0.0
  0
LINE
  5
4C03
330
21CC
100
AcDbEntity
  8
0
  6
Continuous
100
AcDbLine
 10
175.0000026077032
 20
95.50000142306089
 30
0.0
 11
175.0000026077032
 21
78.12850107365012
 31
0.0
  0
LINE
  5
4C04
330
21CC
100
AcDbEntity
  8
0
  6
Continuous
100
AcDbLine
 10
189.0000028163194
 20
84.50000124424695
 30
0.0
 11
183.500002734363
 21
84.50000124424695
 31
0.0
  0
LINE
  5
4C05
330
21CC
100
AcDbEntity
  8
0
  6
Continuous
100
AcDbLine
 10
189.0000028163194
 20
90.50000136345625
 30
0.0
 11
183.500002734363
 21
90.50000136345625
 31
0.0
  0
LINE
  5
4C06
330
21CC
100
AcDbEntity
  8
0
  6
Continuous
100
AcDbLine
 10
188.0000028163194
 20
83.50000124424695
 30
0.0
 11
183.500002734363
 21
83.50000124424695
 31
0.0
  0
LINE
  5
4C07
330
21CC
100
AcDbEntity
  8
0
  6
Continuous
100
AcDbLine
 10
188.0000028163194
 20
91.50000136345624
 30
0.0
 11
183.500002734363
 21
91.50000136345624
 31
0.0
  0
LINE
  5
4C08
330
21CC
100
AcDbEntity
  8
0
  6
Continuous
100
AcDbLine
 10
182.5000027194619
 20
93.50000139325857
 30
0.0
 11
181.5000027045607
 21
93.50000139325857
 31
0.0
  0
LINE
  5
4C09
330
21CC
100
AcDbEntity
  8
0
  6
Continuous
100
AcDbLine
 10
181.5000027045607
 20
94.00000140070915
 30
0.0
 11
175.0000026077032
 21
94.00000140070915
 31
0.0
  0
ARC
  5
4C0A
330
21CC
100
AcDbEntity
  8
0
  6
Continuous
100
AcDbCircle
 10
182.5000027194619
 20
92.50000137835741
 30
0.0
 40
1.00000001490116
100
AcDbArc
 50
359.9999949910365
 51
89.99999567427954
  0
LINE
  5
4C0B
330
21CC
100
AcDbEntity
  8
0
  6
Continuous
100
AcDbLine
 10
181.5000027045607
 20
81.00000120699405
 30
0.0
 11
175.0000026077032
 21
81.00000120699405
 31
0.0
  0
LINE
  5
4C0C
330
21CC
100
AcDbEntity
  8
0
  6
Continuous
100
AcDbLine
 10
180.7751091238128
 20
87.5000013038516
 30
0.0
 11
175.7248961884513
 21
87.5000013038516
 31
0.0
  0
LINE
  5
4C0D
330
21CC
100
AcDbEntity
  8
0
  6
Continuous
100
AcDbLine
 10
182.5000027194619
 20
81.50000121444463
 30
0.0
 11
181.5000027045607
 21
81.50000121444463
 31
0.0
  0
ARC
  5
4C0E
330
21CC
100
AcDbEntity
  8
0
  6
Continuous
100
AcDbCircle
 10
182.6479977167844
 20
84.25000125542283
 30
0.0
 40
7.647995109081192
100
AcDbArc
 50
154.8526281831849
 51
205.1473681743535
  0
ARC
  5
4C0F
330
21CC
100
AcDbEntity
  8
0
  6
Continuous
100
AcDbCircle
 10
173.8520075954795
 20
84.25000125542283
 30
0.0
 40
7.647995109081192
100
AcDbArc
 50
334.8526317119531
 51
25.14737170312175
  0
ARC
  5
4C10
330
21CC
100
AcDbEntity
  8
0
  6
Continuous
100
AcDbCircle
 10
182.5000027194619
 20
82.50000122934579
 30
0.0
 40
1.00000001490116
100
AcDbArc
 50
270.0000043257074
 51
0.0000050089374039
  0
LINE
  5
4C11
330
21CC
100
AcDbEntity
  8
0
  6
Continuous
100
AcDbLine
 10
181.5000027045607
 20
94.00000140070915
 30
0.0
 11
181.5000027045607
 21
81.00000120699405
 31
0.0
  0
LINE
  5
4C12
330
21CC
100
AcDbEntity
  8
0
  6
Continuous
100
AcDbLine
 10
183.500002734363
 20
82.50000122934579
 30
0.0
 11
183.500002734363
 21
92.50000137835741
 31
0.0
  0
ARC
  5
4C13
330
21CC
100
AcDbEntity
  8
0
  6
Continuous
100
AcDbCircle
 10
182.6479977167844
 20
90.75000135228037
 30
0.0
 40
7.647995109081192
100
AcDbArc
 50
154.8526281831849
 51
205.1473681743535
  0
ARC
  5
4C14
330
21CC
100
AcDbEntity
  8
0
  6
Continuous
100
AcDbCircle
 10
173.8520075954795
 20
90.75000135228037
 30
0.0
 40
7.647995109081192
100
AcDbArc
 50
334.852624881777
 51
25.14737170312175
  0
LINE
  5
4C15
330
21CC
100
AcDbEntity
  8
0
  6
Continuous
100
AcDbLine
 10
175.0000026077032
 20
95.50000142306089
 30
0.0
 11
163.0000024288892
 21
95.50000142306089
 31
0.0
  0
LINE
  5
4C16
330
21CC
100
AcDbEntity
  8
0
  6
Continuous
100
AcDbLine
 10
189.0000028163194
 20
84.50000124424695
 30
0.0
 11
188.0000028163194
 21
83.50000124424695
 31
0.0
  0
LINE
  5
4C17
330
21CC
100
AcDbEntity
  8
0
  6
Continuous
100
AcDbLine
 10
188.0000028163194
 20
91.50000136345624
 30
0.0
 11
189.0000028163194
 21
90.50000136345625
 31
0.0
  0
LINE
  5
4C18
330
21CC
100
AcDbEntity
  8
0
  6
Continuous
100
AcDbLine
 10
189.0000028163194
 20
84.50000124424695
 30
0.0
 11
189.0000028163194
 21
90.50000136345625
 31
0.0
  0
LINE
  5
4C19
330
21CC
100
AcDbEntity
  8
0
  6
Continuous
100
AcDbLine
 10
188.0000028163194
 20
83.50000124424695
 30
0.0
 11
188.0000028163194
 21
91.50000136345624
 31
0.0
  0
ARC
  5
4C1A
330
21CC
100
AcDbEntity
  8
0
  6
Continuous
100
AcDbCircle
 10
299.0908858044576
 20
-0.0000000000029559
 30
0.0
 40
90.66024915367735
100
AcDbArc
 50
145.9211126456706
 51
147.8980895422535
  0
ARC
  5
4C1B
330
21CC
100
AcDbEntity
  8
0
  6
Continuous
100
AcDbCircle
 10
160.0000023841882
 20
0.0000000000059117
 30
0.0
 40
82.82216579132152
100
AcDbArc
 50
38.49737970874986
 51
77.95913711689415
  0
ARC
  5
4C1C
330
21CC
100
AcDbEntity
  8
0
  6
Continuous
100
AcDbCircle
 10
160.0000023841857
 20
-0.0000000000011369
 30
0.0
 40
82.82216579132667
100
AcDbArc
 50
218.497379708759
 51
257.9591371168941
  0
ARC
  5
4C1D
330
21CC
100
AcDbEntity
  8
0
  6
Continuous
100
AcDbCircle
 10
160.0000023841837
 20
0.0000000000050022
 30
0.0
 40
82.82216579132255
100
AcDbArc
 50
102.0408628831058
 51
141.5026202912409
  0
ARC
  5
4C1E
330
21CC
100
AcDbEntity
  8
0
  6
Continuous
100
AcDbCircle
 10
160.0000023841857
 20
0.0
 30
0.0
 40
82.82216579132786
100
AcDbArc
 50
87.92416741288056
 51
92.07583258711943
  0
ARC
  5
4C1F
330
21CC
100
AcDbEntity
  8
0
  6
Continuous
100
AcDbCircle
 10
226.3849359710231
 20
-52.80000380873684
 30
0.0
 40
2.0
100
AcDbArc
 50
90.0
 51
141.5026202912409
  0
ARC
  5
4C20
330
21CC
100
AcDbEntity
  8
0
  6
Continuous
100
AcDbCircle
 10
226.3849359710229
 20
52.80000380873662
 30
0.0
 40
2.0
100
AcDbArc
 50
218.497379708759
 51
270.0
  0
ARC
  5
4C21
330
21CC
100
AcDbEntity
  8
0
  6
Continuous
100
AcDbCircle
 10
93.61506879734861
 20
52.80000380873684
 30
0.0
 40
2.0
100
AcDbArc
 50
270.0
 51
321.5026202912409
  0
ARC
  5
4C22
330
21CC
100
AcDbEntity
  8
0
  6
Continuous
100
AcDbCircle
 10
93.61506879734838
 20
-52.80000380873684
 30
0.0
 40
2.0
100
AcDbArc
 50
38.49737970875903
 51
90.0
  0
ARC
  5
4C23
330
21CC
100
AcDbEntity
  8
0
  6
Continuous
100
AcDbCircle
 10
160.0000023841857
 20
-0.0000000000011369
 30
0.0
 40
82.82216579132667
100
AcDbArc
 50
267.9241674128805
 51
272.0758325871194
  0
ARC
  5
4C24
330
21CC
100
AcDbEntity
  8
0
  6
Continuous
100
AcDbCircle
 10
160.0000023841857
 20
-0.0000000000011369
 30
0.0
 40
82.82216579132667
100
AcDbArc
 50
282.0408628831058
 51
321.5026202912409
  0
LINE
  5
4C25
330
21CC
100
AcDbEntity
  8
0
  6
Continuous
100
AcDbLine
 10
0.0
 20
-309.6543279384973
 30
0.0
 11
2.289833969432265
 21
-309.6543279384977
 31
0.0
  0
LINE
  5
4C26
330
21CC
100
AcDbEntity
  8
0
  6
Continuous
100
AcDbLine
 10
3.041588066060967
 20
-309.1279440531579
 30
0.0
 11
5.537570872963897
 21
-302.270287651846
 31
0.0
  0
LINE
  5
4C27
330
21CC
100
AcDbEntity
  8
0
  6
Continuous
100
AcDbLine
 10
6.269803241833642
 20
-300.1823177858009
 30
0.0
 11
6.269803241833642
 21
-200.1263380911936
 31
0.0
  0
LINE
  5
4C28
330
21CC
100
AcDbEntity
  8
0
  6
Continuous
100
AcDbLine
 10
2.849999999999909
 20
-306.7305235383346
 30
0.0
 11
2.849999999999909
 21
-193.5781323386597
 31
0.0
  0
ARC
  5
4C29
330
21CC
100
AcDbEntity
  8
0
  6
Continuous
100
AcDbCircle
 10
7.416956114535651
 20
-302.954327938497
 30
0.0
 40
2.0
100
AcDbArc
 50
90.0
 51
160.0000000000107
  0
ARC
  5
4C2A
330
21CC
100
AcDbEntity
  8
0
  6
Continuous
100
AcDbCircle
 10
2.289833969432265
 20
-308.8543279384976
 30
0.0
 40
0.8
100
AcDbArc
 50
270.0
 51
340.0000000000107
  0
ARC
  5
4C2B
330
21CC
100
AcDbEntity
  8
0
  6
Continuous
100
AcDbCircle
 10
144.0000021606683
 20
-78.12850107365034
 30
0.0
 40
1.0
100
AcDbArc
 50
0.0
 51
78.42637571971953
  0
ARC
  5
4C2C
330
21CC
100
AcDbEntity
  8
0
  6
Continuous
100
AcDbCircle
 10
176.0000026077032
 20
-78.12850107365034
 30
0.0
 40
1.0
100
AcDbArc
 50
101.5736242802804
 51
180.0
  0
ARC
  5
4C2D
330
21CC
100
AcDbEntity
  8
0
  6
Continuous
100
AcDbCircle
 10
164.0000024288892
 20
-68.63353872893345
 30
0.0
 40
1.0
100
AcDbArc
 50
93.33545624468413
 51
180.0
  0
ARC
  5
4C2E
330
21CC
100
AcDbEntity
  8
0
  6
Continuous
100
AcDbCircle
 10
156.0000023394823
 20
-68.63353872893345
 30
0.0
 40
1.0
100
AcDbArc
 50
0.0
 51
86.66454375531584
  0
ARC
  5
4C2F
330
21CC
100
AcDbEntity
  8
0
  6
Continuous
100
AcDbCircle
 10
144.0000021606683
 20
78.12850107365012
 30
0.0
 40
1.0
100
AcDbArc
 50
281.5736242802804
 51
0.0
  0
ARC
  5
4C30
330
21CC
100
AcDbEntity
  8
0
  6
Continuous
100
AcDbCircle
 10
156.0000023394823
 20
68.63353872893322
 30
0.0
 40
1.0
100
AcDbArc
 50
273.335456244684
 51
0.0
  0
ARC
  5
4C31
330
21CC
100
AcDbEntity
  8
0
  6
Continuous
100
AcDbCircle
 10
164.0000024288892
 20
68.63353872893322
 30
0.0
 40
1.0
100
AcDbArc
 50
180.0
 51
266.6645437553158
  0
ARC
  5
4C32
330
21CC
100
AcDbEntity
  8
0
  6
Continuous
100
AcDbCircle
 10
176.0000026077032
 20
78.12850107365012
 30
0.0
 40
1.0
100
AcDbArc
 50
180.0
 51
258.4263757197195
  0
LINE
  5
4C33
330
21CC
100
AcDbEntity
  8
0
  6
Continuous
100
AcDbLine
 10
0.0
 20
-190.6543279384973
 30
0.0
 11
0.0
 21
-309.6543279384973
 31
0.0
  0
LINE
  5
4C34
330
21CC
100
AcDbEntity
  8
0
  6
Continuous
100
AcDbLine
 10
3.041588066060967
 20
-191.1807118238366
 30
0.0
 11
5.537570872963897
 21
-198.0383682251488
 31
0.0
  0
LINE
  5
4C35
330
21CC
100
AcDbEntity
  8
0
  6
Continuous
100
AcDbLine
 10
0.0
 20
-190.6543279384973
 30
0.0
 11
2.289833969432265
 21
-190.6543279384971
 31
0.0
  0
ARC
  5
4C36
330
21CC
100
AcDbEntity
  8
0
  6
Continuous
100
AcDbCircle
 10
2.289833969432265
 20
-191.4543279384972
 30
0.0
 40
0.8
100
AcDbArc
 50
19.99999999998923
 51
90.0
  0
ARC
  5
4C37
330
21CC
100
AcDbEntity
  8
0
  6
Continuous
100
AcDbCircle
 10
7.416956114535651
 20
-197.3543279384973
 30
0.0
 40
2.0
100
AcDbArc
 50
199.9999999999892
 51
270.0
  0
LINE
  5
4C38
330
21CC
100
AcDbEntity
  8
0
  6
Continuous
100
AcDbLine
 10
2.849999999999909
 20
-56.57619559983777
 30
0.0
 11
2.849999999999909
 21
56.57619559983732
 31
0.0
  0
LINE
  5
4C39
330
21CC
100
AcDbEntity
  8
0
  6
Continuous
100
AcDbLine
 10
6.269803241833642
 20
-50.02798984730384
 30
0.0
 11
6.269803241833642
 21
50.02798984730339
 31
0.0
  0
LINE
  5
4C3A
330
21CC
100
AcDbEntity
  8
0
  6
Continuous
100
AcDbLine
 10
0.0
 20
59.49999999999977
 30
0.0
 11
0.0
 21
-59.50000000000023
 31
0.0
  0
LINE
  5
4C3B
330
21CC
100
AcDbEntity
  8
0
  6
Continuous
100
AcDbLine
 10
3.041588066060967
 20
-58.9736161146609
 30
0.0
 11
5.537570872963897
 21
-52.11595971334872
 31
0.0
  0
ARC
  5
4C3C
330
21CC
100
AcDbEntity
  8
0
  6
Continuous
100
AcDbCircle
 10
2.289833969432265
 20
-58.7000000000005
 30
0.0
 40
0.8
100
AcDbArc
 50
270.0
 51
340.0000000000107
  0
LINE
  5
4C3D
330
21CC
100
AcDbEntity
  8
0
  6
Continuous
100
AcDbLine
 10
0.0
 20
-59.50000000000023
 30
0.0
 11
2.289833969432265
 21
-59.50000000000023
 31
0.0
  0
ARC
  5
4C3E
330
21CC
100
AcDbEntity
  8
0
  6
Continuous
100
AcDbCircle
 10
7.416956114535651
 20
-52.79999999999995
 30
0.0
 40
2.0
100
AcDbArc
 50
90.0
 51
160.0000000000107
  0
ARC
  5
4C3F
330
21CC
100
AcDbEntity
  8
0
  6
Continuous
100
AcDbCircle
 10
7.416956114535651
 20
52.79999999999972
 30
0.0
 40
2.0
100
AcDbArc
 50
199.9999999999892
 51
270.0
  0
ARC
  5
4C40
330
21CC
100
AcDbEntity
  8
0
  6
Continuous
100
AcDbCircle
 10
2.289833969432265
 20
58.69999999999982
 30
0.0
 40
0.8
100
AcDbArc
 50
19.99999999998923
 51
90.0
  0
LINE
  5
4C41
330
21CC
100
AcDbEntity
  8
0
  6
Continuous
100
AcDbLine
 10
0.0
 20
59.49999999999977
 30
0.0
 11
2.289833969432265
 21
59.5
 31
0.0
  0
LINE
  5
4C42
330
21CC
100
AcDbEntity
  8
0
  6
Continuous
100
AcDbLine
 10
3.041588066060967
 20
58.97361611466044
 30
0.0
 11
5.537570872963897
 21
52.11595971334827
 31
0.0
  0
LINE
  5
4C43
330
21CC
100
AcDbEntity
  8
0
  6
Continuous
100
AcDbLine
 10
316.9584167023106
 20
58.97361611466044
 30
0.0
 11
314.4624338954077
 21
52.11595971334827
 31
0.0
  0
LINE
  5
4C44
330
21CC
100
AcDbEntity
  8
0
  6
Continuous
100
AcDbLine
 10
320.0000047683715
 20
59.49999999999977
 30
0.0
 11
320.0000047683715
 21
-59.50000000000023
 31
0.0
  0
LINE
  5
4C45
330
21CC
100
AcDbEntity
  8
0
  6
Continuous
100
AcDbLine
 10
313.7302015265379
 20
-50.02798984730384
 30
0.0
 11
313.7302015265379
 21
50.02798984730339
 31
0.0
  0
LINE
  5
4C46
330
21CC
100
AcDbEntity
  8
0
  6
Continuous
100
AcDbLine
 10
317.1500047683716
 20
-56.57619559983777
 30
0.0
 11
317.1500047683716
 21
56.57619559983732
 31
0.0
  0
ARC
  5
4C47
330
21CC
100
AcDbEntity
  8
0
  6
Continuous
100
AcDbCircle
 10
312.5830486538359
 20
-52.79999999999995
 30
0.0
 40
2.0
100
AcDbArc
 50
19.99999999998923
 51
90.0
  0
LINE
  5
4C48
330
21CC
100
AcDbEntity
  8
0
  6
Continuous
100
AcDbLine
 10
320.0000047683715
 20
-59.50000000000023
 30
0.0
 11
317.7101707989393
 21
-59.50000000000023
 31
0.0
  0
ARC
  5
4C49
330
21CC
100
AcDbEntity
  8
0
  6
Continuous
100
AcDbCircle
 10
317.7101707989393
 20
-58.7000000000005
 30
0.0
 40
0.8
100
AcDbArc
 50
199.9999999999892
 51
270.0
  0
LINE
  5
4C4A
330
21CC
100
AcDbEntity
  8
0
  6
Continuous
100
AcDbLine
 10
316.9584167023106
 20
-58.9736161146609
 30
0.0
 11
314.4624338954077
 21
-52.11595971334872
 31
0.0
  0
ARC
  5
4C4B
330
21CC
100
AcDbEntity
  8
0
  6
Continuous
100
AcDbCircle
 10
312.5830486538359
 20
52.79999999999972
 30
0.0
 40
2.0
100
AcDbArc
 50
270.0
 51
340.0000000000107
  0
LINE
  5
4C4C
330
21CC
100
AcDbEntity
  8
0
  6
Continuous
100
AcDbLine
 10
320.0000047683715
 20
59.49999999999977
 30
0.0
 11
317.7101707989393
 21
59.5
 31
0.0
  0
ARC
  5
4C4D
330
21CC
100
AcDbEntity
  8
0
  6
Continuous
100
AcDbCircle
 10
317.7101707989393
 20
58.69999999999982
 30
0.0
 40
0.8
100
AcDbArc
 50
90.0
 51
160.0000000000107
  0
LINE
  5
4D97
330
21CC
100
AcDbEntity
  8
0
  6
Continuous
100
AcDbLine
 10
238.7500023841862
 20
-182.3800574367644
 30
0.0
 11
181.500002384186
 21
-182.3800574367644
 31
0.0
  0
LINE
  5
4D98
330
21CC
100
AcDbEntity
  8
0
  6
Continuous
100
AcDbLine
 10
238.7500023841857
 20
-194.3285904949309
 30
0.0
 11
181.500002384186
 21
-194.3285904949309
 31
0.0
  0
LINE
  5
4D99
330
21CC
100
AcDbEntity
  8
0
  6
Continuous
100
AcDbLine
 10
164.000002384186
 20
-197.6043239658477
 30
0.0
 11
229.7500023841858
 21
-197.6043239658477
 31
0.0
  0
LINE
  5
4D9A
330
21CC
100
AcDbEntity
  8
0
  6
Continuous
100
AcDbLine
 10
164.000002384186
 20
-179.1043239658477
 30
0.0
 11
229.7500023841862
 21
-179.1043239658477
 31
0.0
  0
LINE
  5
4D9B
330
21CC
100
AcDbEntity
  8
0
  6
Continuous
100
AcDbLine
 10
238.7500023841857
 20
-305.9800653820639
 30
0.0
 11
181.500002384186
 21
-305.9800653820639
 31
0.0
  0
LINE
  5
4D9C
330
21CC
100
AcDbEntity
  8
0
  6
Continuous
100
AcDbLine
 10
238.7500023841862
 20
-317.9285984402304
 30
0.0
 11
181.500002384186
 21
-317.9285984402304
 31
0.0
  0
LINE
  5
4D9D
330
21CC
100
AcDbEntity
  8
0
  6
Continuous
100
AcDbLine
 10
164.000002384186
 20
-321.2043319111471
 30
0.0
 11
229.7500023841862
 21
-321.2043319111471
 31
0.0
  0
LINE
  5
4D9E
330
21CC
100
AcDbEntity
  8
0
  6
Continuous
100
AcDbLine
 10
164.000002384186
 20
-302.7043319111471
 30
0.0
 11
229.7500023841858
 21
-302.7043319111471
 31
0.0
  0
ARC
  5
4D9F
330
21CC
100
AcDbEntity
  8
0
  6
Continuous
100
AcDbCircle
 10
226.0000033676624
 20
-302.9543317770367
 30
0.0
 40
2.000000029802321
100
AcDbArc
 50
90.00000432570741
 51
172.8192445406335
  0
LINE
  5
4DA0
330
21CC
100
AcDbEntity
  8
0
  6
Continuous
100
AcDbLine
 10
229.7500035007808
 20
-302.704333473559
 30
0.0
 11
238.7500021658306
 21
-305.9800652133717
 31
0.0
  0
LINE
  5
4DA1
330
21CC
100
AcDbEntity
  8
0
  6
Continuous
100
AcDbLine
 10
229.7500035007817
 20
-321.2043303487344
 30
0.0
 11
238.7500021658313
 21
-317.9285986089225
 31
0.0
  0
LINE
  5
4DA2
330
21CC
100
AcDbEntity
  8
0
  6
Continuous
100
AcDbLine
 10
238.750002384186
 20
-317.928598440229
 30
0.0
 11
238.750002384186
 21
-305.9800653820625
 31
0.0
  0
LINE
  5
4DA3
330
21CC
100
AcDbEntity
  8
0
  6
Continuous
100
AcDbLine
 10
226.0000033676624
 20
-199.3543241297604
 30
0.0
 11
312.5869518491317
 21
-199.3543241297604
 31
0.0
  0
LINE
  5
4DA4
330
21CC
100
AcDbEntity
  8
0
  6
Continuous
100
AcDbLine
 10
226.0000033676624
 20
-300.9543317472343
 30
0.0
 11
312.5869518491317
 21
-300.9543317472343
 31
0.0
  0
ARC
  5
4DA5
330
21CC
100
AcDbEntity
  8
0
  6
Continuous
100
AcDbCircle
 10
299.0908858044576
 20
-250.1543279385002
 30
0.0
 40
90.66024915367735
100
AcDbArc
 50
147.3095896211288
 51
212.6904103788711
  0
LINE
  5
4DA6
330
21CC
100
AcDbEntity
  8
0
  6
Continuous
100
AcDbLine
 10
229.7500035007808
 20
-197.6043224034354
 30
0.0
 11
238.7500021658306
 21
-194.3285906636231
 31
0.0
  0
ARC
  5
4DA7
330
21CC
100
AcDbEntity
  8
0
  6
Continuous
100
AcDbCircle
 10
226.0000033676624
 20
-197.3543240999581
 30
0.0
 40
2.000000029802321
100
AcDbArc
 50
187.1807554593664
 51
269.9999956742925
  0
LINE
  5
4DA8
330
21CC
100
AcDbEntity
  8
0
  6
Continuous
100
AcDbLine
 10
229.7500035007817
 20
-179.1043255282602
 30
0.0
 11
238.7500021658313
 21
-182.3800572680722
 31
0.0
  0
LINE
  5
4DA9
330
21CC
100
AcDbEntity
  8
0
  6
Continuous
100
AcDbLine
 10
238.750002384186
 20
-182.3800574367655
 30
0.0
 11
238.750002384186
 21
-194.3285904949321
 31
0.0
  0
LINE
  5
4DAA
330
21CC
100
AcDbEntity
  8
0
  6
Continuous
100
AcDbLine
 10
164.000002384186
 20
-179.1043239658477
 30
0.0
 11
164.000002384186
 21
-197.6043239658477
 31
0.0
  0
LINE
  5
4DAB
330
21CC
100
AcDbEntity
  8
0
  6
Continuous
100
AcDbLine
 10
175.0000026077032
 20
-180.3543239658477
 30
0.0
 11
164.000002384186
 21
-180.3543239658477
 31
0.0
  0
LINE
  5
4DAC
330
21CC
100
AcDbEntity
  8
0
  6
Continuous
100
AcDbLine
 10
175.0000026077032
 20
-196.3543239658477
 30
0.0
 11
164.000002384186
 21
-196.3543239658477
 31
0.0
  0
LINE
  5
4DAD
330
21CC
100
AcDbEntity
  8
0
  6
Continuous
100
AcDbLine
 10
320.0000047683715
 20
-309.6543279384973
 30
0.0
 11
317.7101707989393
 21
-309.6543279384977
 31
0.0
  0
LINE
  5
4DAE
330
21CC
100
AcDbEntity
  8
0
  6
Continuous
100
AcDbLine
 10
316.9584167023106
 20
-309.1279440531579
 30
0.0
 11
314.4624338954077
 21
-302.270287651846
 31
0.0
  0
LINE
  5
4DAF
330
21CC
100
AcDbEntity
  8
0
  6
Continuous
100
AcDbLine
 10
313.7302015265379
 20
-300.1823177858009
 30
0.0
 11
313.7302015265379
 21
-200.1263380911936
 31
0.0
  0
LINE
  5
4DB0
330
21CC
100
AcDbEntity
  8
0
  6
Continuous
100
AcDbLine
 10
317.1500047683716
 20
-306.7305235383346
 30
0.0
 11
317.1500047683716
 21
-193.5781323386597
 31
0.0
  0
ARC
  5
4DB1
330
21CC
100
AcDbEntity
  8
0
  6
Continuous
100
AcDbCircle
 10
312.5830486538359
 20
-302.954327938497
 30
0.0
 40
2.0
100
AcDbArc
 50
19.99999999998923
 51
90.0
  0
ARC
  5
4DB2
330
21CC
100
AcDbEntity
  8
0
  6
Continuous
100
AcDbCircle
 10
317.7101707989393
 20
-308.8543279384976
 30
0.0
 40
0.8
100
AcDbArc
 50
199.9999999999892
 51
270.0
  0
LINE
  5
4DB3
330
21CC
100
AcDbEntity
  8
0
  6
Continuous
100
AcDbLine
 10
320.0000047683715
 20
-190.6543279384973
 30
0.0
 11
320.0000047683715
 21
-309.6543279384973
 31
0.0
  0
LINE
  5
4DB4
330
21CC
100
AcDbEntity
  8
0
  6
Continuous
100
AcDbLine
 10
316.9584167023106
 20
-191.1807118238366
 30
0.0
 11
314.4624338954077
 21
-198.0383682251488
 31
0.0
  0
LINE
  5
4DB5
330
21CC
100
AcDbEntity
  8
0
  6
Continuous
100
AcDbLine
 10
320.0000047683715
 20
-190.6543279384973
 30
0.0
 11
317.7101707989393
 21
-190.6543279384971
 31
0.0
  0
ARC
  5
4DB6
330
21CC
100
AcDbEntity
  8
0
  6
Continuous
100
AcDbCircle
 10
317.7101707989393
 20
-191.4543279384972
 30
0.0
 40
0.8
100
AcDbArc
 50
90.0
 51
160.0000000000107
  0
ARC
  5
4DB7
330
21CC
100
AcDbEntity
  8
0
  6
Continuous
100
AcDbCircle
 10
312.5830486538359
 20
-197.3543279384973
 30
0.0
 40
2.0
100
AcDbArc
 50
270.0
 51
340.0000000000107
  0
LINE
  5
4DF2
330
21CC
100
AcDbEntity
  8
0
  6
Continuous
100
AcDbLine
 10
175.0000026077032
 20
-180.3543239658477
 30
0.0
 11
175.0000026077032
 21
-196.3543239658477
 31
0.0
  0
LINE
  5
4DF3
330
21CC
100
AcDbEntity
  8
0
  6
Continuous
100
AcDbLine
 10
181.5000026077031
 20
-194.6043239658474
 30
0.0
 11
181.5000026077031
 21
-182.1043239658477
 31
0.0
  0
ARC
  5
4DF4
330
21CC
100
AcDbEntity
  8
0
  6
Continuous
100
AcDbCircle
 10
177.5251109451055
 20
-193.9834864658475
 30
0.0
 40
3.752776145935058
100
AcDbArc
 50
330.0000105759246
 51
29.99998942407543
  0
ARC
  5
4DF5
330
21CC
100
AcDbEntity
  8
0
  6
Continuous
100
AcDbCircle
 10
178.9748942703008
 20
-193.9834864658475
 30
0.0
 40
3.752776145935058
100
AcDbArc
 50
150.0000105759245
 51
209.9999894240754
  0
ARC
  5
4DF6
330
21CC
100
AcDbEntity
  8
0
  6
Continuous
100
AcDbCircle
 10
171.4234721511602
 20
-188.3543239658477
 30
0.0
 40
10.07653045654297
100
AcDbArc
 50
338.1346069180819
 51
21.86539308191804
  0
ARC
  5
4DF7
330
21CC
100
AcDbEntity
  8
0
  6
Continuous
100
AcDbCircle
 10
177.5251109451055
 20
-182.7251614658475
 30
0.0
 40
3.752776145935058
100
AcDbArc
 50
330.0000105759246
 51
29.99998942407543
  0
LINE
  5
4DF8
330
21CC
100
AcDbEntity
  8
0
  6
Continuous
100
AcDbLine
 10
180.775110815203
 20
-180.8487739658476
 30
0.0
 11
181.5000026077031
 21
-182.1043239658477
 31
0.0
  0
LINE
  5
4DF9
330
21CC
100
AcDbEntity
  8
0
  6
Continuous
100
AcDbLine
 10
175.7248944002033
 20
-180.8487739658476
 30
0.0
 11
175.0000026077032
 21
-182.1043239658477
 31
0.0
  0
ARC
  5
4DFA
330
21CC
100
AcDbEntity
  8
0
  6
Continuous
100
AcDbCircle
 10
178.9748942703008
 20
-182.7251614658475
 30
0.0
 40
3.752776145935058
100
AcDbArc
 50
150.0000105759245
 51
209.9999894240754
  0
LINE
  5
4DFB
330
21CC
100
AcDbEntity
  8
0
  6
Continuous
100
AcDbLine
 10
175.7248944624021
 20
-180.8487739658476
 30
0.0
 11
180.775110815203
 21
-180.8487739658476
 31
0.0
  0
ARC
  5
4DFC
330
21CC
100
AcDbEntity
  8
0
  6
Continuous
100
AcDbCircle
 10
185.0765330642461
 20
-188.3543239658477
 30
0.0
 40
10.07653045654297
100
AcDbArc
 50
158.1346069180819
 51
201.865393081889
  0
LINE
  5
4DFD
330
21CC
100
AcDbEntity
  8
0
  6
Continuous
100
AcDbLine
 10
175.7248944624021
 20
-184.6015489658477
 30
0.0
 11
180.775110815203
 21
-184.6015489658475
 31
0.0
  0
LINE
  5
4DFE
330
21CC
100
AcDbEntity
  8
0
  6
Continuous
100
AcDbLine
 10
175.7248943928146
 20
-192.1070989658476
 30
0.0
 11
180.775110815203
 21
-192.1070989658476
 31
0.0
  0
LINE
  5
4DFF
330
21CC
100
AcDbEntity
  8
0
  6
Continuous
100
AcDbLine
 10
180.775110815203
 20
-195.8598739658475
 30
0.0
 11
181.5000026077031
 21
-194.6043239658474
 31
0.0
  0
LINE
  5
4E00
330
21CC
100
AcDbEntity
  8
0
  6
Continuous
100
AcDbLine
 10
175.7248944624021
 20
-195.8598739658475
 30
0.0
 11
180.775110815203
 21
-195.8598739658475
 31
0.0
  0
LINE
  5
4E01
330
21CC
100
AcDbEntity
  8
0
  6
Continuous
100
AcDbLine
 10
175.7248944002033
 20
-195.8598739658475
 30
0.0
 11
175.0000026077032
 21
-194.6043239658474
 31
0.0
  0
LINE
  5
4E02
330
21CC
100
AcDbEntity
  8
0
  6
Continuous
100
AcDbLine
 10
188.0000027194619
 20
-192.3543240254523
 30
0.0
 11
183.5000026375055
 21
-192.3543240254523
 31
0.0
  0
LINE
  5
4E03
330
21CC
100
AcDbEntity
  8
0
  6
Continuous
100
AcDbLine
 10
183.5000026375055
 20
-193.3543240403535
 30
0.0
 11
183.5000026375055
 21
-183.3543238913419
 31
0.0
  0
LINE
  5
4E04
330
21CC
100
AcDbEntity
  8
0
  6
Continuous
100
AcDbLine
 10
189.0000027194619
 20
-191.3543240254523
 30
0.0
 11
189.0000027194619
 21
-185.354323906243
 31
0.0
  0
LINE
  5
4E05
330
21CC
100
AcDbEntity
  8
0
  6
Continuous
100
AcDbLine
 10
182.5000026226043
 20
-194.3543240552546
 30
0.0
 11
181.5000026077031
 21
-194.3543240552546
 31
0.0
  0
LINE
  5
4E06
330
21CC
100
AcDbEntity
  8
0
  6
Continuous
100
AcDbLine
 10
182.5000026226043
 20
-182.3543238764407
 30
0.0
 11
181.5000026077031
 21
-182.3543238764407
 31
0.0
  0
LINE
  5
4E07
330
21CC
100
AcDbEntity
  8
0
  6
Continuous
100
AcDbLine
 10
188.0000027194619
 20
-184.354323906243
 30
0.0
 11
183.5000026375055
 21
-184.354323906243
 31
0.0
  0
ARC
  5
4E08
330
21CC
100
AcDbEntity
  8
0
  6
Continuous
100
AcDbCircle
 10
182.5000026226043
 20
-193.3543240403535
 30
0.0
 40
1.00000001490116
100
AcDbArc
 50
270.0000043257074
 51
0.000005008963459
  0
ARC
  5
4E09
330
21CC
100
AcDbEntity
  8
0
  6
Continuous
100
AcDbCircle
 10
182.5000026226043
 20
-183.3543238913419
 30
0.0
 40
1.00000001490116
100
AcDbArc
 50
359.9999949910365
 51
89.99999567428604
  0
LINE
  5
4E0A
330
21CC
100
AcDbEntity
  8
0
  6
Continuous
100
AcDbLine
 10
189.0000027194619
 20
-185.354323906243
 30
0.0
 11
183.5000026375055
 21
-185.354323906243
 31
0.0
  0
LINE
  5
4E0B
330
21CC
100
AcDbEntity
  8
0
  6
Continuous
100
AcDbLine
 10
188.0000027194619
 20
-192.3543240254523
 30
0.0
 11
188.0000027194619
 21
-184.354323906243
 31
0.0
  0
LINE
  5
4E0C
330
21CC
100
AcDbEntity
  8
0
  6
Continuous
100
AcDbLine
 10
189.0000027194619
 20
-191.3543240254523
 30
0.0
 11
183.5000026375055
 21
-191.3543240254523
 31
0.0
  0
LINE
  5
4E0D
330
21CC
100
AcDbEntity
  8
0
  6
Continuous
100
AcDbLine
 10
189.0000027194619
 20
-185.354323906243
 30
0.0
 11
188.0000027194619
 21
-184.354323906243
 31
0.0
  0
LINE
  5
4E0E
330
21CC
100
AcDbEntity
  8
0
  6
Continuous
100
AcDbLine
 10
189.0000027194619
 20
-191.3543240254523
 30
0.0
 11
188.0000027194619
 21
-192.3543240254523
 31
0.0
  0
LINE
  5
4E0F
330
21CC
100
AcDbEntity
  8
0
  6
Continuous
100
AcDbLine
 10
156.0000023841855
 20
-321.2043319111471
 30
0.0
 11
156.0000023841855
 21
-302.7043319111471
 31
0.0
  0
LINE
  5
4E10
330
21CC
100
AcDbEntity
  8
0
  6
Continuous
100
AcDbLine
 10
156.0000023841855
 20
-315.9543319111471
 30
0.0
 11
164.000002384186
 21
-315.9543319111471
 31
0.0
  0
LINE
  5
4E11
330
21CC
100
AcDbEntity
  8
0
  6
Continuous
100
AcDbLine
 10
156.0000023841855
 20
-307.9543319111471
 30
0.0
 11
164.000002384186
 21
-307.9543319111471
 31
0.0
  0
ARC
  5
4E12
330
21CC
100
AcDbEntity
  8
0
  6
Continuous
100
AcDbCircle
 10
142.2909624725623
 20
-317.583497083724
 30
0.0
 40
2.790960788726806
100
AcDbArc
 50
137.7544690121693
 51
222.2455346302716
  0
LINE
  5
4E13
330
21CC
100
AcDbEntity
  8
0
  6
Continuous
100
AcDbLine
 10
140.2248957306189
 20
-315.7071087723379
 30
0.0
 11
145.0000021606727
 21
-315.7071087723379
 31
0.0
  0
LINE
  5
4E14
330
21CC
100
AcDbEntity
  8
0
  6
Continuous
100
AcDbLine
 10
140.2248957306189
 20
-319.4598856335287
 30
0.0
 11
145.0000021606727
 21
-319.4598856335287
 31
0.0
  0
ARC
  5
4E15
330
21CC
100
AcDbEntity
  8
0
  6
Continuous
100
AcDbCircle
 10
142.2909624725623
 20
-306.3251667385702
 30
0.0
 40
2.790960788726806
100
AcDbArc
 50
137.7544690121693
 51
222.2455346302716
  0
LINE
  5
4E16
330
21CC
100
AcDbEntity
  8
0
  6
Continuous
100
AcDbLine
 10
140.2248957306189
 20
-308.2015550499563
 30
0.0
 11
145.0000021606727
 21
-308.2015550499563
 31
0.0
  0
LINE
  5
4E17
330
21CC
100
AcDbEntity
  8
0
  6
Continuous
100
AcDbLine
 10
140.2248957306189
 20
-304.4487781887655
 30
0.0
 11
145.0000021606727
 21
-304.4487781887655
 31
0.0
  0
LINE
  5
4E18
330
21CC
100
AcDbEntity
  8
0
  6
Continuous
100
AcDbLine
 10
145.0000021606727
 20
-319.9543319111471
 30
0.0
 11
145.0000021606727
 21
-303.9543319111471
 31
0.0
  0
ARC
  5
4E19
330
21CC
100
AcDbEntity
  8
0
  6
Continuous
100
AcDbCircle
 10
149.5765020996375
 20
-311.9543319111471
 30
0.0
 40
10.07649993896484
100
AcDbArc
 50
158.1345240614574
 51
201.8654795809925
  0
LINE
  5
4E1A
330
21CC
100
AcDbEntity
  8
0
  6
Continuous
100
AcDbLine
 10
139.5000021606726
 20
-317.5834970837236
 30
0.0
 11
139.5000021606726
 21
-306.3251667385697
 31
0.0
  0
LINE
  5
4E1B
330
21CC
100
AcDbEntity
  8
0
  6
Continuous
100
AcDbLine
 10
145.0000021606727
 20
-319.9543319111471
 30
0.0
 11
156.0000023841855
 21
-319.9543319111471
 31
0.0
  0
LINE
  5
4E1C
330
21CC
100
AcDbEntity
  8
0
  6
Continuous
100
AcDbLine
 10
145.0000021606727
 20
-303.9543319111471
 30
0.0
 11
156.0000023841855
 21
-303.9543319111471
 31
0.0
  0
LINE
  5
4E1D
330
21CC
100
AcDbEntity
  8
0
  6
Continuous
100
AcDbLine
 10
164.000002384186
 20
-321.2043319111471
 30
0.0
 11
164.000002384186
 21
-302.7043319111471
 31
0.0
  0
LINE
  5
4E1E
330
21CC
100
AcDbEntity
  8
0
  6
Continuous
100
AcDbLine
 10
175.0000026077032
 20
-319.9543319111471
 30
0.0
 11
164.000002384186
 21
-319.9543319111471
 31
0.0
  0
LINE
  5
4E1F
330
21CC
100
AcDbEntity
  8
0
  6
Continuous
100
AcDbLine
 10
175.0000026077032
 20
-303.9543319111471
 30
0.0
 11
164.000002384186
 21
-303.9543319111471
 31
0.0
  0
LINE
  5
4E20
330
21CC
100
AcDbEntity
  8
0
  6
Continuous
100
AcDbLine
 10
175.0000026077032
 20
-319.9543319111471
 30
0.0
 11
175.0000026077032
 21
-303.9543319111471
 31
0.0
  0
LINE
  5
4E21
330
21CC
100
AcDbEntity
  8
0
  6
Continuous
100
AcDbLine
 10
181.5000026077031
 20
-305.7043319111471
 30
0.0
 11
181.5000026077031
 21
-318.2043319111471
 31
0.0
  0
ARC
  5
4E22
330
21CC
100
AcDbEntity
  8
0
  6
Continuous
100
AcDbCircle
 10
177.5251109451055
 20
-306.3251694111468
 30
0.0
 40
3.752776145935058
100
AcDbArc
 50
330.0000105759246
 51
29.99998942407543
  0
ARC
  5
4E23
330
21CC
100
AcDbEntity
  8
0
  6
Continuous
100
AcDbCircle
 10
178.9748942703008
 20
-306.3251694111468
 30
0.0
 40
3.752776145935058
100
AcDbArc
 50
150.0000105759245
 51
209.9999894240754
  0
ARC
  5
4E24
330
21CC
100
AcDbEntity
  8
0
  6
Continuous
100
AcDbCircle
 10
171.4234721511602
 20
-311.9543319111471
 30
0.0
 40
10.07653045654297
100
AcDbArc
 50
338.1346069180819
 51
21.86539308191804
  0
ARC
  5
4E25
330
21CC
100
AcDbEntity
  8
0
  6
Continuous
100
AcDbCircle
 10
177.5251109451055
 20
-317.583494411147
 30
0.0
 40
3.752776145935058
100
AcDbArc
 50
330.0000105759246
 51
29.99998942407543
  0
LINE
  5
4E26
330
21CC
100
AcDbEntity
  8
0
  6
Continuous
100
AcDbLine
 10
180.775110815203
 20
-319.459881911147
 30
0.0
 11
181.5000026077031
 21
-318.2043319111471
 31
0.0
  0
LINE
  5
4E27
330
21CC
100
AcDbEntity
  8
0
  6
Continuous
100
AcDbLine
 10
175.7248944002033
 20
-319.459881911147
 30
0.0
 11
175.0000026077032
 21
-318.2043319111471
 31
0.0
  0
ARC
  5
4E28
330
21CC
100
AcDbEntity
  8
0
  6
Continuous
100
AcDbCircle
 10
178.9748942703008
 20
-317.583494411147
 30
0.0
 40
3.752776145935058
100
AcDbArc
 50
150.0000105759245
 51
209.9999894240754
  0
LINE
  5
4E29
330
21CC
100
AcDbEntity
  8
0
  6
Continuous
100
AcDbLine
 10
175.7248944624021
 20
-319.459881911147
 30
0.0
 11
180.775110815203
 21
-319.459881911147
 31
0.0
  0
ARC
  5
4E2A
330
21CC
100
AcDbEntity
  8
0
  6
Continuous
100
AcDbCircle
 10
185.0765330642461
 20
-311.9543319111471
 30
0.0
 40
10.07653045654297
100
AcDbArc
 50
158.1346069181109
 51
201.865393081918
  0
LINE
  5
4E2B
330
21CC
100
AcDbEntity
  8
0
  6
Continuous
100
AcDbLine
 10
175.7248944624021
 20
-315.707106911147
 30
0.0
 11
180.775110815203
 21
-315.707106911147
 31
0.0
  0
LINE
  5
4E2C
330
21CC
100
AcDbEntity
  8
0
  6
Continuous
100
AcDbLine
 10
175.7248943928146
 20
-308.2015569111472
 30
0.0
 11
180.775110815203
 21
-308.2015569111472
 31
0.0
  0
LINE
  5
4E2D
330
21CC
100
AcDbEntity
  8
0
  6
Continuous
100
AcDbLine
 10
180.775110815203
 20
-304.4487819111473
 30
0.0
 11
181.5000026077031
 21
-305.7043319111471
 31
0.0
  0
LINE
  5
4E2E
330
21CC
100
AcDbEntity
  8
0
  6
Continuous
100
AcDbLine
 10
175.7248944624021
 20
-304.4487819111473
 30
0.0
 11
180.775110815203
 21
-304.4487819111473
 31
0.0
  0
LINE
  5
4E2F
330
21CC
100
AcDbEntity
  8
0
  6
Continuous
100
AcDbLine
 10
175.7248944002033
 20
-304.4487819111473
 30
0.0
 11
175.0000026077032
 21
-305.7043319111471
 31
0.0
  0
LINE
  5
4E30
330
21CC
100
AcDbEntity
  8
0
  6
Continuous
100
AcDbLine
 10
188.0000027194619
 20
-307.9543318515425
 30
0.0
 11
183.5000026375055
 21
-307.9543318515425
 31
0.0
  0
LINE
  5
4E31
330
21CC
100
AcDbEntity
  8
0
  6
Continuous
100
AcDbLine
 10
183.5000026375055
 20
-306.9543318366413
 30
0.0
 11
183.5000026375055
 21
-316.9543319856529
 31
0.0
  0
LINE
  5
4E32
330
21CC
100
AcDbEntity
  8
0
  6
Continuous
100
AcDbLine
 10
189.0000027194619
 20
-308.9543318515425
 30
0.0
 11
189.0000027194619
 21
-314.9543319707518
 31
0.0
  0
LINE
  5
4E33
330
21CC
100
AcDbEntity
  8
0
  6
Continuous
100
AcDbLine
 10
182.5000026226043
 20
-305.9543318217401
 30
0.0
 11
181.5000026077031
 21
-305.9543318217401
 31
0.0
  0
LINE
  5
4E34
330
21CC
100
AcDbEntity
  8
0
  6
Continuous
100
AcDbLine
 10
182.5000026226043
 20
-317.9543320005541
 30
0.0
 11
181.5000026077031
 21
-317.9543320005541
 31
0.0
  0
LINE
  5
4E35
330
21CC
100
AcDbEntity
  8
0
  6
Continuous
100
AcDbLine
 10
188.0000027194619
 20
-315.9543319707518
 30
0.0
 11
183.5000026375055
 21
-315.9543319707518
 31
0.0
  0
ARC
  5
4E36
330
21CC
100
AcDbEntity
  8
0
  6
Continuous
100
AcDbCircle
 10
182.5000026226043
 20
-306.9543318366413
 30
0.0
 40
1.00000001490116
100
AcDbArc
 50
359.9999949910365
 51
89.99999567428604
  0
ARC
  5
4E37
330
21CC
100
AcDbEntity
  8
0
  6
Continuous
100
AcDbCircle
 10
182.5000026226043
 20
-316.9543319856529
 30
0.0
 40
1.00000001490116
100
AcDbArc
 50
270.0000043257074
 51
0.000005008963459
  0
LINE
  5
4E38
330
21CC
100
AcDbEntity
  8
0
  6
Continuous
100
AcDbLine
 10
189.0000027194619
 20
-314.9543319707518
 30
0.0
 11
183.5000026375055
 21
-314.9543319707518
 31
0.0
  0
LINE
  5
4E39
330
21CC
100
AcDbEntity
  8
0
  6
Continuous
100
AcDbLine
 10
188.0000027194619
 20
-307.9543318515425
 30
0.0
 11
188.0000027194619
 21
-315.9543319707518
 31
0.0
  0
LINE
  5
4E3A
330
21CC
100
AcDbEntity
  8
0
  6
Continuous
100
AcDbLine
 10
189.0000027194619
 20
-308.9543318515425
 30
0.0
 11
183.5000026375055
 21
-308.9543318515425
 31
0.0
  0
LINE
  5
4E3B
330
21CC
100
AcDbEntity
  8
0
  6
Continuous
100
AcDbLine
 10
189.0000027194619
 20
-314.9543319707518
 30
0.0
 11
188.0000027194619
 21
-315.9543319707518
 31
0.0
  0
LINE
  5
4E3C
330
21CC
100
AcDbEntity
  8
0
  6
Continuous
100
AcDbLine
 10
189.0000027194619
 20
-308.9543318515425
 30
0.0
 11
188.0000027194619
 21
-307.9543318515425
 31
0.0
  0
ENDSEC
  0
SECTION
  2
OBJECTS
  0
DICTIONARY
  5
21BA
330
0
100
AcDbDictionary
281
     1
  3
ACAD_GROUP
350
21BB
  3
ACAD_LAYOUT
350
21C7
  3
ACAD_MLINESTYLE
350
21C4
  3
ACAD_PLOTSETTINGS
350
21C6
  3
ACAD_PLOTSTYLENAME
350
21BC
  3
AcDbVariableDictionary
350
2238
  0
DICTIONARY
  5
2244
330
21B0
100
AcDbDictionary
280
     1
281
     1
  3
ACAD_LAYERSTATES
360
2245
  0
DICTIONARY
  5
21F8
330
21CC
100
AcDbDictionary
280
     1
281
     1
  3
ACAD_LAYOUTSELFREF
360
2227
  0
DICTIONARY
  5
21FA
330
21C8
100
AcDbDictionary
280
     1
281
     1
  3
ACAD_LAYOUTSELFREF
360
2226
  0
DICTIONARY
  5
21BB
102
{ACAD_REACTORS
330
21BA
102
}
330
21BA
100
AcDbDictionary
281
     1
  0
DICTIONARY
  5
21C7
102
{ACAD_REACTORS
330
21BA
102
}
330
21BA
100
AcDbDictionary
281
     1
  3
Model
350
21CF
  3
ﾚｲｱｳﾄ1
350
21CB
  0
DICTIONARY
  5
21C4
102
{ACAD_REACTORS
330
21BA
102
}
330
21BA
100
AcDbDictionary
281
     1
  3
Standard
350
21C5
  0
DICTIONARY
  5
21C6
102
{ACAD_REACTORS
330
21BA
102
}
330
21BA
100
AcDbDictionary
281
     1
  0
ACDBDICTIONARYWDFLT
  5
21BC
102
{ACAD_REACTORS
330
21BA
102
}
330
21BA
100
AcDbDictionary
281
     1
  3
Normal
350
21BD
100
AcDbDictionaryWithDefault
340
21BD
  0
DICTIONARY
  5
2238
102
{ACAD_REACTORS
330
21BA
102
}
330
21BA
100
AcDbDictionary
281
     1
  3
DIMASSOC
350
2239
  0
DICTIONARY
  5
2245
102
{ACAD_REACTORS
330
2244
102
}
330
2244
100
AcDbDictionary
281
     1
  0
XRECORD
  5
2227
102
{ACAD_REACTORS
330
21F8
102
}
330
21F8
100
AcDbXrecord
280
     1
340
21CC
  0
XRECORD
  5
2226
102
{ACAD_REACTORS
330
21FA
102
}
330
21FA
100
AcDbXrecord
280
     1
340
21C8
  0
LAYOUT
  5
21CF
102
{ACAD_REACTORS
330
21C7
102
}
330
21C7
100
AcDbPlotSettings
  1

  2
SII LP-2150 (D-SCAN C2)
  4

  6

 40
0.0
 41
0.0
 42
0.0
 43
0.0
 44
0.0
 45
0.0
 46
0.0
 47
0.0
 48
0.0
 49
0.0
140
0.0
141
0.0
142
1.0
143
1.0
 70
  1712
 72
     0
 73
     0
 74
     0
  7

 75
     0
147
1.0
148
0.0
149
0.0
100
AcDbLayout
  1
Model
 70
     1
 71
     0
 10
0.0
 20
0.0
 11
12.0
 21
9.0
 12
0.0
 22
0.0
 32
0.0
 14
0.0
 24
0.0
 34
0.0
 15
0.0
 25
0.0
 35
0.0
146
0.0
 13
0.0
 23
0.0
 33
0.0
 16
1.0
 26
0.0
 36
0.0
 17
0.0
 27
1.0
 37
0.0
 76
     0
330
21CC
  0
LAYOUT
  5
21CB
102
{ACAD_REACTORS
330
21C7
102
}
330
21C7
100
AcDbPlotSettings
  1

  2
SII LP-2150 (D-SCAN C2)
  4

  6

 40
0.0
 41
0.0
 42
0.0
 43
0.0
 44
0.0
 45
0.0
 46
0.0
 47
0.0
 48
0.0
 49
0.0
140
0.0
141
0.0
142
1.0
143
1.0
 70
   688
 72
     0
 73
     0
 74
     5
  7

 75
    16
147
1.0
148
0.0
149
0.0
100
AcDbLayout
  1
ﾚｲｱｳﾄ1
 70
     1
 71
     1
 10
0.0
 20
0.0
 11
12.0
 21
9.0
 12
0.0
 22
0.0
 32
0.0
 14
1.000000000000000E+20
 24
1.000000000000000E+20
 34
1.000000000000000E+20
 15
-1.000000000000000E+20
 25
-1.000000000000000E+20
 35
-1.000000000000000E+20
146
0.0
 13
0.0
 23
0.0
 33
0.0
 16
1.0
 26
0.0
 36
0.0
 17
0.0
 27
1.0
 37
0.0
 76
     0
330
21C8
  0
MLINESTYLE
  5
21C5
102
{ACAD_REACTORS
330
21C4
102
}
330
21C4
100
AcDbMlineStyle
  2
STANDARD
 70
     0
  3

 62
   256
 51
90.0
 52
90.0
 71
     2
 49
0.5
 62
   256
  6
BYLAYER
 49
-0.5
 62
   256
  6
BYLAYER
  0
ACDBPLACEHOLDER
  5
21BD
102
{ACAD_REACTORS
330
21BC
102
}
330
21BC
  0
DICTIONARYVAR
  5
2239
102
{ACAD_REACTORS
330
2238
102
}
330
2238
100
DictionaryVariables
280
     0
  1
1
  0
ENDSEC
  0
EOF
