  0
SECTION
  2
HEADER
  9
$ACADVER
  1
AC1015
  9
$ACADMAINTVER
 70
    14
  9
$DWGCODEPAGE
  3
ANSI_932
  9
$INSBASE
 10
0.0
 20
0.0
 30
0.0
  9
$EXTMIN
 10
-10.0130750820233
 20
-268.5855909346769
 30
-0.0015258207003583
  9
$EXTMAX
 10
333.9531995836371
 20
198.0142417141266
 30
0.0000000349246037
  9
$LIMMIN
 10
0.0
 20
0.0
  9
$LIMMAX
 10
12.0
 20
9.0
  9
$ORTHOMODE
 70
     0
  9
$REGENMODE
 70
     1
  9
$FILLMODE
 70
     1
  9
$QTEXTMODE
 70
     0
  9
$MIRRTEXT
 70
     1
  9
$LTSCALE
 40
1.0
  9
$ATTMODE
 70
     1
  9
$TEXTSIZE
 40
0.2
  9
$TRACEWID
 40
0.05
  9
$TEXTSTYLE
  7
STANDARD
  9
$CLAYER
  8
0
  9
$CELTYPE
  6
CONTINUOUS
  9
$CECOLOR
 62
   256
  9
$CELTSCALE
 40
1.0
  9
$DISPSILH
 70
     0
  9
$DIMSCALE
 40
1.0
  9
$DIMASZ
 40
1.0
  9
$DIMEXO
 40
2.54
  9
$DIMDLI
 40
0.38
  9
$DIMRND
 40
0.0
  9
$DIMDLE
 40
0.0
  9
$DIMEXE
 40
2.54
  9
$DIMTP
 40
0.0
  9
$DIMTM
 40
0.0
  9
$DIMTXT
 40
3.2
  9
$DIMCEN
 40
0.09
  9
$DIMTSZ
 40
0.0
  9
$DIMTOL
 70
     0
  9
$DIMLIM
 70
     0
  9
$DIMTIH
 70
     0
  9
$DIMTOH
 70
     0
  9
$DIMSE1
 70
     0
  9
$DIMSE2
 70
     0
  9
$DIMTAD
 70
     1
  9
$DIMZIN
 70
     0
  9
$DIMBLK
  1

  9
$DIMASO
 70
     1
  9
$DIMSHO
 70
     0
  9
$DIMPOST
  1

  9
$DIMAPOST
  1

  9
$DIMALT
 70
     0
  9
$DIMALTD
 70
     2
  9
$DIMALTF
 40
25.4
  9
$DIMLFAC
 40
1.0
  9
$DIMTOFL
 70
     0
  9
$DIMTVP
 40
1.0
  9
$DIMTIX
 70
     0
  9
$DIMSOXD
 70
     0
  9
$DIMSAH
 70
     1
  9
$DIMBLK1
  1

  9
$DIMBLK2
  1

  9
$DIMSTYLE
  2
STANDARD
  9
$DIMCLRD
 70
     0
  9
$DIMCLRE
 70
     0
  9
$DIMCLRT
 70
     0
  9
$DIMTFAC
 40
1.0
  9
$DIMGAP
 40
1.6
  9
$DIMJUST
 70
     0
  9
$DIMSD1
 70
     0
  9
$DIMSD2
 70
     0
  9
$DIMTOLJ
 70
     1
  9
$DIMTZIN
 70
     0
  9
$DIMALTZ
 70
     0
  9
$DIMALTTZ
 70
     0
  9
$DIMUPT
 70
     0
  9
$DIMDEC
 70
     4
  9
$DIMTDEC
 70
     4
  9
$DIMALTU
 70
     2
  9
$DIMALTTD
 70
     2
  9
$DIMTXSTY
  7
STANDARD
  9
$DIMAUNIT
 70
     0
  9
$DIMADEC
 70
     0
  9
$DIMALTRND
 40
0.0
  9
$DIMAZIN
 70
     0
  9
$DIMDSEP
 70
    46
  9
$DIMATFIT
 70
     3
  9
$DIMFRAC
 70
     0
  9
$DIMLDRBLK
  1

  9
$DIMLUNIT
 70
     2
  9
$DIMLWD
 70
    -2
  9
$DIMLWE
 70
    -2
  9
$DIMTMOVE
 70
     0
  9
$LUNITS
 70
     2
  9
$LUPREC
 70
     4
  9
$SKETCHINC
 40
0.1
  9
$FILLETRAD
 40
0.0
  9
$AUNITS
 70
     0
  9
$AUPREC
 70
     0
  9
$MENU
  1
.
  9
$ELEVATION
 40
0.0
  9
$PELEVATION
 40
0.0
  9
$THICKNESS
 40
0.0
  9
$LIMCHECK
 70
     0
  9
$CHAMFERA
 40
0.0
  9
$CHAMFERB
 40
0.0
  9
$CHAMFERC
 40
0.0
  9
$CHAMFERD
 40
0.0
  9
$SKPOLY
 70
     0
  9
$TDCREATE
 40
2452488.423138738
  9
$TDUCREATE
 40
2452488.048138738
  9
$TDUPDATE
 40
2456906.721057650
  9
$TDUUPDATE
 40
2456906.346057650
  9
$TDINDWG
 40
0.2869827431
  9
$TDUSRTIMER
 40
0.2869825579
  9
$USRTIMER
 70
     1
  9
$ANGBASE
 50
0.0
  9
$ANGDIR
 70
     0
  9
$PDMODE
 70
     3
  9
$PDSIZE
 40
0.0
  9
$PLINEWID
 40
0.0
  9
$SPLFRAME
 70
     0
  9
$SPLINETYPE
 70
     6
  9
$SPLINESEGS
 70
     8
  9
$HANDSEED
  5
4F3E
  9
$SURFTAB1
 70
     6
  9
$SURFTAB2
 70
     6
  9
$SURFTYPE
 70
     6
  9
$SURFU
 70
     6
  9
$SURFV
 70
     6
  9
$UCSBASE
  2

  9
$UCSNAME
  2

  9
$UCSORG
 10
0.0
 20
0.0
 30
0.0
  9
$UCSXDIR
 10
1.0
 20
0.0
 30
0.0
  9
$UCSYDIR
 10
0.0
 20
1.0
 30
0.0
  9
$UCSORTHOREF
  2

  9
$UCSORTHOVIEW
 70
     0
  9
$UCSORGTOP
 10
0.0
 20
0.0
 30
0.0
  9
$UCSORGBOTTOM
 10
0.0
 20
0.0
 30
0.0
  9
$UCSORGLEFT
 10
0.0
 20
0.0
 30
0.0
  9
$UCSORGRIGHT
 10
0.0
 20
0.0
 30
0.0
  9
$UCSORGFRONT
 10
0.0
 20
0.0
 30
0.0
  9
$UCSORGBACK
 10
0.0
 20
0.0
 30
0.0
  9
$PUCSBASE
  2

  9
$PUCSNAME
  2

  9
$PUCSORG
 10
0.0
 20
0.0
 30
0.0
  9
$PUCSXDIR
 10
1.0
 20
0.0
 30
0.0
  9
$PUCSYDIR
 10
0.0
 20
1.0
 30
0.0
  9
$PUCSORTHOREF
  2

  9
$PUCSORTHOVIEW
 70
     0
  9
$PUCSORGTOP
 10
0.0
 20
0.0
 30
0.0
  9
$PUCSORGBOTTOM
 10
0.0
 20
0.0
 30
0.0
  9
$PUCSORGLEFT
 10
0.0
 20
0.0
 30
0.0
  9
$PUCSORGRIGHT
 10
0.0
 20
0.0
 30
0.0
  9
$PUCSORGFRONT
 10
0.0
 20
0.0
 30
0.0
  9
$PUCSORGBACK
 10
0.0
 20
0.0
 30
0.0
  9
$USERI1
 70
     0
  9
$USERI2
 70
     0
  9
$USERI3
 70
     0
  9
$USERI4
 70
     0
  9
$USERI5
 70
     0
  9
$USERR1
 40
0.0
  9
$USERR2
 40
0.0
  9
$USERR3
 40
0.0
  9
$USERR4
 40
0.0
  9
$USERR5
 40
0.0
  9
$WORLDVIEW
 70
     1
  9
$SHADEDGE
 70
     3
  9
$SHADEDIF
 70
    70
  9
$TILEMODE
 70
     1
  9
$MAXACTVP
 70
    48
  9
$PINSBASE
 10
0.0
 20
0.0
 30
0.0
  9
$PLIMCHECK
 70
     0
  9
$PEXTMIN
 10
1.000000000000000E+20
 20
1.000000000000000E+20
 30
1.000000000000000E+20
  9
$PEXTMAX
 10
-1.000000000000000E+20
 20
-1.000000000000000E+20
 30
-1.000000000000000E+20
  9
$PLIMMIN
 10
0.0
 20
0.0
  9
$PLIMMAX
 10
12.0
 20
9.0
  9
$UNITMODE
 70
     0
  9
$VISRETAIN
 70
     1
  9
$PLINEGEN
 70
     0
  9
$PSLTSCALE
 70
     1
  9
$TREEDEPTH
 70
  3020
  9
$CMLSTYLE
  2
Standard
  9
$CMLJUST
 70
     0
  9
$CMLSCALE
 40
1.0
  9
$PROXYGRAPHICS
 70
     1
  9
$MEASUREMENT
 70
     0
  9
$CELWEIGHT
370
    -1
  9
$ENDCAPS
280
     0
  9
$JOINSTYLE
280
     0
  9
$LWDISPLAY
290
     0
  9
$INSUNITS
 70
     0
  9
$HYPERLINKBASE
  1

  9
$STYLESHEET
  1

  9
$XEDIT
290
     1
  9
$CEPSNTYPE
380
     0
  9
$PSTYLEMODE
290
     1
  9
$FINGERPRINTGUID
  2
{FFE95C04-33D2-4560-80D0-1E2918E4EC86}
  9
$VERSIONGUID
  2
{6C5B7DF4-47FE-4B4C-A644-924C25B875E9}
  9
$EXTNAMES
290
     1
  9
$PSVPSCALE
 40
0.0
  9
$OLESTARTUP
290
     0
  0
ENDSEC
  0
SECTION
  2
CLASSES
  0
CLASS
  1
ACDBDICTIONARYWDFLT
  2
AcDbDictionaryWithDefault
  3
AutoCAD 2000
 90
        0
280
     0
281
     0
  0
CLASS
  1
ACDBPLACEHOLDER
  2
AcDbPlaceHolder
  3
AutoCAD 2000
 90
        0
280
     0
281
     0
  0
CLASS
  1
LAYOUT
  2
AcDbLayout
  3
AutoCAD 2000
 90
        0
280
     0
281
     0
  0
CLASS
  1
DICTIONARYVAR
  2
AcDbDictionaryVar
  3
AutoCAD 2000
 90
        0
280
     0
281
     0
  0
CLASS
  1
LONG_TRANSACTION
  2
AcDbLongTransaction
  3
AutoCAD 2000
 90
    32768
280
     0
281
     0
  0
CLASS
  1
LWPOLYLINE
  2
AcDbPolyline
  3
AutoCAD 2000
 90
    32768
280
     0
281
     1
  0
CLASS
  1
HATCH
  2
AcDbHatch
  3
AutoCAD 2000
 90
    32768
280
     0
281
     1
  0
CLASS
  1
XRECORD
  2
AcDbXrecord
  3
AutoCAD 2000
 90
    32768
280
     0
281
     0
  0
ENDSEC
  0
SECTION
  2
TABLES
  0
TABLE
  2
VPORT
  5
21B6
330
0
100
AcDbSymbolTable
 70
     2
  0
VPORT
  5
4F3D
330
21B6
100
AcDbSymbolTableRecord
100
AcDbViewportTableRecord
  2
*Active
 70
     0
 10
0.0
 20
0.0
 11
1.0
 21
1.0
 12
161.9700622508069
 22
-35.28567461027512
 13
0.0
 23
0.0
 14
1.0
 24
1.0
 15
0.0
 25
0.0
 16
0.0
 26
0.0
 36
1.0
 17
0.0
 27
0.0
 37
0.0
 40
469.562371268796
 41
1.953389830508474
 42
50.0
 43
0.0
 44
0.0
 50
0.0
 51
0.0
 71
     0
 72
   100
 73
     1
 74
     3
 75
     0
 76
     0
 77
     0
 78
     0
281
     0
 65
     1
110
0.0
120
0.0
130
0.0
111
1.0
121
0.0
131
0.0
112
0.0
122
1.0
132
0.0
 79
     0
146
0.0
  0
ENDTAB
  0
TABLE
  2
LTYPE
  5
21B3
330
0
100
AcDbSymbolTable
 70
     2
  0
LTYPE
  5
21C1
330
21B3
100
AcDbSymbolTableRecord
100
AcDbLinetypeTableRecord
  2
ByBlock
 70
     0
  3

 72
    65
 73
     0
 40
0.0
  0
LTYPE
  5
21C2
330
21B3
100
AcDbSymbolTableRecord
100
AcDbLinetypeTableRecord
  2
ByLayer
 70
     0
  3

 72
    65
 73
     0
 40
0.0
  0
LTYPE
  5
21C3
330
21B3
100
AcDbSymbolTableRecord
100
AcDbLinetypeTableRecord
  2
CONTINUOUS
 70
     0
  3
Solid line
 72
    65
 73
     0
 40
0.0
  0
LTYPE
  5
21D1
330
21B3
100
AcDbSymbolTableRecord
100
AcDbLinetypeTableRecord
  2
CENTER
 70
     0
  3
__ . __
 72
    65
 73
     4
 40
7.0
 49
4.0
 74
     0
 49
-1.0
 74
     0
 49
1.0
 74
     0
 49
-1.0
 74
     0
  0
ENDTAB
  0
TABLE
  2
LAYER
  5
21B0
102
{ACAD_XDICTIONARY
360
2244
102
}
330
0
100
AcDbSymbolTable
 70
     1
  0
LAYER
  5
21BE
330
21B0
100
AcDbSymbolTableRecord
100
AcDbLayerTableRecord
  2
0
 70
     0
 62
     7
  6
CONTINUOUS
370
    -3
390
21BD
  0
ENDTAB
  0
TABLE
  2
STYLE
  5
21B1
330
0
100
AcDbSymbolTable
 70
     1
  0
STYLE
  5
21BF
330
21B1
100
AcDbSymbolTableRecord
100
AcDbTextStyleTableRecord
  2
STANDARD
 70
     0
 40
0.0
 41
1.0
 50
0.0
 71
     0
 42
0.2
  3
txt
  4
BIGFONT
  0
ENDTAB
  0
TABLE
  2
VIEW
  5
21B4
330
0
100
AcDbSymbolTable
 70
     1
  0
VIEW
  5
21DE
330
21B4
100
AcDbSymbolTableRecord
100
AcDbViewTableRecord
  2
OLE1
 70
     0
 40
3692.141019219747
 10
1914.591370701856
 20
1272.206200738182
 41
4595.022665841169
 11
0.0
 21
0.0
 31
1.0
 12
0.0
 22
0.0
 32
0.0
 42
50.0
 43
0.0
 44
0.0
 50
0.0
 71
     0
281
     0
 72
     1
110
0.0
120
0.0
130
0.0
111
1.0
121
0.0
131
0.0
112
0.0
122
1.0
132
0.0
 79
     0
146
0.0
  0
ENDTAB
  0
TABLE
  2
UCS
  5
21B5
330
0
100
AcDbSymbolTable
 70
     0
  0
ENDTAB
  0
TABLE
  2
APPID
  5
21B7
330
0
100
AcDbSymbolTable
 70
     8
  0
APPID
  5
21C0
330
21B7
100
AcDbSymbolTableRecord
100
AcDbRegAppTableRecord
  2
ACAD
 70
     0
  0
APPID
  5
21DF
330
21B7
100
AcDbSymbolTableRecord
100
AcDbRegAppTableRecord
  2
MCAD_NO_VIS
 70
     0
  0
APPID
  5
21E0
330
21B7
100
AcDbSymbolTableRecord
100
AcDbRegAppTableRecord
  2
ACAD_TEMP_GRAPHIC
 70
     0
  0
APPID
  5
21E1
330
21B7
100
AcDbSymbolTableRecord
100
AcDbRegAppTableRecord
  2
ACATTRIBSERVICES
 70
     0
  0
APPID
  5
21E2
330
21B7
100
AcDbSymbolTableRecord
100
AcDbRegAppTableRecord
  2
CONTENTBLOCKICON
 70
     0
  0
APPID
  5
2241
330
21B7
100
AcDbSymbolTableRecord
100
AcDbRegAppTableRecord
  2
ACAD_DSTYLE_DIMJAG
 70
     0
  0
APPID
  5
2242
330
21B7
100
AcDbSymbolTableRecord
100
AcDbRegAppTableRecord
  2
ACAD_DSTYLE_DIMTALN
 70
     0
  0
APPID
  5
2243
330
21B7
100
AcDbSymbolTableRecord
100
AcDbRegAppTableRecord
  2
ACAD_PSEXT
 70
     0
  0
ENDTAB
  0
TABLE
  2
DIMSTYLE
  5
21B8
330
0
100
AcDbSymbolTable
 70
     1
100
AcDbDimStyleTable
 71
     0
  0
DIMSTYLE
105
21E3
330
21B8
100
AcDbSymbolTableRecord
100
AcDbDimStyleTableRecord
  2
STANDARD
 70
     0
279
     2
340
21BF
  0
ENDTAB
  0
TABLE
  2
BLOCK_RECORD
  5
21AF
330
0
100
AcDbSymbolTable
 70
     0
  0
BLOCK_RECORD
  5
21CC
102
{ACAD_XDICTIONARY
360
21F8
102
}
330
21AF
100
AcDbSymbolTableRecord
100
AcDbBlockTableRecord
  2
*Model_Space
340
21CF
  0
BLOCK_RECORD
  5
21C8
102
{ACAD_XDICTIONARY
360
21FA
102
}
330
21AF
100
AcDbSymbolTableRecord
100
AcDbBlockTableRecord
  2
*Paper_Space
340
21CB
  0
ENDTAB
  0
ENDSEC
  0
SECTION
  2
BLOCKS
  0
BLOCK
  5
21CD
330
21CC
100
AcDbEntity
  8
0
100
AcDbBlockBegin
  2
*Model_Space
 70
     0
 10
0.0
 20
0.0
 30
0.0
  3
*Model_Space
  1

  0
ENDBLK
  5
21CE
330
21CC
100
AcDbEntity
  8
0
100
AcDbBlockEnd
  0
BLOCK
  5
21C9
330
21C8
100
AcDbEntity
 67
     1
  8
0
100
AcDbBlockBegin
  2
*Paper_Space
 70
     0
 10
0.0
 20
0.0
 30
0.0
  3
*Paper_Space
  1

  0
ENDBLK
  5
21CA
330
21C8
100
AcDbEntity
 67
     1
  8
0
100
AcDbBlockEnd
  0
ENDSEC
  0
SECTION
  2
ENTITIES
  0
TEXT
  5
F6E
330
21CC
100
AcDbEntity
  8
0
  6
Continuous
100
AcDbText
 10
0.0
 20
150.0
 30
0.0
 40
48.000002
  1
SGQ 3S
 41
1.32095
100
AcDbText
  0
LINE
  5
4913
330
21CC
100
AcDbEntity
  8
0
  6
Continuous
100
AcDbLine
 10
137.0000020861624
 20
-144.2713641354396
 30
0.0
 11
81.50000208616246
 21
-144.2713641354396
 31
0.0
  0
LINE
  5
4914
330
21CC
100
AcDbEntity
  8
0
  6
Continuous
100
AcDbLine
 10
81.50000354396922
 20
-144.2713648543047
 30
0.0
 11
72.50000129427679
 21
-147.5470978988203
 31
0.0
  0
LINE
  5
4915
330
21CC
100
AcDbEntity
  8
0
  6
Continuous
100
AcDbLine
 10
72.50000208616246
 20
-147.5470976063572
 30
0.0
 11
72.50000208616246
 21
-159.4956306645237
 31
0.0
  0
LINE
  5
4916
330
21CC
100
AcDbEntity
  8
0
  6
Continuous
100
AcDbLine
 10
81.50000354397013
 20
-162.7713634165745
 30
0.0
 11
72.50000129427724
 21
-159.4956303720594
 31
0.0
  0
LINE
  5
4917
330
21CC
100
AcDbEntity
  8
0
  6
Continuous
100
AcDbLine
 10
137.0000020861624
 20
-162.7713641354396
 30
0.0
 11
81.50000208616246
 21
-162.7713641354396
 31
0.0
  0
LINE
  5
4918
330
21CC
100
AcDbEntity
  8
0
  6
Continuous
100
AcDbLine
 10
137.0000020861624
 20
-144.2713641354396
 30
0.0
 11
137.0000020861624
 21
-162.7713641354396
 31
0.0
  0
LINE
  5
4919
330
21CC
100
AcDbEntity
  8
0
  6
Continuous
100
AcDbLine
 10
125.0000020861624
 20
-146.0158104130584
 30
0.0
 11
125.0000020861624
 21
-161.0269178578216
 31
0.0
  0
LINE
  5
491A
330
21CC
100
AcDbEntity
  8
0
  6
Continuous
100
AcDbLine
 10
119.5000020861624
 20
-147.8921989628631
 30
0.0
 11
119.5000020861624
 21
-159.1505293080169
 31
0.0
  0
LINE
  5
491B
330
21CC
100
AcDbEntity
  8
0
  6
Continuous
100
AcDbLine
 10
120.2248956561087
 20
-146.015810413058
 30
0.0
 11
125.0000020861624
 21
-146.015810413058
 31
0.0
  0
LINE
  5
491C
330
21CC
100
AcDbEntity
  8
0
  6
Continuous
100
AcDbLine
 10
120.2248956561087
 20
-161.0269178578212
 30
0.0
 11
125.0000020861624
 21
-161.0269178578212
 31
0.0
  0
LINE
  5
491D
330
21CC
100
AcDbEntity
  8
0
  6
Continuous
100
AcDbLine
 10
120.2248956561087
 20
-149.7685872742488
 30
0.0
 11
125.0000020861624
 21
-149.7685872742488
 31
0.0
  0
LINE
  5
491E
330
21CC
100
AcDbEntity
  8
0
  6
Continuous
100
AcDbLine
 10
120.2248956561087
 20
-157.2741409966304
 30
0.0
 11
125.0000020861624
 21
-157.2741409966304
 31
0.0
  0
LINE
  5
491F
330
21CC
100
AcDbEntity
  8
0
  6
Continuous
100
AcDbLine
 10
137.0000020861624
 20
-157.5213641354396
 30
0.0
 11
143.0000020861624
 21
-157.5213641354396
 31
0.0
  0
LINE
  5
4920
330
21CC
100
AcDbEntity
  8
0
  6
Continuous
100
AcDbLine
 10
137.0000020861624
 20
-149.5213641354396
 30
0.0
 11
143.0000020861624
 21
-149.5213641354396
 31
0.0
  0
LINE
  5
4921
330
21CC
100
AcDbEntity
  8
0
  6
Continuous
100
AcDbLine
 10
72.50000208616246
 20
-147.5470976063563
 30
0.0
 11
119.5000020861624
 21
-147.5470976063563
 31
0.0
  0
LINE
  5
4922
330
21CC
100
AcDbEntity
  8
0
  6
Continuous
100
AcDbLine
 10
72.50000208616246
 20
-159.4956306645228
 30
0.0
 11
119.5000020861624
 21
-159.4956306645228
 31
0.0
  0
LINE
  5
4923
330
21CC
100
AcDbEntity
  8
0
  6
Continuous
100
AcDbLine
 10
125.0000020861624
 20
-146.5213641354396
 30
0.0
 11
137.0000020861624
 21
-146.5213641354396
 31
0.0
  0
LINE
  5
4924
330
21CC
100
AcDbEntity
  8
0
  6
Continuous
100
AcDbLine
 10
125.0000020861624
 20
-160.5213641354396
 30
0.0
 11
137.0000020861624
 21
-160.5213641354396
 31
0.0
  0
ARC
  5
4925
330
21CC
100
AcDbEntity
  8
0
  6
Continuous
100
AcDbCircle
 10
122.2909623980521
 20
-159.1505293080169
 30
0.0
 40
2.790960788726806
100
AcDbArc
 50
137.7544653697283
 51
222.2455309877982
  0
ARC
  5
4926
330
21CC
100
AcDbEntity
  8
0
  6
Continuous
100
AcDbCircle
 10
129.5765020251272
 20
-153.52136413544
 30
0.0
 40
10.07649993896484
100
AcDbArc
 50
158.1345204190074
 51
201.8654759385425
  0
ARC
  5
4927
330
21CC
100
AcDbEntity
  8
0
  6
Continuous
100
AcDbCircle
 10
122.2909623980521
 20
-147.8921989628631
 30
0.0
 40
2.790960788726806
100
AcDbArc
 50
137.7544653697283
 51
222.2455309877982
  0
LINE
  5
4928
330
21CC
100
AcDbEntity
  8
0
  6
Continuous
100
AcDbLine
 10
85.50000127404917
 20
-164.5213490405628
 30
0.0
 11
6.92559275911924
 21
-164.5213490405628
 31
0.0
  0
ARC
  5
4929
330
21CC
100
AcDbEntity
  8
0
  6
Continuous
100
AcDbCircle
 10
85.50000127404917
 20
-162.5213490107605
 30
0.0
 40
2.000000029802321
100
AcDbArc
 50
270.0000043257074
 51
352.8188039934536
  0
ARC
  5
492A
330
21CC
100
AcDbEntity
  8
0
  6
Continuous
100
AcDbCircle
 10
-17.79998805820935
 20
-202.6713587643159
 30
0.0
 40
111.9978196620616
100
AcDbArc
 50
341.2604205352421
 51
18.73957946475788
  0
LINE
  5
492B
330
21CC
100
AcDbEntity
  8
0
  6
Continuous
100
AcDbLine
 10
137.0000020414589
 20
82.00000162725268
 30
0.0
 11
137.0000020414589
 21
57.36070207873877
 31
0.0
  0
LINE
  5
492C
330
21CC
100
AcDbEntity
  8
0
  6
Continuous
100
AcDbLine
 10
125.000001862645
 20
82.00000162725268
 30
0.0
 11
125.000001862645
 21
66.60518136484393
 31
0.0
  0
LINE
  5
492D
330
21CC
100
AcDbEntity
  8
0
  6
Continuous
100
AcDbLine
 10
125.000001862645
 20
82.00000162725268
 30
0.0
 11
137.0000020414589
 21
82.00000162725268
 31
0.0
  0
LINE
  5
492E
330
21CC
100
AcDbEntity
  8
0
  6
Continuous
100
AcDbLine
 10
155.0000023096798
 20
82.00000162725268
 30
0.0
 11
155.0000023096798
 21
66.60518136484393
 31
0.0
  0
LINE
  5
492F
330
21CC
100
AcDbEntity
  8
0
  6
Continuous
100
AcDbLine
 10
155.0000023096798
 20
82.00000162725268
 30
0.0
 11
143.0000021308659
 21
82.00000162725268
 31
0.0
  0
LINE
  5
4930
330
21CC
100
AcDbEntity
  8
0
  6
Continuous
100
AcDbLine
 10
143.0000021308659
 20
82.00000162725268
 30
0.0
 11
143.0000021308659
 21
57.36070207873877
 31
0.0
  0
LINE
  5
4931
330
21CC
100
AcDbEntity
  8
0
  6
Continuous
100
AcDbLine
 10
143.0000021308659
 20
79.0000015825492
 30
0.0
 11
137.0000020414589
 21
79.0000015825492
 31
0.0
  0
LINE
  5
4932
330
21CC
100
AcDbEntity
  8
0
  6
Continuous
100
AcDbLine
 10
143.0000021308659
 20
71.00000146333991
 30
0.0
 11
137.0000020414589
 21
71.00000146333991
 31
0.0
  0
LINE
  5
4933
330
21CC
100
AcDbEntity
  8
0
  6
Continuous
100
AcDbLine
 10
125.000001862645
 20
-82.00000081653774
 30
0.0
 11
137.0000020414589
 21
-82.00000081653774
 31
0.0
  0
LINE
  5
4934
330
21CC
100
AcDbEntity
  8
0
  6
Continuous
100
AcDbLine
 10
155.0000023096798
 20
-82.00000081653774
 30
0.0
 11
155.0000023096798
 21
-66.60518055412899
 31
0.0
  0
LINE
  5
4935
330
21CC
100
AcDbEntity
  8
0
  6
Continuous
100
AcDbLine
 10
155.0000023096798
 20
-82.00000081653774
 30
0.0
 11
143.0000021308659
 21
-82.00000081653774
 31
0.0
  0
LINE
  5
4936
330
21CC
100
AcDbEntity
  8
0
  6
Continuous
100
AcDbLine
 10
137.0000020414589
 20
-82.00000081653774
 30
0.0
 11
137.0000020414589
 21
-57.36070126802383
 31
0.0
  0
LINE
  5
4937
330
21CC
100
AcDbEntity
  8
0
  6
Continuous
100
AcDbLine
 10
143.0000021308659
 20
-79.00000077183427
 30
0.0
 11
137.0000020414589
 21
-79.00000077183427
 31
0.0
  0
LINE
  5
4938
330
21CC
100
AcDbEntity
  8
0
  6
Continuous
100
AcDbLine
 10
143.0000021308659
 20
-82.00000081653774
 30
0.0
 11
143.0000021308659
 21
-57.36070126802383
 31
0.0
  0
LINE
  5
4939
330
21CC
100
AcDbEntity
  8
0
  6
Continuous
100
AcDbLine
 10
143.0000021308659
 20
-71.00000065262498
 30
0.0
 11
137.0000020414589
 21
-71.00000065262498
 31
0.0
  0
LINE
  5
493A
330
21CC
100
AcDbEntity
  8
0
  6
Continuous
100
AcDbLine
 10
168.0000025182961
 20
-71.00000065262498
 30
0.0
 11
163.5000024363397
 21
-71.00000065262498
 31
0.0
  0
LINE
  5
493B
330
21CC
100
AcDbEntity
  8
0
  6
Continuous
100
AcDbLine
 10
163.5000024363397
 20
-70.00000063772382
 30
0.0
 11
163.5000024363397
 21
-80.00000078673542
 31
0.0
  0
LINE
  5
493C
330
21CC
100
AcDbEntity
  8
0
  6
Continuous
100
AcDbLine
 10
169.0000025182961
 20
-72.00000065262497
 30
0.0
 11
169.0000025182961
 21
-78.00000077183426
 31
0.0
  0
LINE
  5
493D
330
21CC
100
AcDbEntity
  8
0
  6
Continuous
100
AcDbLine
 10
162.5000024214385
 20
-69.00000062282265
 30
0.0
 11
161.5000024065374
 21
-69.00000062282265
 31
0.0
  0
LINE
  5
493E
330
21CC
100
AcDbEntity
  8
0
  6
Continuous
100
AcDbLine
 10
162.5000024214385
 20
-81.00000080163658
 30
0.0
 11
161.5000024065374
 21
-81.00000080163658
 31
0.0
  0
LINE
  5
493F
330
21CC
100
AcDbEntity
  8
0
  6
Continuous
100
AcDbLine
 10
160.7751088257895
 20
-75.00000071222962
 30
0.0
 11
155.7248958904277
 21
-75.00000071222962
 31
0.0
  0
LINE
  5
4940
330
21CC
100
AcDbEntity
  8
0
  6
Continuous
100
AcDbLine
 10
161.5000024065374
 20
-81.50000080908716
 30
0.0
 11
161.5000024065374
 21
-68.50000061537207
 31
0.0
  0
LINE
  5
4941
330
21CC
100
AcDbEntity
  8
0
  6
Continuous
100
AcDbLine
 10
161.5000024065374
 20
-81.50000080908716
 30
0.0
 11
155.0000023096798
 21
-81.50000080908716
 31
0.0
  0
LINE
  5
4942
330
21CC
100
AcDbEntity
  8
0
  6
Continuous
100
AcDbLine
 10
161.5000024065374
 20
-68.50000061537207
 30
0.0
 11
155.0000023096798
 21
-68.50000061537207
 31
0.0
  0
LINE
  5
4943
330
21CC
100
AcDbEntity
  8
0
  6
Continuous
100
AcDbLine
 10
168.0000025182961
 20
-79.00000077183427
 30
0.0
 11
163.5000024363397
 21
-79.00000077183427
 31
0.0
  0
LINE
  5
4944
330
21CC
100
AcDbEntity
  8
0
  6
Continuous
100
AcDbLine
 10
168.0000025182961
 20
71.00000146333991
 30
0.0
 11
163.5000024363397
 21
71.00000146333991
 31
0.0
  0
LINE
  5
4945
330
21CC
100
AcDbEntity
  8
0
  6
Continuous
100
AcDbLine
 10
163.5000024363397
 20
70.00000144843875
 30
0.0
 11
163.5000024363397
 21
80.00000159745036
 31
0.0
  0
LINE
  5
4946
330
21CC
100
AcDbEntity
  8
0
  6
Continuous
100
AcDbLine
 10
169.0000025182961
 20
72.00000146333991
 30
0.0
 11
169.0000025182961
 21
78.0000015825492
 31
0.0
  0
LINE
  5
4947
330
21CC
100
AcDbEntity
  8
0
  6
Continuous
100
AcDbLine
 10
162.5000024214385
 20
69.00000143353759
 30
0.0
 11
161.5000024065374
 21
69.00000143353759
 31
0.0
  0
LINE
  5
4948
330
21CC
100
AcDbEntity
  8
0
  6
Continuous
100
AcDbLine
 10
162.5000024214385
 20
81.00000161235152
 30
0.0
 11
161.5000024065374
 21
81.00000161235152
 31
0.0
  0
LINE
  5
4949
330
21CC
100
AcDbEntity
  8
0
  6
Continuous
100
AcDbLine
 10
160.7751088257895
 20
75.00000152294456
 30
0.0
 11
155.7248958904277
 21
75.00000152294456
 31
0.0
  0
LINE
  5
494A
330
21CC
100
AcDbEntity
  8
0
  6
Continuous
100
AcDbLine
 10
161.5000024065374
 20
81.5000016198021
 30
0.0
 11
161.5000024065374
 21
68.50000142608701
 31
0.0
  0
LINE
  5
494B
330
21CC
100
AcDbEntity
  8
0
  6
Continuous
100
AcDbLine
 10
161.5000024065374
 20
81.5000016198021
 30
0.0
 11
155.0000023096798
 21
81.5000016198021
 31
0.0
  0
LINE
  5
494C
330
21CC
100
AcDbEntity
  8
0
  6
Continuous
100
AcDbLine
 10
161.5000024065374
 20
68.50000142608701
 30
0.0
 11
155.0000023096798
 21
68.50000142608701
 31
0.0
  0
LINE
  5
494D
330
21CC
100
AcDbEntity
  8
0
  6
Continuous
100
AcDbLine
 10
168.0000025182961
 20
79.0000015825492
 30
0.0
 11
163.5000024363397
 21
79.0000015825492
 31
0.0
  0
LINE
  5
494E
330
21CC
100
AcDbEntity
  8
0
  6
Continuous
100
AcDbLine
 10
120.2248953614365
 20
75.00000152294456
 30
0.0
 11
125.000001862645
 21
75.00000152294456
 31
0.0
  0
LINE
  5
494F
330
21CC
100
AcDbEntity
  8
0
  6
Continuous
100
AcDbLine
 10
119.5000017806886
 20
71.75000147451578
 30
0.0
 11
119.5000017806886
 21
78.25000157137333
 31
0.0
  0
LINE
  5
4950
330
21CC
100
AcDbEntity
  8
0
  6
Continuous
100
AcDbLine
 10
120.2248953614365
 20
68.50000142608701
 30
0.0
 11
125.000001862645
 21
68.50000142608701
 31
0.0
  0
LINE
  5
4951
330
21CC
100
AcDbEntity
  8
0
  6
Continuous
100
AcDbLine
 10
120.2248953614365
 20
81.5000016198021
 30
0.0
 11
125.000001862645
 21
81.5000016198021
 31
0.0
  0
LINE
  5
4952
330
21CC
100
AcDbEntity
  8
0
  6
Continuous
100
AcDbLine
 10
120.2248953614406
 20
-75.00000071223053
 30
0.0
 11
125.0000018626491
 21
-75.00000071223053
 31
0.0
  0
LINE
  5
4953
330
21CC
100
AcDbEntity
  8
0
  6
Continuous
100
AcDbLine
 10
119.5000017806925
 20
-71.75000066380175
 30
0.0
 11
119.5000017806927
 21
-78.2500007606593
 31
0.0
  0
LINE
  5
4954
330
21CC
100
AcDbEntity
  8
0
  6
Continuous
100
AcDbLine
 10
120.2248953614401
 20
-68.50000061537298
 30
0.0
 11
125.0000018626486
 21
-68.50000061537298
 31
0.0
  0
LINE
  5
4955
330
21CC
100
AcDbEntity
  8
0
  6
Continuous
100
AcDbLine
 10
120.224895361441
 20
-81.50000080908808
 30
0.0
 11
125.0000018626493
 21
-81.50000080908808
 31
0.0
  0
LINE
  5
4956
330
21CC
100
AcDbEntity
  8
0
  6
Continuous
100
AcDbLine
 10
125.0000018626484
 20
-66.6051805541299
 30
0.0
 11
125.0000018626493
 21
-82.00000081653866
 31
0.0
  0
ARC
  5
4957
330
21CC
100
AcDbEntity
  8
0
  6
Continuous
100
AcDbCircle
 10
140.0000020861624
 20
0.0000004053574685
 30
0.0
 40
56.5000008419156
100
AcDbArc
 50
93.98901511913255
 51
266.0109848808674
  0
ARC
  5
4958
330
21CC
100
AcDbEntity
  8
0
  6
Continuous
100
AcDbCircle
 10
140.0000020861624
 20
0.0000004053574685
 30
0.0
 40
56.5000008419156
100
AcDbArc
 50
273.9890151191325
 51
86.01098488086746
  0
ARC
  5
4959
330
21CC
100
AcDbEntity
  8
0
  6
Continuous
100
AcDbCircle
 10
162.5000024214385
 20
-70.00000063772382
 30
0.0
 40
1.00000001490116
100
AcDbArc
 50
359.9999949910365
 51
89.99999567428604
  0
ARC
  5
495A
330
21CC
100
AcDbEntity
  8
0
  6
Continuous
100
AcDbCircle
 10
162.5000024214385
 20
-80.00000078673542
 30
0.0
 40
1.00000001490116
100
AcDbArc
 50
270.0000043257074
 51
0.000005008963459
  0
ARC
  5
495B
330
21CC
100
AcDbEntity
  8
0
  6
Continuous
100
AcDbCircle
 10
153.8520072974562
 20
-78.2500007606584
 30
0.0
 40
7.647995109081192
100
AcDbArc
 50
334.8526282968518
 51
25.14737511822298
  0
ARC
  5
495C
330
21CC
100
AcDbEntity
  8
0
  6
Continuous
100
AcDbCircle
 10
153.8520072974562
 20
-71.75000066380085
 30
0.0
 40
7.647995109081192
100
AcDbArc
 50
334.8526282968518
 51
25.14736828804689
  0
ARC
  5
495D
330
21CC
100
AcDbEntity
  8
0
  6
Continuous
100
AcDbCircle
 10
162.647997418761
 20
-78.2500007606584
 30
0.0
 40
7.647995109081192
100
AcDbArc
 50
154.8526281831849
 51
205.1473681743535
  0
ARC
  5
495E
330
21CC
100
AcDbEntity
  8
0
  6
Continuous
100
AcDbCircle
 10
162.647997418761
 20
-71.75000066380085
 30
0.0
 40
7.647995109081192
100
AcDbArc
 50
154.8526281831849
 51
205.1473681743535
  0
ARC
  5
495F
330
21CC
100
AcDbEntity
  8
0
  6
Continuous
100
AcDbCircle
 10
162.5000024214385
 20
70.00000144843875
 30
0.0
 40
1.00000001490116
100
AcDbArc
 50
270.0000043257074
 51
0.000005008963459
  0
ARC
  5
4960
330
21CC
100
AcDbEntity
  8
0
  6
Continuous
100
AcDbCircle
 10
162.5000024214385
 20
80.00000159745036
 30
0.0
 40
1.00000001490116
100
AcDbArc
 50
359.9999949910365
 51
89.99999567428604
  0
ARC
  5
4961
330
21CC
100
AcDbEntity
  8
0
  6
Continuous
100
AcDbCircle
 10
153.8520072974562
 20
78.25000157137333
 30
0.0
 40
7.647995109081192
100
AcDbArc
 50
334.852624881777
 51
25.14737170314811
  0
ARC
  5
4962
330
21CC
100
AcDbEntity
  8
0
  6
Continuous
100
AcDbCircle
 10
153.8520072974562
 20
71.75000147451578
 30
0.0
 40
7.647995109081192
100
AcDbArc
 50
334.8526317119531
 51
25.14737170314811
  0
ARC
  5
4963
330
21CC
100
AcDbEntity
  8
0
  6
Continuous
100
AcDbCircle
 10
162.647997418761
 20
78.25000157137333
 30
0.0
 40
7.647995109081192
100
AcDbArc
 50
154.8526281831849
 51
205.1473681743535
  0
ARC
  5
4964
330
21CC
100
AcDbEntity
  8
0
  6
Continuous
100
AcDbCircle
 10
162.647997418761
 20
71.75000147451578
 30
0.0
 40
7.647995109081192
100
AcDbArc
 50
154.8526281831849
 51
205.1473681743535
  0
ARC
  5
4965
330
21CC
100
AcDbEntity
  8
0
  6
Continuous
100
AcDbCircle
 10
127.1479968897698
 20
71.75000147451578
 30
0.0
 40
7.647994632244027
100
AcDbArc
 50
154.8526281831849
 51
205.1473681743535
  0
ARC
  5
4966
330
21CC
100
AcDbEntity
  8
0
  6
Continuous
100
AcDbCircle
 10
127.1479968897698
 20
78.25000157137333
 30
0.0
 40
7.647994632244027
100
AcDbArc
 50
154.8526281831849
 51
205.1473681743535
  0
ARC
  5
4967
330
21CC
100
AcDbEntity
  8
0
  6
Continuous
100
AcDbCircle
 10
127.1479968897698
 20
-71.75000066380085
 30
0.0
 40
7.647994632244027
100
AcDbArc
 50
154.8526281831849
 51
205.1473681743535
  0
ARC
  5
4968
330
21CC
100
AcDbEntity
  8
0
  6
Continuous
100
AcDbCircle
 10
127.1479968897698
 20
-78.2500007606584
 30
0.0
 40
7.647994632244027
100
AcDbArc
 50
154.8526281831849
 51
205.1473681743535
  0
LINE
  5
4969
330
21CC
100
AcDbEntity
  8
0
  6
CENTER
100
AcDbLine
 10
-10.0
 20
-202.6713587643159
 30
0.0
 11
290.000004172325
 21
-202.6713587643159
 31
0.0
  0
LINE
  5
496A
330
21CC
100
AcDbEntity
  8
0
  6
Continuous
100
AcDbLine
 10
85.50000127404917
 20
-240.821368488069
 30
0.0
 11
6.925592759119354
 21
-240.821368488069
 31
0.0
  0
LINE
  5
496B
330
21CC
100
AcDbEntity
  8
0
  6
Continuous
100
AcDbLine
 10
72.50000208616246
 20
-245.847086864109
 30
0.0
 11
119.5000020861624
 21
-245.847086864109
 31
0.0
  0
LINE
  5
496C
330
21CC
100
AcDbEntity
  8
0
  6
Continuous
100
AcDbLine
 10
72.50000208616246
 20
-257.7956199222755
 30
0.0
 11
119.5000020861624
 21
-257.7956199222755
 31
0.0
  0
LINE
  5
496D
330
21CC
100
AcDbEntity
  8
0
  6
Continuous
100
AcDbLine
 10
137.0000020861624
 20
-242.5713533931923
 30
0.0
 11
81.50000208616246
 21
-242.5713533931923
 31
0.0
  0
LINE
  5
496E
330
21CC
100
AcDbEntity
  8
0
  6
Continuous
100
AcDbLine
 10
137.0000020861624
 20
-261.0713533931923
 30
0.0
 11
81.50000208616246
 21
-261.0713533931923
 31
0.0
  0
LINE
  5
496F
330
21CC
100
AcDbEntity
  8
0
  6
Continuous
100
AcDbLine
 10
81.50000354397013
 20
-242.5713541120574
 30
0.0
 11
72.50000129427724
 21
-245.8470871565725
 31
0.0
  0
LINE
  5
4970
330
21CC
100
AcDbEntity
  8
0
  6
Continuous
100
AcDbLine
 10
72.50000208616246
 20
-257.7956199222746
 30
0.0
 11
72.50000208616246
 21
-245.8470868641081
 31
0.0
  0
LINE
  5
4971
330
21CC
100
AcDbEntity
  8
0
  6
Continuous
100
AcDbLine
 10
81.50000354396922
 20
-261.0713526743272
 30
0.0
 11
72.50000129427679
 21
-257.7956196298116
 31
0.0
  0
ARC
  5
4972
330
21CC
100
AcDbEntity
  8
0
  6
Continuous
100
AcDbCircle
 10
85.50000127404917
 20
-242.8213685178714
 30
0.0
 40
2.000000029802321
100
AcDbArc
 50
7.181196006546346
 51
89.99999567429256
  0
LINE
  5
4973
330
21CC
100
AcDbEntity
  8
0
  6
Continuous
100
AcDbLine
 10
125.0000020861624
 20
-244.8213533931923
 30
0.0
 11
137.0000020861624
 21
-244.8213533931923
 31
0.0
  0
LINE
  5
4974
330
21CC
100
AcDbEntity
  8
0
  6
Continuous
100
AcDbLine
 10
125.0000020861624
 20
-258.8213533931923
 30
0.0
 11
137.0000020861624
 21
-258.8213533931923
 31
0.0
  0
LINE
  5
4975
330
21CC
100
AcDbEntity
  8
0
  6
Continuous
100
AcDbLine
 10
137.0000020861624
 20
-255.8213533931923
 30
0.0
 11
143.0000020861623
 21
-255.8213533931923
 31
0.0
  0
LINE
  5
4976
330
21CC
100
AcDbEntity
  8
0
  6
Continuous
100
AcDbLine
 10
137.0000020861624
 20
-247.8213533931923
 30
0.0
 11
143.0000020861623
 21
-247.8213533931923
 31
0.0
  0
LINE
  5
4977
330
21CC
100
AcDbEntity
  8
0
  6
Continuous
100
AcDbLine
 10
120.2248956561087
 20
-248.0685765320015
 30
0.0
 11
125.0000020861624
 21
-248.0685765320015
 31
0.0
  0
LINE
  5
4978
330
21CC
100
AcDbEntity
  8
0
  6
Continuous
100
AcDbLine
 10
120.2248956561087
 20
-255.5741302543831
 30
0.0
 11
125.0000020861624
 21
-255.5741302543831
 31
0.0
  0
LINE
  5
4979
330
21CC
100
AcDbEntity
  8
0
  6
Continuous
100
AcDbLine
 10
120.2248956561087
 20
-244.3157996708107
 30
0.0
 11
125.0000020861624
 21
-244.3157996708107
 31
0.0
  0
LINE
  5
497A
330
21CC
100
AcDbEntity
  8
0
  6
Continuous
100
AcDbLine
 10
120.2248956561087
 20
-259.3269071155739
 30
0.0
 11
125.0000020861624
 21
-259.3269071155739
 31
0.0
  0
LINE
  5
497B
330
21CC
100
AcDbEntity
  8
0
  6
Continuous
100
AcDbLine
 10
119.5000020861624
 20
-257.4505185657688
 30
0.0
 11
119.5000020861624
 21
-246.1921882206149
 31
0.0
  0
LINE
  5
497C
330
21CC
100
AcDbEntity
  8
0
  6
Continuous
100
AcDbLine
 10
125.0000020861624
 20
-259.3269071155734
 30
0.0
 11
125.0000020861624
 21
-244.3157996708102
 31
0.0
  0
LINE
  5
497D
330
21CC
100
AcDbEntity
  8
0
  6
Continuous
100
AcDbLine
 10
137.0000020861624
 20
-261.0713533931923
 30
0.0
 11
137.0000020861624
 21
-242.5713533931923
 31
0.0
  0
ARC
  5
497E
330
21CC
100
AcDbEntity
  8
0
  6
Continuous
100
AcDbCircle
 10
122.2909623980521
 20
-257.4505185657688
 30
0.0
 40
2.790960788726806
100
AcDbArc
 50
137.7544690122017
 51
222.2455346302716
  0
ARC
  5
497F
330
21CC
100
AcDbEntity
  8
0
  6
Continuous
100
AcDbCircle
 10
129.5765020251272
 20
-251.8213533931918
 30
0.0
 40
10.07649993896484
100
AcDbArc
 50
158.1345240614574
 51
201.8654795809925
  0
ARC
  5
4980
330
21CC
100
AcDbEntity
  8
0
  6
Continuous
100
AcDbCircle
 10
122.2909623980521
 20
-246.1921882206149
 30
0.0
 40
2.790960788726806
100
AcDbArc
 50
137.7544690122017
 51
222.2455346302716
  0
LINE
  5
4981
330
21CC
100
AcDbEntity
  8
0
  6
CENTER
100
AcDbLine
 10
140.0000020861624
 20
85.00000162725269
 30
0.0
 11
140.0000020861624
 21
-85.00000081653775
 31
0.0
  0
LINE
  5
4982
330
21CC
100
AcDbEntity
  8
0
  6
Continuous
100
AcDbLine
 10
195.6850709454573
 20
-38.15000931839517
 30
0.0
 11
273.0744088416721
 21
-38.15000931839517
 31
0.0
  0
LINE
  5
4983
330
21CC
100
AcDbEntity
  8
0
  6
Continuous
100
AcDbLine
 10
195.685081399297
 20
38.14999487032105
 30
0.0
 11
273.0744084309939
 21
38.14999487032105
 31
0.0
  0
LINE
  5
4984
330
21CC
100
AcDbEntity
  8
0
  6
CENTER
100
AcDbLine
 10
-10.00000000000011
 20
0.000000237852646
 30
0.0
 11
290.0000041723247
 21
-0.0000068977249157
 31
0.0
  0
CIRCLE
  5
4985
330
21CC
100
AcDbEntity
  8
0
  6
Continuous
100
AcDbCircle
 10
140.0000020861624
 20
0.0000004053574685
 30
0.0
 40
25.0
  0
CIRCLE
  5
4986
330
21CC
100
AcDbEntity
  8
0
  6
Continuous
100
AcDbCircle
 10
140.0000020861624
 20
0.0000004053574685
 30
0.0
 40
27.0
  0
ARC
  5
4987
330
21CC
100
AcDbEntity
  8
0
  6
Continuous
100
AcDbCircle
 10
140.0000020861624
 20
0.0000004053574685
 30
0.0
 40
58.49999656712816
100
AcDbArc
 50
92.93953470292066
 51
267.0604652970793
  0
CIRCLE
  5
4988
330
21CC
100
AcDbEntity
  8
0
  6
Continuous
100
AcDbCircle
 10
140.0000020861624
 20
0.0000004053574685
 30
0.0
 40
51.75707000000011
  0
ARC
  5
4989
330
21CC
100
AcDbEntity
  8
0
  6
Continuous
100
AcDbCircle
 10
140.0000020861624
 20
0.0000004053574685
 30
0.0
 40
59.44999998999993
100
AcDbArc
 50
87.10747895903489
 51
92.8925210409651
  0
ARC
  5
498A
330
21CC
100
AcDbEntity
  8
0
  6
Continuous
100
AcDbCircle
 10
140.0000020861624
 20
0.0000004053574685
 30
0.0
 40
58.49999656712816
100
AcDbArc
 50
272.9395347029206
 51
87.06046529707933
  0
ARC
  5
498B
330
21CC
100
AcDbEntity
  8
0
  6
Continuous
100
AcDbCircle
 10
140.0000020861624
 20
0.0000004053574685
 30
0.0
 40
59.44999998999993
100
AcDbArc
 50
267.1074789590349
 51
272.892521040965
  0
LINE
  5
498C
330
21CC
100
AcDbEntity
  8
0
  6
Continuous
100
AcDbLine
 10
169.0000025182961
 20
78.0000015825492
 30
0.0
 11
163.5000024363397
 21
78.0000015825492
 31
0.0
  0
LINE
  5
498D
330
21CC
100
AcDbEntity
  8
0
  6
Continuous
100
AcDbLine
 10
168.0000025182961
 20
71.00000146333991
 30
0.0
 11
168.0000025182961
 21
79.0000015825492
 31
0.0
  0
LINE
  5
498E
330
21CC
100
AcDbEntity
  8
0
  6
Continuous
100
AcDbLine
 10
169.0000025182961
 20
72.00000146333991
 30
0.0
 11
163.5000024363397
 21
72.00000146333991
 31
0.0
  0
LINE
  5
498F
330
21CC
100
AcDbEntity
  8
0
  6
Continuous
100
AcDbLine
 10
143.0000021308659
 20
72.00000146333991
 30
0.0
 11
137.0000020414589
 21
72.00000146333991
 31
0.0
  0
LINE
  5
4990
330
21CC
100
AcDbEntity
  8
0
  6
Continuous
100
AcDbLine
 10
143.0000021308659
 20
78.0000015825492
 30
0.0
 11
137.0000020414589
 21
78.0000015825492
 31
0.0
  0
LINE
  5
4991
330
21CC
100
AcDbEntity
  8
0
  6
Continuous
100
AcDbLine
 10
169.0000025182961
 20
-78.00000077183426
 30
0.0
 11
163.5000024363397
 21
-78.00000077183426
 31
0.0
  0
LINE
  5
4992
330
21CC
100
AcDbEntity
  8
0
  6
Continuous
100
AcDbLine
 10
169.0000025182961
 20
-72.00000065262497
 30
0.0
 11
163.5000024363397
 21
-72.00000065262497
 31
0.0
  0
LINE
  5
4993
330
21CC
100
AcDbEntity
  8
0
  6
Continuous
100
AcDbLine
 10
168.0000025182961
 20
-71.00000065262498
 30
0.0
 11
168.0000025182961
 21
-79.00000077183427
 31
0.0
  0
LINE
  5
4994
330
21CC
100
AcDbEntity
  8
0
  6
Continuous
100
AcDbLine
 10
143.0000021308659
 20
-72.00000065262497
 30
0.0
 11
137.0000020414589
 21
-72.00000065262497
 31
0.0
  0
LINE
  5
4995
330
21CC
100
AcDbEntity
  8
0
  6
Continuous
100
AcDbLine
 10
143.0000021308659
 20
-78.00000077183426
 30
0.0
 11
137.0000020414589
 21
-78.00000077183426
 31
0.0
  0
LINE
  5
4996
330
21CC
100
AcDbEntity
  8
0
  6
Continuous
100
AcDbLine
 10
168.0000025182961
 20
-79.00000077183427
 30
0.0
 11
169.0000025182961
 21
-78.00000077183426
 31
0.0
  0
LINE
  5
4997
330
21CC
100
AcDbEntity
  8
0
  6
Continuous
100
AcDbLine
 10
168.0000025182961
 20
-71.00000065262498
 30
0.0
 11
169.0000025182961
 21
-72.00000065262497
 31
0.0
  0
LINE
  5
4998
330
21CC
100
AcDbEntity
  8
0
  6
Continuous
100
AcDbLine
 10
168.0000025182961
 20
79.0000015825492
 30
0.0
 11
169.0000025182961
 21
78.0000015825492
 31
0.0
  0
LINE
  5
4999
330
21CC
100
AcDbEntity
  8
0
  6
Continuous
100
AcDbLine
 10
168.0000025182961
 20
71.00000146333991
 30
0.0
 11
169.0000025182961
 21
72.00000146333991
 31
0.0
  0
ARC
  5
499A
330
21CC
100
AcDbEntity
  8
0
  6
Continuous
100
AcDbCircle
 10
124.0000018626486
 20
-66.6051805541299
 30
0.0
 40
1.0
100
AcDbArc
 50
0.0
 51
76.49226445095968
  0
ARC
  5
499B
330
21CC
100
AcDbEntity
  8
0
  6
Continuous
100
AcDbCircle
 10
156.0000023096798
 20
-66.60518055412899
 30
0.0
 40
1.0
100
AcDbArc
 50
103.5077355490403
 51
180.0
  0
ARC
  5
499C
330
21CC
100
AcDbEntity
  8
0
  6
Continuous
100
AcDbCircle
 10
124.000001862645
 20
66.60518136484393
 30
0.0
 40
1.0
100
AcDbArc
 50
283.5077355490403
 51
0.0
  0
ARC
  5
499D
330
21CC
100
AcDbEntity
  8
0
  6
Continuous
100
AcDbCircle
 10
156.0000023096798
 20
66.60518136484393
 30
0.0
 40
1.0
100
AcDbArc
 50
180.0
 51
256.4922644509596
  0
ARC
  5
499E
330
21CC
100
AcDbEntity
  8
0
  6
Continuous
100
AcDbCircle
 10
140.0000020861624
 20
0.0000004053574685
 30
0.0
 40
67.50000100582838
100
AcDbArc
 50
103.5077355490466
 51
256.4922644509596
  0
ARC
  5
499F
330
21CC
100
AcDbEntity
  8
0
  6
Continuous
100
AcDbCircle
 10
140.0000020861624
 20
0.0000004053574685
 30
0.0
 40
67.50000100582838
100
AcDbArc
 50
283.5077355490466
 51
76.49226445095334
  0
LINE
  5
49A1
330
21CC
100
AcDbEntity
  8
0
  6
Continuous
100
AcDbLine
 10
-0.0000000000001137
 20
-248.1713587643159
 30
0.0
 11
2.289833969432152
 21
-248.1713587643159
 31
0.0
  0
LINE
  5
49A2
330
21CC
100
AcDbEntity
  8
0
  6
Continuous
100
AcDbLine
 10
3.041588066060853
 20
-247.6449748789766
 30
0.0
 11
5.046207517547486
 21
-242.1373282014176
 31
0.0
  0
ARC
  5
49A3
330
21CC
100
AcDbEntity
  8
0
  6
Continuous
100
AcDbCircle
 10
2.289833969432152
 20
-247.3713587643158
 30
0.0
 40
0.8
100
AcDbArc
 50
270.0
 51
340.0000000000107
  0
LINE
  5
49A4
330
21CC
100
AcDbEntity
  8
0
  6
Continuous
100
AcDbLine
 10
0.0000000000001137
 20
-248.1713587643159
 30
0.0
 11
-0.0000000000001137
 21
-157.1713587643159
 31
0.0
  0
LINE
  5
49A5
330
21CC
100
AcDbEntity
  8
0
  6
Continuous
100
AcDbLine
 10
2.849999999999909
 20
-160.0951631644791
 30
0.0
 11
2.849999999999909
 21
-245.2475543641528
 31
0.0
  0
LINE
  5
49A6
330
21CC
100
AcDbEntity
  8
0
  6
Continuous
100
AcDbLine
 10
3.041588066060853
 20
-157.6977426496553
 30
0.0
 11
5.046207517547486
 21
-163.2053893272143
 31
0.0
  0
LINE
  5
49A7
330
21CC
100
AcDbEntity
  8
0
  6
Continuous
100
AcDbLine
 10
-0.0000000000001137
 20
-157.1713587643159
 30
0.0
 11
2.289833969432152
 21
-157.1713587643159
 31
0.0
  0
ARC
  5
49A8
330
21CC
100
AcDbEntity
  8
0
  6
Continuous
100
AcDbCircle
 10
2.289833969432152
 20
-157.9713587643161
 30
0.0
 40
0.8
100
AcDbArc
 50
19.99999999998923
 51
90.0
  0
LINE
  5
49A9
330
21CC
100
AcDbEntity
  8
0
  6
Continuous
100
AcDbLine
 10
280.0000041723247
 20
45.4999933401275
 30
0.0
 11
280.000004172325
 21
-45.5000066598725
 31
0.0
  0
LINE
  5
49AA
330
21CC
100
AcDbEntity
  8
0
  6
Continuous
100
AcDbLine
 10
277.1500041723251
 20
-42.57620225970936
 30
0.0
 11
277.1500041723248
 21
42.57618893996391
 31
0.0
  0
LINE
  5
49AB
330
21CC
100
AcDbEntity
  8
0
  6
Continuous
100
AcDbLine
 10
280.000004172325
 20
45.4999933401275
 30
0.0
 11
277.7101702028927
 21
45.4999933401275
 31
0.0
  0
LINE
  5
49AC
330
21CC
100
AcDbEntity
  8
0
  6
Continuous
100
AcDbLine
 10
276.958416106264
 20
44.97360945478817
 30
0.0
 11
274.9537936725656
 21
39.4659545836696
 31
0.0
  0
ARC
  5
49AD
330
21CC
100
AcDbEntity
  8
0
  6
Continuous
100
AcDbCircle
 10
277.7101702028927
 20
44.69999334012732
 30
0.0
 40
0.8
100
AcDbArc
 50
90.0
 51
160.0000000000107
  0
LINE
  5
49AE
330
21CC
100
AcDbEntity
  8
0
  6
Continuous
100
AcDbLine
 10
280.000004172325
 20
-45.5000066598725
 30
0.0
 11
277.7101702028927
 21
-45.5000066598725
 31
0.0
  0
ARC
  5
49AF
330
21CC
100
AcDbEntity
  8
0
  6
Continuous
100
AcDbCircle
 10
277.7101702028927
 20
-44.70000665987277
 30
0.0
 40
0.8
100
AcDbArc
 50
199.9999999999892
 51
270.0
  0
LINE
  5
49B0
330
21CC
100
AcDbEntity
  8
0
  6
Continuous
100
AcDbLine
 10
276.958416106264
 20
-44.97362277453317
 30
0.0
 11
274.9537940832439
 21
-39.46596903174372
 31
0.0
  0
LINE
  5
49B1
330
21CC
100
AcDbEntity
  8
0
  6
Continuous
100
AcDbLine
 10
5.525177682699904
 20
-165.1744298184019
 30
0.0
 11
5.525177682699904
 21
-240.16828771023
 31
0.0
  0
ARC
  5
49B2
330
21CC
100
AcDbEntity
  8
0
  6
Continuous
100
AcDbCircle
 10
6.92559275911924
 20
-162.5213490405628
 30
0.0
 40
2.0
100
AcDbArc
 50
199.9999999999892
 51
270.0
  0
ARC
  5
49B3
330
21CC
100
AcDbEntity
  8
0
  6
Continuous
100
AcDbCircle
 10
6.925592759119354
 20
-242.821368488069
 30
0.0
 40
2.0
100
AcDbArc
 50
90.0
 51
160.0000000000107
  0
LINE
  5
49B4
330
21CC
100
AcDbEntity
  8
0
  6
Continuous
100
AcDbLine
 10
274.4748235109285
 20
37.49691409433785
 30
0.0
 11
274.4748239145764
 21
-37.49692853870124
 31
0.0
  0
ARC
  5
49B5
330
21CC
100
AcDbEntity
  8
0
  6
Continuous
100
AcDbCircle
 10
273.0744084309939
 20
40.14999487032105
 30
0.0
 40
2.0
100
AcDbArc
 50
270.0
 51
340.0000000000107
  0
ARC
  5
49B6
330
21CC
100
AcDbEntity
  8
0
  6
Continuous
100
AcDbCircle
 10
273.0744088416721
 20
-40.15000931839518
 30
0.0
 40
2.0
100
AcDbArc
 50
19.99999999998923
 51
90.0
  0
ARC
  5
49B7
330
21CC
100
AcDbEntity
  8
0
  6
Continuous
100
AcDbCircle
 10
136.0000020414589
 20
-57.36070126802383
 30
0.0
 40
1.0
100
AcDbArc
 50
0.0
 51
86.01098488086746
  0
ARC
  5
49B8
330
21CC
100
AcDbEntity
  8
0
  6
Continuous
100
AcDbCircle
 10
144.0000021308659
 20
-57.36070126802383
 30
0.0
 40
1.0
100
AcDbArc
 50
93.98901511913255
 51
180.0
  0
ARC
  5
49B9
330
21CC
100
AcDbEntity
  8
0
  6
Continuous
100
AcDbCircle
 10
136.0000020414589
 20
57.36070207873877
 30
0.0
 40
1.0
100
AcDbArc
 50
273.9890151191325
 51
0.0
  0
ARC
  5
49BA
330
21CC
100
AcDbEntity
  8
0
  6
Continuous
100
AcDbCircle
 10
144.0000021308659
 20
57.36070207873877
 30
0.0
 40
1.0
100
AcDbArc
 50
180.0
 51
266.0109848808674
  0
LINE
  5
49BB
330
21CC
100
AcDbEntity
  8
0
  6
Continuous
100
AcDbLine
 10
84.31492277302789
 20
38.14999487032105
 30
0.0
 11
6.925595741330994
 21
38.14999487032105
 31
0.0
  0
LINE
  5
49BC
330
21CC
100
AcDbEntity
  8
0
  6
Continuous
100
AcDbLine
 10
0.0000000000001137
 20
45.4999933401275
 30
0.0
 11
-0.0000000000001137
 21
-45.5000066598725
 31
0.0
  0
LINE
  5
49BD
330
21CC
100
AcDbEntity
  8
0
  6
Continuous
100
AcDbLine
 10
2.849999999999795
 20
-42.57620225970936
 30
0.0
 11
2.850000000000022
 21
42.57618893996391
 31
0.0
  0
LINE
  5
49BE
330
21CC
100
AcDbEntity
  8
0
  6
Continuous
100
AcDbLine
 10
5.525180661396348
 20
37.49691409433785
 30
0.0
 11
5.525180257748502
 21
-37.49692853870124
 31
0.0
  0
ARC
  5
49BF
330
21CC
100
AcDbEntity
  8
0
  6
Continuous
100
AcDbCircle
 10
6.925595741330994
 20
40.14999487032105
 30
0.0
 40
2.0
100
AcDbArc
 50
199.9999999999892
 51
270.0
  0
LINE
  5
49C0
330
21CC
100
AcDbEntity
  8
0
  6
Continuous
100
AcDbLine
 10
-0.0000000000001137
 20
45.4999933401275
 30
0.0
 11
2.289833969432152
 21
45.4999933401275
 31
0.0
  0
ARC
  5
49C1
330
21CC
100
AcDbEntity
  8
0
  6
Continuous
100
AcDbCircle
 10
2.289833969432152
 20
44.69999334012732
 30
0.0
 40
0.8
100
AcDbArc
 50
19.99999999998923
 51
90.0
  0
LINE
  5
49C2
330
21CC
100
AcDbEntity
  8
0
  6
Continuous
100
AcDbLine
 10
3.041588066060853
 20
44.97360945478817
 30
0.0
 11
5.046210499759126
 21
39.4659545836696
 31
0.0
  0
LINE
  5
49C3
330
21CC
100
AcDbEntity
  8
0
  6
Continuous
100
AcDbLine
 10
84.31493322686753
 20
-38.15000931839517
 30
0.0
 11
6.925595330652754
 21
-38.15000931839517
 31
0.0
  0
LINE
  5
49C4
330
21CC
100
AcDbEntity
  8
0
  6
Continuous
100
AcDbLine
 10
3.041588066060853
 20
-44.97362277453317
 30
0.0
 11
5.046210089081
 21
-39.46596903174372
 31
0.0
  0
LINE
  5
49C5
330
21CC
100
AcDbEntity
  8
0
  6
Continuous
100
AcDbLine
 10
-0.0000000000001137
 20
-45.5000066598725
 30
0.0
 11
2.289833969432152
 21
-45.5000066598725
 31
0.0
  0
ARC
  5
49C6
330
21CC
100
AcDbEntity
  8
0
  6
Continuous
100
AcDbCircle
 10
2.289833969432152
 20
-44.70000665987277
 30
0.0
 40
0.8
100
AcDbArc
 50
270.0
 51
340.0000000000107
  0
ARC
  5
49C7
330
21CC
100
AcDbEntity
  8
0
  6
Continuous
100
AcDbCircle
 10
6.925595330652754
 20
-40.15000931839518
 30
0.0
 40
2.0
100
AcDbArc
 50
90.0
 51
160.0000000000107
  0
LINE
  5
4D71
330
21CC
100
AcDbEntity
  8
0
  6
Continuous
100
AcDbLine
 10
143.0000020861624
 20
-144.2713641354396
 30
0.0
 11
198.5000020861624
 21
-144.2713641354396
 31
0.0
  0
LINE
  5
4D72
330
21CC
100
AcDbEntity
  8
0
  6
Continuous
100
AcDbLine
 10
198.5000006283556
 20
-144.2713648543047
 30
0.0
 11
207.5000028780481
 21
-147.5470978988203
 31
0.0
  0
LINE
  5
4D73
330
21CC
100
AcDbEntity
  8
0
  6
Continuous
100
AcDbLine
 10
207.5000020861624
 20
-147.5470976063572
 30
0.0
 11
207.5000020861624
 21
-159.4956306645237
 31
0.0
  0
LINE
  5
4D74
330
21CC
100
AcDbEntity
  8
0
  6
Continuous
100
AcDbLine
 10
198.5000006283547
 20
-162.7713634165745
 30
0.0
 11
207.5000028780476
 21
-159.4956303720594
 31
0.0
  0
LINE
  5
4D75
330
21CC
100
AcDbEntity
  8
0
  6
Continuous
100
AcDbLine
 10
143.0000020861624
 20
-162.7713641354396
 30
0.0
 11
198.5000020861624
 21
-162.7713641354396
 31
0.0
  0
LINE
  5
4D76
330
21CC
100
AcDbEntity
  8
0
  6
Continuous
100
AcDbLine
 10
143.0000020861624
 20
-144.2713641354396
 30
0.0
 11
143.0000020861624
 21
-162.7713641354396
 31
0.0
  0
LINE
  5
4D77
330
21CC
100
AcDbEntity
  8
0
  6
Continuous
100
AcDbLine
 10
207.5000020861624
 20
-147.5470976063563
 30
0.0
 11
160.5000020861624
 21
-147.5470976063563
 31
0.0
  0
LINE
  5
4D78
330
21CC
100
AcDbEntity
  8
0
  6
Continuous
100
AcDbLine
 10
207.5000020861624
 20
-159.4956306645228
 30
0.0
 11
160.5000020861624
 21
-159.4956306645228
 31
0.0
  0
LINE
  5
4D79
330
21CC
100
AcDbEntity
  8
0
  6
Continuous
100
AcDbLine
 10
155.0000020861624
 20
-146.5213641354396
 30
0.0
 11
143.0000020861624
 21
-146.5213641354396
 31
0.0
  0
LINE
  5
4D7A
330
21CC
100
AcDbEntity
  8
0
  6
Continuous
100
AcDbLine
 10
155.0000020861624
 20
-160.5213641354396
 30
0.0
 11
143.0000020861624
 21
-160.5213641354396
 31
0.0
  0
LINE
  5
4D7B
330
21CC
100
AcDbEntity
  8
0
  6
CENTER
100
AcDbLine
 10
140.0000020861625
 20
-136.7713641354396
 30
0.0
 11
140.0000020861624
 21
-268.5713533931923
 31
0.0
  0
LINE
  5
4D7C
330
21CC
100
AcDbEntity
  8
0
  6
Continuous
100
AcDbLine
 10
194.5000028982757
 20
-164.5213490405628
 30
0.0
 11
273.0744114132056
 21
-164.5213490405633
 31
0.0
  0
ARC
  5
4D7D
330
21CC
100
AcDbEntity
  8
0
  6
Continuous
100
AcDbCircle
 10
194.5000028982757
 20
-162.5213490107605
 30
0.0
 40
2.000000029802321
100
AcDbArc
 50
187.1811960065463
 51
269.9999956742925
  0
ARC
  5
4D7E
330
21CC
100
AcDbEntity
  8
0
  6
Continuous
100
AcDbCircle
 10
297.7999922305342
 20
-202.6713587643159
 30
0.0
 40
111.9978196620616
100
AcDbArc
 50
161.260420535242
 51
198.7395794647579
  0
LINE
  5
4D7F
330
21CC
100
AcDbEntity
  8
0
  6
Continuous
100
AcDbLine
 10
194.5000028982756
 20
-240.821368488069
 30
0.0
 11
273.0744114132054
 21
-240.821368488069
 31
0.0
  0
LINE
  5
4D80
330
21CC
100
AcDbEntity
  8
0
  6
Continuous
100
AcDbLine
 10
207.5000020861623
 20
-245.847086864109
 30
0.0
 11
160.5000020861623
 21
-245.847086864109
 31
0.0
  0
LINE
  5
4D81
330
21CC
100
AcDbEntity
  8
0
  6
Continuous
100
AcDbLine
 10
207.5000020861623
 20
-257.7956199222755
 30
0.0
 11
160.5000020861623
 21
-257.7956199222755
 31
0.0
  0
LINE
  5
4D82
330
21CC
100
AcDbEntity
  8
0
  6
Continuous
100
AcDbLine
 10
143.0000020861623
 20
-242.5713533931923
 30
0.0
 11
198.5000020861623
 21
-242.5713533931923
 31
0.0
  0
LINE
  5
4D83
330
21CC
100
AcDbEntity
  8
0
  6
Continuous
100
AcDbLine
 10
143.0000020861623
 20
-261.0713533931923
 30
0.0
 11
198.5000020861623
 21
-261.0713533931923
 31
0.0
  0
LINE
  5
4D84
330
21CC
100
AcDbEntity
  8
0
  6
Continuous
100
AcDbLine
 10
198.5000006283546
 20
-242.5713541120574
 30
0.0
 11
207.5000028780475
 21
-245.8470871565725
 31
0.0
  0
LINE
  5
4D85
330
21CC
100
AcDbEntity
  8
0
  6
Continuous
100
AcDbLine
 10
207.5000020861623
 20
-257.7956199222746
 30
0.0
 11
207.5000020861623
 21
-245.8470868641081
 31
0.0
  0
LINE
  5
4D86
330
21CC
100
AcDbEntity
  8
0
  6
Continuous
100
AcDbLine
 10
198.5000006283555
 20
-261.0713526743272
 30
0.0
 11
207.5000028780479
 21
-257.7956196298116
 31
0.0
  0
ARC
  5
4D87
330
21CC
100
AcDbEntity
  8
0
  6
Continuous
100
AcDbCircle
 10
194.5000028982756
 20
-242.8213685178714
 30
0.0
 40
2.000000029802321
100
AcDbArc
 50
90.00000432570741
 51
172.8188039934536
  0
LINE
  5
4D88
330
21CC
100
AcDbEntity
  8
0
  6
Continuous
100
AcDbLine
 10
155.0000020861623
 20
-244.8213533931923
 30
0.0
 11
143.0000020861623
 21
-244.8213533931923
 31
0.0
  0
LINE
  5
4D89
330
21CC
100
AcDbEntity
  8
0
  6
Continuous
100
AcDbLine
 10
155.0000020861623
 20
-258.8213533931923
 30
0.0
 11
143.0000020861623
 21
-258.8213533931923
 31
0.0
  0
LINE
  5
4D8A
330
21CC
100
AcDbEntity
  8
0
  6
Continuous
100
AcDbLine
 10
155.0000020861623
 20
-258.8213533931923
 30
0.0
 11
155.0000020861623
 21
-244.8213533931923
 31
0.0
  0
LINE
  5
4D8B
330
21CC
100
AcDbEntity
  8
0
  6
Continuous
100
AcDbLine
 10
143.0000020861623
 20
-261.0713533931923
 30
0.0
 11
143.0000020861623
 21
-242.5713533931923
 31
0.0
  0
LINE
  5
4D8C
330
21CC
100
AcDbEntity
  8
0
  6
Continuous
100
AcDbLine
 10
280.0000041723247
 20
-248.1713587643159
 30
0.0
 11
277.7101702028927
 21
-248.1713587643159
 31
0.0
  0
LINE
  5
4D8D
330
21CC
100
AcDbEntity
  8
0
  6
Continuous
100
AcDbLine
 10
276.958416106264
 20
-247.6449748789766
 30
0.0
 11
274.9537966547774
 21
-242.1373282014176
 31
0.0
  0
ARC
  5
4D8E
330
21CC
100
AcDbEntity
  8
0
  6
Continuous
100
AcDbCircle
 10
277.7101702028927
 20
-247.3713587643162
 30
0.0
 40
0.8
100
AcDbArc
 50
199.9999999999892
 51
270.0
  0
LINE
  5
4D8F
330
21CC
100
AcDbEntity
  8
0
  6
Continuous
100
AcDbLine
 10
280.0000041723247
 20
-248.1713587643159
 30
0.0
 11
280.000004172325
 21
-157.1713587643159
 31
0.0
  0
LINE
  5
4D90
330
21CC
100
AcDbEntity
  8
0
  6
Continuous
100
AcDbLine
 10
277.1500041723248
 20
-160.0951631644791
 30
0.0
 11
277.1500041723248
 21
-245.2475543641528
 31
0.0
  0
LINE
  5
4D91
330
21CC
100
AcDbEntity
  8
0
  6
Continuous
100
AcDbLine
 10
276.958416106264
 20
-157.6977426496557
 30
0.0
 11
274.9537966547774
 21
-163.2053893272147
 31
0.0
  0
LINE
  5
4D92
330
21CC
100
AcDbEntity
  8
0
  6
Continuous
100
AcDbLine
 10
280.000004172325
 20
-157.1713587643159
 30
0.0
 11
277.7101702028927
 21
-157.1713587643159
 31
0.0
  0
ARC
  5
4D93
330
21CC
100
AcDbEntity
  8
0
  6
Continuous
100
AcDbCircle
 10
277.7101702028927
 20
-157.9713587643161
 30
0.0
 40
0.8
100
AcDbArc
 50
90.0
 51
160.0000000000107
  0
LINE
  5
4D94
330
21CC
100
AcDbEntity
  8
0
  6
Continuous
100
AcDbLine
 10
274.4748264896248
 20
-165.1744298184019
 30
0.0
 11
274.4748264896248
 21
-240.16828771023
 31
0.0
  0
ARC
  5
4D95
330
21CC
100
AcDbEntity
  8
0
  6
Continuous
100
AcDbCircle
 10
273.0744114132056
 20
-162.5213490405633
 30
0.0
 40
2.0
100
AcDbArc
 50
270.0
 51
340.0000000000107
  0
ARC
  5
4D96
330
21CC
100
AcDbEntity
  8
0
  6
Continuous
100
AcDbCircle
 10
273.0744114132054
 20
-242.821368488069
 30
0.0
 40
2.0
100
AcDbArc
 50
19.99999999998923
 51
90.0
  0
LINE
  5
4DB9
330
21CC
100
AcDbEntity
  8
0
  6
Continuous
100
AcDbLine
 10
155.0000020861624
 20
-160.5213641354396
 30
0.0
 11
155.0000020861624
 21
-146.5213641354396
 31
0.0
  0
LINE
  5
4DBA
330
21CC
100
AcDbEntity
  8
0
  6
Continuous
100
AcDbLine
 10
161.5000020861624
 20
-159.7713641354396
 30
0.0
 11
161.5000020861624
 21
-147.2713641354396
 31
0.0
  0
ARC
  5
4DBB
330
21CC
100
AcDbEntity
  8
0
  6
Continuous
100
AcDbCircle
 10
157.5251104235648
 20
-159.1505266354395
 30
0.0
 40
3.752776145935058
100
AcDbArc
 50
330.0000105759246
 51
29.99998942407543
  0
ARC
  5
4DBC
330
21CC
100
AcDbEntity
  8
0
  6
Continuous
100
AcDbCircle
 10
158.9748937487601
 20
-159.1505266354395
 30
0.0
 40
3.752776145935058
100
AcDbArc
 50
150.0000105759245
 51
209.9999894240754
  0
ARC
  5
4DBD
330
21CC
100
AcDbEntity
  8
0
  6
Continuous
100
AcDbCircle
 10
151.4234716296194
 20
-153.5213641354396
 30
0.0
 40
10.07653045654297
100
AcDbArc
 50
338.1346069180819
 51
21.86539308188901
  0
ARC
  5
4DBE
330
21CC
100
AcDbEntity
  8
0
  6
Continuous
100
AcDbCircle
 10
157.5251104235648
 20
-147.8922016354397
 30
0.0
 40
3.752776145935058
100
AcDbArc
 50
330.0000105759246
 51
29.99998942407543
  0
LINE
  5
4DBF
330
21CC
100
AcDbEntity
  8
0
  6
Continuous
100
AcDbLine
 10
160.7751102936623
 20
-146.0158141354393
 30
0.0
 11
161.5000020861624
 21
-147.2713641354396
 31
0.0
  0
LINE
  5
4DC0
330
21CC
100
AcDbEntity
  8
0
  6
Continuous
100
AcDbLine
 10
155.7248938786625
 20
-146.0158141354393
 30
0.0
 11
155.0000020861624
 21
-147.2713641354396
 31
0.0
  0
ARC
  5
4DC1
330
21CC
100
AcDbEntity
  8
0
  6
Continuous
100
AcDbCircle
 10
158.9748937487601
 20
-147.8922016354397
 30
0.0
 40
3.752776145935058
100
AcDbArc
 50
150.0000105759245
 51
209.9999894240754
  0
LINE
  5
4DC2
330
21CC
100
AcDbEntity
  8
0
  6
Continuous
100
AcDbLine
 10
155.7248939408613
 20
-146.0158141354393
 30
0.0
 11
160.7751102936623
 21
-146.0158141354393
 31
0.0
  0
ARC
  5
4DC3
330
21CC
100
AcDbEntity
  8
0
  6
Continuous
100
AcDbCircle
 10
165.0765325427054
 20
-153.5213641354396
 30
0.0
 40
10.07653045654297
100
AcDbArc
 50
158.1346069180819
 51
201.865393081889
  0
LINE
  5
4DC4
330
21CC
100
AcDbEntity
  8
0
  6
Continuous
100
AcDbLine
 10
155.7248939408613
 20
-149.7685891354397
 30
0.0
 11
160.7751102936623
 21
-149.7685891354397
 31
0.0
  0
LINE
  5
4DC5
330
21CC
100
AcDbEntity
  8
0
  6
Continuous
100
AcDbLine
 10
155.7248938712739
 20
-157.2741391354395
 30
0.0
 11
160.7751102936623
 21
-157.2741391354395
 31
0.0
  0
LINE
  5
4DC6
330
21CC
100
AcDbEntity
  8
0
  6
Continuous
100
AcDbLine
 10
160.7751102936623
 20
-161.0269141354394
 30
0.0
 11
161.5000020861624
 21
-159.7713641354396
 31
0.0
  0
LINE
  5
4DC7
330
21CC
100
AcDbEntity
  8
0
  6
Continuous
100
AcDbLine
 10
155.7248939408613
 20
-161.0269141354394
 30
0.0
 11
160.7751102936623
 21
-161.0269141354394
 31
0.0
  0
LINE
  5
4DC8
330
21CC
100
AcDbEntity
  8
0
  6
Continuous
100
AcDbLine
 10
155.7248938786625
 20
-161.0269141354394
 30
0.0
 11
155.0000020861624
 21
-159.7713641354396
 31
0.0
  0
LINE
  5
4DC9
330
21CC
100
AcDbEntity
  8
0
  6
Continuous
100
AcDbLine
 10
168.000002197921
 20
-157.5213641950442
 30
0.0
 11
163.5000021159647
 21
-157.5213641950442
 31
0.0
  0
LINE
  5
4DCA
330
21CC
100
AcDbEntity
  8
0
  6
Continuous
100
AcDbLine
 10
163.5000021159647
 20
-158.5213642099454
 30
0.0
 11
163.5000021159647
 21
-148.5213640609338
 31
0.0
  0
LINE
  5
4DCB
330
21CC
100
AcDbEntity
  8
0
  6
Continuous
100
AcDbLine
 10
169.000002197921
 20
-156.5213641950442
 30
0.0
 11
169.000002197921
 21
-150.5213640758349
 31
0.0
  0
LINE
  5
4DCC
330
21CC
100
AcDbEntity
  8
0
  6
Continuous
100
AcDbLine
 10
162.5000021010636
 20
-159.5213642248466
 30
0.0
 11
161.5000020861624
 21
-159.5213642248466
 31
0.0
  0
LINE
  5
4DCD
330
21CC
100
AcDbEntity
  8
0
  6
Continuous
100
AcDbLine
 10
162.5000021010636
 20
-147.5213640460326
 30
0.0
 11
161.5000020861624
 21
-147.5213640460326
 31
0.0
  0
LINE
  5
4DCE
330
21CC
100
AcDbEntity
  8
0
  6
Continuous
100
AcDbLine
 10
168.000002197921
 20
-149.5213640758349
 30
0.0
 11
163.5000021159647
 21
-149.5213640758349
 31
0.0
  0
ARC
  5
4DCF
330
21CC
100
AcDbEntity
  8
0
  6
Continuous
100
AcDbCircle
 10
162.5000021010636
 20
-158.5213642099454
 30
0.0
 40
1.00000001490116
100
AcDbArc
 50
270.0000043257074
 51
0.000005008963459
  0
ARC
  5
4DD0
330
21CC
100
AcDbEntity
  8
0
  6
Continuous
100
AcDbCircle
 10
162.5000021010636
 20
-148.5213640609338
 30
0.0
 40
1.00000001490116
100
AcDbArc
 50
359.9999949910365
 51
89.99999567428604
  0
LINE
  5
4DD1
330
21CC
100
AcDbEntity
  8
0
  6
Continuous
100
AcDbLine
 10
169.000002197921
 20
-150.5213640758349
 30
0.0
 11
163.5000021159647
 21
-150.5213640758349
 31
0.0
  0
LINE
  5
4DD2
330
21CC
100
AcDbEntity
  8
0
  6
Continuous
100
AcDbLine
 10
168.000002197921
 20
-157.5213641950442
 30
0.0
 11
168.000002197921
 21
-149.5213640758349
 31
0.0
  0
LINE
  5
4DD3
330
21CC
100
AcDbEntity
  8
0
  6
Continuous
100
AcDbLine
 10
169.000002197921
 20
-156.5213641950442
 30
0.0
 11
163.5000021159647
 21
-156.5213641950442
 31
0.0
  0
LINE
  5
4DD4
330
21CC
100
AcDbEntity
  8
0
  6
Continuous
100
AcDbLine
 10
169.000002197921
 20
-150.5213640758349
 30
0.0
 11
168.000002197921
 21
-149.5213640758349
 31
0.0
  0
LINE
  5
4DD5
330
21CC
100
AcDbEntity
  8
0
  6
Continuous
100
AcDbLine
 10
169.000002197921
 20
-156.5213641950442
 30
0.0
 11
168.000002197921
 21
-157.5213641950442
 31
0.0
  0
LINE
  5
4DD6
330
21CC
100
AcDbEntity
  8
0
  6
Continuous
100
AcDbLine
 10
161.5000020861623
 20
-258.0713533931923
 30
0.0
 11
161.5000020861623
 21
-245.5713533931923
 31
0.0
  0
ARC
  5
4DD7
330
21CC
100
AcDbEntity
  8
0
  6
Continuous
100
AcDbCircle
 10
157.5251104235646
 20
-257.4505158931922
 30
0.0
 40
3.752776145935058
100
AcDbArc
 50
330.0000105759246
 51
29.99998942407543
  0
ARC
  5
4DD8
330
21CC
100
AcDbEntity
  8
0
  6
Continuous
100
AcDbCircle
 10
158.9748937487599
 20
-257.4505158931922
 30
0.0
 40
3.752776145935058
100
AcDbArc
 50
150.0000105759245
 51
209.9999894240754
  0
ARC
  5
4DD9
330
21CC
100
AcDbEntity
  8
0
  6
Continuous
100
AcDbCircle
 10
151.4234716296193
 20
-251.8213533931923
 30
0.0
 40
10.07653045654297
100
AcDbArc
 50
338.1346069180819
 51
21.86539308188901
  0
ARC
  5
4DDA
330
21CC
100
AcDbEntity
  8
0
  6
Continuous
100
AcDbCircle
 10
157.5251104235646
 20
-246.1921908931924
 30
0.0
 40
3.752776145935058
100
AcDbArc
 50
330.0000105759246
 51
29.99998942407543
  0
LINE
  5
4DDB
330
21CC
100
AcDbEntity
  8
0
  6
Continuous
100
AcDbLine
 10
160.7751102936622
 20
-244.315803393192
 30
0.0
 11
161.5000020861623
 21
-245.5713533931923
 31
0.0
  0
LINE
  5
4DDC
330
21CC
100
AcDbEntity
  8
0
  6
Continuous
100
AcDbLine
 10
155.7248938786624
 20
-244.315803393192
 30
0.0
 11
155.0000020861623
 21
-245.5713533931923
 31
0.0
  0
ARC
  5
4DDD
330
21CC
100
AcDbEntity
  8
0
  6
Continuous
100
AcDbCircle
 10
158.9748937487599
 20
-246.1921908931924
 30
0.0
 40
3.752776145935058
100
AcDbArc
 50
150.0000105759245
 51
209.9999894240754
  0
LINE
  5
4DDE
330
21CC
100
AcDbEntity
  8
0
  6
Continuous
100
AcDbLine
 10
155.7248939408613
 20
-244.315803393192
 30
0.0
 11
160.7751102936622
 21
-244.315803393192
 31
0.0
  0
ARC
  5
4DDF
330
21CC
100
AcDbEntity
  8
0
  6
Continuous
100
AcDbCircle
 10
165.0765325427053
 20
-251.8213533931923
 30
0.0
 40
10.07653045654297
100
AcDbArc
 50
158.1346069180819
 51
201.865393081889
  0
LINE
  5
4DE0
330
21CC
100
AcDbEntity
  8
0
  6
Continuous
100
AcDbLine
 10
155.7248939408613
 20
-248.0685783931924
 30
0.0
 11
160.7751102936622
 21
-248.0685783931924
 31
0.0
  0
LINE
  5
4DE1
330
21CC
100
AcDbEntity
  8
0
  6
Continuous
100
AcDbLine
 10
155.7248938712738
 20
-255.5741283931922
 30
0.0
 11
160.7751102936622
 21
-255.5741283931922
 31
0.0
  0
LINE
  5
4DE2
330
21CC
100
AcDbEntity
  8
0
  6
Continuous
100
AcDbLine
 10
160.7751102936622
 20
-259.3269033931921
 30
0.0
 11
161.5000020861623
 21
-258.0713533931923
 31
0.0
  0
LINE
  5
4DE3
330
21CC
100
AcDbEntity
  8
0
  6
Continuous
100
AcDbLine
 10
155.7248939408613
 20
-259.3269033931921
 30
0.0
 11
160.7751102936622
 21
-259.3269033931921
 31
0.0
  0
LINE
  5
4DE4
330
21CC
100
AcDbEntity
  8
0
  6
Continuous
100
AcDbLine
 10
155.7248938786624
 20
-259.3269033931921
 30
0.0
 11
155.0000020861623
 21
-258.0713533931923
 31
0.0
  0
LINE
  5
4DE5
330
21CC
100
AcDbEntity
  8
0
  6
Continuous
100
AcDbLine
 10
168.0000021979209
 20
-255.8213534527969
 30
0.0
 11
163.5000021159646
 21
-255.8213534527969
 31
0.0
  0
LINE
  5
4DE6
330
21CC
100
AcDbEntity
  8
0
  6
Continuous
100
AcDbLine
 10
163.5000021159646
 20
-256.8213534676981
 30
0.0
 11
163.5000021159646
 21
-246.8213533186865
 31
0.0
  0
LINE
  5
4DE7
330
21CC
100
AcDbEntity
  8
0
  6
Continuous
100
AcDbLine
 10
169.0000021979209
 20
-254.8213534527969
 30
0.0
 11
169.0000021979209
 21
-248.8213533335876
 31
0.0
  0
LINE
  5
4DE8
330
21CC
100
AcDbEntity
  8
0
  6
Continuous
100
AcDbLine
 10
162.5000021010635
 20
-257.8213534825993
 30
0.0
 11
161.5000020861623
 21
-257.8213534825993
 31
0.0
  0
LINE
  5
4DE9
330
21CC
100
AcDbEntity
  8
0
  6
Continuous
100
AcDbLine
 10
162.5000021010635
 20
-245.8213533037853
 30
0.0
 11
161.5000020861623
 21
-245.8213533037853
 31
0.0
  0
LINE
  5
4DEA
330
21CC
100
AcDbEntity
  8
0
  6
Continuous
100
AcDbLine
 10
168.0000021979209
 20
-247.8213533335877
 30
0.0
 11
163.5000021159646
 21
-247.8213533335877
 31
0.0
  0
ARC
  5
4DEB
330
21CC
100
AcDbEntity
  8
0
  6
Continuous
100
AcDbCircle
 10
162.5000021010635
 20
-256.8213534676981
 30
0.0
 40
1.00000001490116
100
AcDbArc
 50
270.0000043257074
 51
0.000005008963459
  0
ARC
  5
4DEC
330
21CC
100
AcDbEntity
  8
0
  6
Continuous
100
AcDbCircle
 10
162.5000021010635
 20
-246.8213533186865
 30
0.0
 40
1.00000001490116
100
AcDbArc
 50
359.9999949910365
 51
89.99999567428604
  0
LINE
  5
4DED
330
21CC
100
AcDbEntity
  8
0
  6
Continuous
100
AcDbLine
 10
169.0000021979209
 20
-248.8213533335876
 30
0.0
 11
163.5000021159646
 21
-248.8213533335876
 31
0.0
  0
LINE
  5
4DEE
330
21CC
100
AcDbEntity
  8
0
  6
Continuous
100
AcDbLine
 10
168.0000021979209
 20
-255.8213534527969
 30
0.0
 11
168.0000021979209
 21
-247.8213533335877
 31
0.0
  0
LINE
  5
4DEF
330
21CC
100
AcDbEntity
  8
0
  6
Continuous
100
AcDbLine
 10
169.0000021979209
 20
-254.8213534527969
 30
0.0
 11
163.5000021159646
 21
-254.8213534527969
 31
0.0
  0
LINE
  5
4DF0
330
21CC
100
AcDbEntity
  8
0
  6
Continuous
100
AcDbLine
 10
169.0000021979209
 20
-248.8213533335876
 30
0.0
 11
168.0000021979209
 21
-247.8213533335877
 31
0.0
  0
LINE
  5
4DF1
330
21CC
100
AcDbEntity
  8
0
  6
Continuous
100
AcDbLine
 10
169.0000021979209
 20
-254.8213534527969
 30
0.0
 11
168.0000021979209
 21
-255.8213534527969
 31
0.0
  0
ENDSEC
  0
SECTION
  2
OBJECTS
  0
DICTIONARY
  5
21BA
330
0
100
AcDbDictionary
281
     1
  3
ACAD_GROUP
350
21BB
  3
ACAD_LAYOUT
350
21C7
  3
ACAD_MLINESTYLE
350
21C4
  3
ACAD_PLOTSETTINGS
350
21C6
  3
ACAD_PLOTSTYLENAME
350
21BC
  3
AcDbVariableDictionary
350
2238
  0
DICTIONARY
  5
2244
330
21B0
100
AcDbDictionary
280
     1
281
     1
  3
ACAD_LAYERSTATES
360
2245
  0
DICTIONARY
  5
21F8
330
21CC
100
AcDbDictionary
280
     1
281
     1
  3
ACAD_LAYOUTSELFREF
360
2227
  0
DICTIONARY
  5
21FA
330
21C8
100
AcDbDictionary
280
     1
281
     1
  3
ACAD_LAYOUTSELFREF
360
2226
  0
DICTIONARY
  5
21BB
102
{ACAD_REACTORS
330
21BA
102
}
330
21BA
100
AcDbDictionary
281
     1
  0
DICTIONARY
  5
21C7
102
{ACAD_REACTORS
330
21BA
102
}
330
21BA
100
AcDbDictionary
281
     1
  3
Model
350
21CF
  3
ﾚｲｱｳﾄ1
350
21CB
  0
DICTIONARY
  5
21C4
102
{ACAD_REACTORS
330
21BA
102
}
330
21BA
100
AcDbDictionary
281
     1
  3
Standard
350
21C5
  0
DICTIONARY
  5
21C6
102
{ACAD_REACTORS
330
21BA
102
}
330
21BA
100
AcDbDictionary
281
     1
  0
ACDBDICTIONARYWDFLT
  5
21BC
102
{ACAD_REACTORS
330
21BA
102
}
330
21BA
100
AcDbDictionary
281
     1
  3
Normal
350
21BD
100
AcDbDictionaryWithDefault
340
21BD
  0
DICTIONARY
  5
2238
102
{ACAD_REACTORS
330
21BA
102
}
330
21BA
100
AcDbDictionary
281
     1
  3
DIMASSOC
350
2239
  0
DICTIONARY
  5
2245
102
{ACAD_REACTORS
330
2244
102
}
330
2244
100
AcDbDictionary
281
     1
  0
XRECORD
  5
2227
102
{ACAD_REACTORS
330
21F8
102
}
330
21F8
100
AcDbXrecord
280
     1
340
21CC
  0
XRECORD
  5
2226
102
{ACAD_REACTORS
330
21FA
102
}
330
21FA
100
AcDbXrecord
280
     1
340
21C8
  0
LAYOUT
  5
21CF
102
{ACAD_REACTORS
330
21C7
102
}
330
21C7
100
AcDbPlotSettings
  1

  2
SII LP-2150 (D-SCAN C2)
  4

  6

 40
0.0
 41
0.0
 42
0.0
 43
0.0
 44
0.0
 45
0.0
 46
0.0
 47
0.0
 48
0.0
 49
0.0
140
0.0
141
0.0
142
1.0
143
1.0
 70
  1712
 72
     0
 73
     0
 74
     0
  7

 75
     0
147
1.0
148
0.0
149
0.0
100
AcDbLayout
  1
Model
 70
     1
 71
     0
 10
0.0
 20
0.0
 11
12.0
 21
9.0
 12
0.0
 22
0.0
 32
0.0
 14
0.0
 24
0.0
 34
0.0
 15
0.0
 25
0.0
 35
0.0
146
0.0
 13
0.0
 23
0.0
 33
0.0
 16
1.0
 26
0.0
 36
0.0
 17
0.0
 27
1.0
 37
0.0
 76
     0
330
21CC
  0
LAYOUT
  5
21CB
102
{ACAD_REACTORS
330
21C7
102
}
330
21C7
100
AcDbPlotSettings
  1

  2
SII LP-2150 (D-SCAN C2)
  4

  6

 40
0.0
 41
0.0
 42
0.0
 43
0.0
 44
0.0
 45
0.0
 46
0.0
 47
0.0
 48
0.0
 49
0.0
140
0.0
141
0.0
142
1.0
143
1.0
 70
   688
 72
     0
 73
     0
 74
     5
  7

 75
    16
147
1.0
148
0.0
149
0.0
100
AcDbLayout
  1
ﾚｲｱｳﾄ1
 70
     1
 71
     1
 10
0.0
 20
0.0
 11
12.0
 21
9.0
 12
0.0
 22
0.0
 32
0.0
 14
1.000000000000000E+20
 24
1.000000000000000E+20
 34
1.000000000000000E+20
 15
-1.000000000000000E+20
 25
-1.000000000000000E+20
 35
-1.000000000000000E+20
146
0.0
 13
0.0
 23
0.0
 33
0.0
 16
1.0
 26
0.0
 36
0.0
 17
0.0
 27
1.0
 37
0.0
 76
     0
330
21C8
  0
MLINESTYLE
  5
21C5
102
{ACAD_REACTORS
330
21C4
102
}
330
21C4
100
AcDbMlineStyle
  2
STANDARD
 70
     0
  3

 62
   256
 51
90.0
 52
90.0
 71
     2
 49
0.5
 62
   256
  6
BYLAYER
 49
-0.5
 62
   256
  6
BYLAYER
  0
ACDBPLACEHOLDER
  5
21BD
102
{ACAD_REACTORS
330
21BC
102
}
330
21BC
  0
DICTIONARYVAR
  5
2239
102
{ACAD_REACTORS
330
2238
102
}
330
2238
100
DictionaryVariables
280
     0
  1
1
  0
ENDSEC
  0
EOF
