  0
SECTION
  2
HEADER
  9
$ACADVER
  1
AC1015
  9
$ACADMAINTVER
 70
    14
  9
$DWGCODEPAGE
  3
ANSI_932
  9
$INSBASE
 10
0.0
 20
0.0
 30
0.0
  9
$EXTMIN
 10
-7.235487629456656
 20
-194.1684888311141
 30
-0.0000000000112498
  9
$EXTMAX
 10
397.3718015868787
 20
198.0251013665642
 30
0.0000000000002956
  9
$LIMMIN
 10
0.0
 20
0.0
  9
$LIMMAX
 10
12.0
 20
9.0
  9
$ORTHOMODE
 70
     0
  9
$REGENMODE
 70
     1
  9
$FILLMODE
 70
     1
  9
$QTEXTMODE
 70
     0
  9
$MIRRTEXT
 70
     1
  9
$LTSCALE
 40
1.0
  9
$ATTMODE
 70
     1
  9
$TEXTSIZE
 40
0.2
  9
$TRACEWID
 40
0.05
  9
$TEXTSTYLE
  7
STANDARD
  9
$CLAYER
  8
0
  9
$CELTYPE
  6
CONTINUOUS
  9
$CECOLOR
 62
   256
  9
$CELTSCALE
 40
1.0
  9
$DISPSILH
 70
     0
  9
$DIMSCALE
 40
1.0
  9
$DIMASZ
 40
1.0
  9
$DIMEXO
 40
2.54
  9
$DIMDLI
 40
0.38
  9
$DIMRND
 40
0.0
  9
$DIMDLE
 40
0.0
  9
$DIMEXE
 40
2.54
  9
$DIMTP
 40
0.0
  9
$DIMTM
 40
0.0
  9
$DIMTXT
 40
3.2
  9
$DIMCEN
 40
0.09
  9
$DIMTSZ
 40
0.0
  9
$DIMTOL
 70
     0
  9
$DIMLIM
 70
     0
  9
$DIMTIH
 70
     0
  9
$DIMTOH
 70
     0
  9
$DIMSE1
 70
     0
  9
$DIMSE2
 70
     0
  9
$DIMTAD
 70
     1
  9
$DIMZIN
 70
     0
  9
$DIMBLK
  1

  9
$DIMASO
 70
     1
  9
$DIMSHO
 70
     0
  9
$DIMPOST
  1

  9
$DIMAPOST
  1

  9
$DIMALT
 70
     0
  9
$DIMALTD
 70
     2
  9
$DIMALTF
 40
25.4
  9
$DIMLFAC
 40
1.0
  9
$DIMTOFL
 70
     0
  9
$DIMTVP
 40
1.0
  9
$DIMTIX
 70
     0
  9
$DIMSOXD
 70
     0
  9
$DIMSAH
 70
     1
  9
$DIMBLK1
  1

  9
$DIMBLK2
  1

  9
$DIMSTYLE
  2
STANDARD
  9
$DIMCLRD
 70
     0
  9
$DIMCLRE
 70
     0
  9
$DIMCLRT
 70
     0
  9
$DIMTFAC
 40
1.0
  9
$DIMGAP
 40
1.6
  9
$DIMJUST
 70
     0
  9
$DIMSD1
 70
     0
  9
$DIMSD2
 70
     0
  9
$DIMTOLJ
 70
     1
  9
$DIMTZIN
 70
     0
  9
$DIMALTZ
 70
     0
  9
$DIMALTTZ
 70
     0
  9
$DIMUPT
 70
     0
  9
$DIMDEC
 70
     4
  9
$DIMTDEC
 70
     4
  9
$DIMALTU
 70
     2
  9
$DIMALTTD
 70
     2
  9
$DIMTXSTY
  7
STANDARD
  9
$DIMAUNIT
 70
     0
  9
$DIMADEC
 70
     0
  9
$DIMALTRND
 40
0.0
  9
$DIMAZIN
 70
     0
  9
$DIMDSEP
 70
    46
  9
$DIMATFIT
 70
     3
  9
$DIMFRAC
 70
     0
  9
$DIMLDRBLK
  1

  9
$DIMLUNIT
 70
     2
  9
$DIMLWD
 70
    -2
  9
$DIMLWE
 70
    -2
  9
$DIMTMOVE
 70
     0
  9
$LUNITS
 70
     2
  9
$LUPREC
 70
     4
  9
$SKETCHINC
 40
0.1
  9
$FILLETRAD
 40
0.0
  9
$AUNITS
 70
     0
  9
$AUPREC
 70
     0
  9
$MENU
  1
.
  9
$ELEVATION
 40
0.0
  9
$PELEVATION
 40
0.0
  9
$THICKNESS
 40
0.0
  9
$LIMCHECK
 70
     0
  9
$CHAMFERA
 40
0.0
  9
$CHAMFERB
 40
0.0
  9
$CHAMFERC
 40
0.0
  9
$CHAMFERD
 40
0.0
  9
$SKPOLY
 70
     0
  9
$TDCREATE
 40
2452488.423138738
  9
$TDUCREATE
 40
2452488.048138738
  9
$TDUPDATE
 40
2456906.721082071
  9
$TDUUPDATE
 40
2456906.346082071
  9
$TDINDWG
 40
0.2866804282
  9
$TDUSRTIMER
 40
0.2866802431
  9
$USRTIMER
 70
     1
  9
$ANGBASE
 50
0.0
  9
$ANGDIR
 70
     0
  9
$PDMODE
 70
     3
  9
$PDSIZE
 40
0.0
  9
$PLINEWID
 40
0.0
  9
$SPLFRAME
 70
     0
  9
$SPLINETYPE
 70
     6
  9
$SPLINESEGS
 70
     8
  9
$HANDSEED
  5
4F3E
  9
$SURFTAB1
 70
     6
  9
$SURFTAB2
 70
     6
  9
$SURFTYPE
 70
     6
  9
$SURFU
 70
     6
  9
$SURFV
 70
     6
  9
$UCSBASE
  2

  9
$UCSNAME
  2

  9
$UCSORG
 10
0.0
 20
0.0
 30
0.0
  9
$UCSXDIR
 10
1.0
 20
0.0
 30
0.0
  9
$UCSYDIR
 10
0.0
 20
1.0
 30
0.0
  9
$UCSORTHOREF
  2

  9
$UCSORTHOVIEW
 70
     0
  9
$UCSORGTOP
 10
0.0
 20
0.0
 30
0.0
  9
$UCSORGBOTTOM
 10
0.0
 20
0.0
 30
0.0
  9
$UCSORGLEFT
 10
0.0
 20
0.0
 30
0.0
  9
$UCSORGRIGHT
 10
0.0
 20
0.0
 30
0.0
  9
$UCSORGFRONT
 10
0.0
 20
0.0
 30
0.0
  9
$UCSORGBACK
 10
0.0
 20
0.0
 30
0.0
  9
$PUCSBASE
  2

  9
$PUCSNAME
  2

  9
$PUCSORG
 10
0.0
 20
0.0
 30
0.0
  9
$PUCSXDIR
 10
1.0
 20
0.0
 30
0.0
  9
$PUCSYDIR
 10
0.0
 20
1.0
 30
0.0
  9
$PUCSORTHOREF
  2

  9
$PUCSORTHOVIEW
 70
     0
  9
$PUCSORGTOP
 10
0.0
 20
0.0
 30
0.0
  9
$PUCSORGBOTTOM
 10
0.0
 20
0.0
 30
0.0
  9
$PUCSORGLEFT
 10
0.0
 20
0.0
 30
0.0
  9
$PUCSORGRIGHT
 10
0.0
 20
0.0
 30
0.0
  9
$PUCSORGFRONT
 10
0.0
 20
0.0
 30
0.0
  9
$PUCSORGBACK
 10
0.0
 20
0.0
 30
0.0
  9
$USERI1
 70
     0
  9
$USERI2
 70
     0
  9
$USERI3
 70
     0
  9
$USERI4
 70
     0
  9
$USERI5
 70
     0
  9
$USERR1
 40
0.0
  9
$USERR2
 40
0.0
  9
$USERR3
 40
0.0
  9
$USERR4
 40
0.0
  9
$USERR5
 40
0.0
  9
$WORLDVIEW
 70
     1
  9
$SHADEDGE
 70
     3
  9
$SHADEDIF
 70
    70
  9
$TILEMODE
 70
     1
  9
$MAXACTVP
 70
    48
  9
$PINSBASE
 10
0.0
 20
0.0
 30
0.0
  9
$PLIMCHECK
 70
     0
  9
$PEXTMIN
 10
1.000000000000000E+20
 20
1.000000000000000E+20
 30
1.000000000000000E+20
  9
$PEXTMAX
 10
-1.000000000000000E+20
 20
-1.000000000000000E+20
 30
-1.000000000000000E+20
  9
$PLIMMIN
 10
0.0
 20
0.0
  9
$PLIMMAX
 10
12.0
 20
9.0
  9
$UNITMODE
 70
     0
  9
$VISRETAIN
 70
     1
  9
$PLINEGEN
 70
     0
  9
$PSLTSCALE
 70
     1
  9
$TREEDEPTH
 70
  3020
  9
$CMLSTYLE
  2
Standard
  9
$CMLJUST
 70
     0
  9
$CMLSCALE
 40
1.0
  9
$PROXYGRAPHICS
 70
     1
  9
$MEASUREMENT
 70
     0
  9
$CELWEIGHT
370
    -1
  9
$ENDCAPS
280
     0
  9
$JOINSTYLE
280
     0
  9
$LWDISPLAY
290
     0
  9
$INSUNITS
 70
     0
  9
$HYPERLINKBASE
  1

  9
$STYLESHEET
  1

  9
$XEDIT
290
     1
  9
$CEPSNTYPE
380
     0
  9
$PSTYLEMODE
290
     1
  9
$FINGERPRINTGUID
  2
{FFE95C04-33D2-4560-80D0-1E2918E4EC86}
  9
$VERSIONGUID
  2
{38F84D30-ADF0-45C2-A065-4D3C16AF293F}
  9
$EXTNAMES
290
     1
  9
$PSVPSCALE
 40
0.0
  9
$OLESTARTUP
290
     0
  0
ENDSEC
  0
SECTION
  2
CLASSES
  0
CLASS
  1
ACDBDICTIONARYWDFLT
  2
AcDbDictionaryWithDefault
  3
AutoCAD 2000
 90
        0
280
     0
281
     0
  0
CLASS
  1
ACDBPLACEHOLDER
  2
AcDbPlaceHolder
  3
AutoCAD 2000
 90
        0
280
     0
281
     0
  0
CLASS
  1
LAYOUT
  2
AcDbLayout
  3
AutoCAD 2000
 90
        0
280
     0
281
     0
  0
CLASS
  1
DICTIONARYVAR
  2
AcDbDictionaryVar
  3
AutoCAD 2000
 90
        0
280
     0
281
     0
  0
CLASS
  1
LONG_TRANSACTION
  2
AcDbLongTransaction
  3
AutoCAD 2000
 90
    32768
280
     0
281
     0
  0
CLASS
  1
LWPOLYLINE
  2
AcDbPolyline
  3
AutoCAD 2000
 90
    32768
280
     0
281
     1
  0
CLASS
  1
HATCH
  2
AcDbHatch
  3
AutoCAD 2000
 90
    32768
280
     0
281
     1
  0
CLASS
  1
XRECORD
  2
AcDbXrecord
  3
AutoCAD 2000
 90
    32768
280
     0
281
     0
  0
ENDSEC
  0
SECTION
  2
TABLES
  0
TABLE
  2
VPORT
  5
21B6
330
0
100
AcDbSymbolTable
 70
     2
  0
VPORT
  5
4F3D
330
21B6
100
AcDbSymbolTableRecord
100
AcDbViewportTableRecord
  2
*Active
 70
     0
 10
0.0
 20
0.0
 11
1.0
 21
1.0
 12
195.068156978711
 22
1.928306267725076
 13
0.0
 23
0.0
 14
1.0
 24
1.0
 15
0.0
 25
0.0
 16
0.0
 26
0.0
 36
1.0
 17
0.0
 27
0.0
 37
0.0
 40
394.6837082306795
 41
1.953389830508474
 42
50.0
 43
0.0
 44
0.0
 50
0.0
 51
0.0
 71
     0
 72
   100
 73
     1
 74
     3
 75
     0
 76
     0
 77
     0
 78
     0
281
     0
 65
     1
110
0.0
120
0.0
130
0.0
111
1.0
121
0.0
131
0.0
112
0.0
122
1.0
132
0.0
 79
     0
146
0.0
  0
ENDTAB
  0
TABLE
  2
LTYPE
  5
21B3
330
0
100
AcDbSymbolTable
 70
     2
  0
LTYPE
  5
21C1
330
21B3
100
AcDbSymbolTableRecord
100
AcDbLinetypeTableRecord
  2
ByBlock
 70
     0
  3

 72
    65
 73
     0
 40
0.0
  0
LTYPE
  5
21C2
330
21B3
100
AcDbSymbolTableRecord
100
AcDbLinetypeTableRecord
  2
ByLayer
 70
     0
  3

 72
    65
 73
     0
 40
0.0
  0
LTYPE
  5
21C3
330
21B3
100
AcDbSymbolTableRecord
100
AcDbLinetypeTableRecord
  2
CONTINUOUS
 70
     0
  3
Solid line
 72
    65
 73
     0
 40
0.0
  0
LTYPE
  5
21D1
330
21B3
100
AcDbSymbolTableRecord
100
AcDbLinetypeTableRecord
  2
CENTER
 70
     0
  3
__ . __
 72
    65
 73
     4
 40
7.0
 49
4.0
 74
     0
 49
-1.0
 74
     0
 49
1.0
 74
     0
 49
-1.0
 74
     0
  0
ENDTAB
  0
TABLE
  2
LAYER
  5
21B0
102
{ACAD_XDICTIONARY
360
2244
102
}
330
0
100
AcDbSymbolTable
 70
     1
  0
LAYER
  5
21BE
330
21B0
100
AcDbSymbolTableRecord
100
AcDbLayerTableRecord
  2
0
 70
     0
 62
     7
  6
CONTINUOUS
370
    -3
390
21BD
  0
ENDTAB
  0
TABLE
  2
STYLE
  5
21B1
330
0
100
AcDbSymbolTable
 70
     1
  0
STYLE
  5
21BF
330
21B1
100
AcDbSymbolTableRecord
100
AcDbTextStyleTableRecord
  2
STANDARD
 70
     0
 40
0.0
 41
1.0
 50
0.0
 71
     0
 42
0.2
  3
txt
  4
BIGFONT
  0
ENDTAB
  0
TABLE
  2
VIEW
  5
21B4
330
0
100
AcDbSymbolTable
 70
     1
  0
VIEW
  5
21DE
330
21B4
100
AcDbSymbolTableRecord
100
AcDbViewTableRecord
  2
OLE1
 70
     0
 40
3692.141019219747
 10
1914.591370701856
 20
1272.206200738182
 41
4595.022665841169
 11
0.0
 21
0.0
 31
1.0
 12
0.0
 22
0.0
 32
0.0
 42
50.0
 43
0.0
 44
0.0
 50
0.0
 71
     0
281
     0
 72
     1
110
0.0
120
0.0
130
0.0
111
1.0
121
0.0
131
0.0
112
0.0
122
1.0
132
0.0
 79
     0
146
0.0
  0
ENDTAB
  0
TABLE
  2
UCS
  5
21B5
330
0
100
AcDbSymbolTable
 70
     0
  0
ENDTAB
  0
TABLE
  2
APPID
  5
21B7
330
0
100
AcDbSymbolTable
 70
     8
  0
APPID
  5
21C0
330
21B7
100
AcDbSymbolTableRecord
100
AcDbRegAppTableRecord
  2
ACAD
 70
     0
  0
APPID
  5
21DF
330
21B7
100
AcDbSymbolTableRecord
100
AcDbRegAppTableRecord
  2
MCAD_NO_VIS
 70
     0
  0
APPID
  5
21E0
330
21B7
100
AcDbSymbolTableRecord
100
AcDbRegAppTableRecord
  2
ACAD_TEMP_GRAPHIC
 70
     0
  0
APPID
  5
21E1
330
21B7
100
AcDbSymbolTableRecord
100
AcDbRegAppTableRecord
  2
ACATTRIBSERVICES
 70
     0
  0
APPID
  5
21E2
330
21B7
100
AcDbSymbolTableRecord
100
AcDbRegAppTableRecord
  2
CONTENTBLOCKICON
 70
     0
  0
APPID
  5
2241
330
21B7
100
AcDbSymbolTableRecord
100
AcDbRegAppTableRecord
  2
ACAD_DSTYLE_DIMJAG
 70
     0
  0
APPID
  5
2242
330
21B7
100
AcDbSymbolTableRecord
100
AcDbRegAppTableRecord
  2
ACAD_DSTYLE_DIMTALN
 70
     0
  0
APPID
  5
2243
330
21B7
100
AcDbSymbolTableRecord
100
AcDbRegAppTableRecord
  2
ACAD_PSEXT
 70
     0
  0
ENDTAB
  0
TABLE
  2
DIMSTYLE
  5
21B8
330
0
100
AcDbSymbolTable
 70
     1
100
AcDbDimStyleTable
 71
     0
  0
DIMSTYLE
105
21E3
330
21B8
100
AcDbSymbolTableRecord
100
AcDbDimStyleTableRecord
  2
STANDARD
 70
     0
279
     2
340
21BF
  0
ENDTAB
  0
TABLE
  2
BLOCK_RECORD
  5
21AF
330
0
100
AcDbSymbolTable
 70
     0
  0
BLOCK_RECORD
  5
21CC
102
{ACAD_XDICTIONARY
360
21F8
102
}
330
21AF
100
AcDbSymbolTableRecord
100
AcDbBlockTableRecord
  2
*Model_Space
340
21CF
  0
BLOCK_RECORD
  5
21C8
102
{ACAD_XDICTIONARY
360
21FA
102
}
330
21AF
100
AcDbSymbolTableRecord
100
AcDbBlockTableRecord
  2
*Paper_Space
340
21CB
  0
ENDTAB
  0
ENDSEC
  0
SECTION
  2
BLOCKS
  0
BLOCK
  5
21CD
330
21CC
100
AcDbEntity
  8
0
100
AcDbBlockBegin
  2
*Model_Space
 70
     0
 10
0.0
 20
0.0
 30
0.0
  3
*Model_Space
  1

  0
ENDBLK
  5
21CE
330
21CC
100
AcDbEntity
  8
0
100
AcDbBlockEnd
  0
BLOCK
  5
21C9
330
21C8
100
AcDbEntity
 67
     1
  8
0
100
AcDbBlockBegin
  2
*Paper_Space
 70
     0
 10
0.0
 20
0.0
 30
0.0
  3
*Paper_Space
  1

  0
ENDBLK
  5
21CA
330
21C8
100
AcDbEntity
 67
     1
  8
0
100
AcDbBlockEnd
  0
ENDSEC
  0
SECTION
  2
ENTITIES
  0
TEXT
  5
F6E
330
21CC
100
AcDbEntity
  8
0
  6
Continuous
100
AcDbText
 10
0.0
 20
150.0
 30
0.0
 40
48.000002
  1
SGQ 1.5S
 41
1.32095
100
AcDbText
  0
LINE
  5
46CE
330
21CC
100
AcDbEntity
  8
0
  6
CENTER
100
AcDbLine
 10
-7.21554500000002
 20
0.0
 30
0.0
 11
207.215545
 21
0.0
 31
0.0
  0
LINE
  5
46CF
330
21CC
100
AcDbEntity
  8
0
  6
CENTER
100
AcDbLine
 10
100.0
 20
75.66647999999986
 30
0.0
 11
100.0
 21
-75.66647999999986
 31
0.0
  0
LINE
  5
46D0
330
21CC
100
AcDbEntity
  8
0
  6
Continuous
100
AcDbLine
 10
148.9218399999999
 20
19.04998999999998
 30
0.0
 11
193.4929799999999
 21
19.04998999999998
 31
0.0
  0
LINE
  5
46D1
330
21CC
100
AcDbEntity
  8
0
  6
Continuous
100
AcDbLine
 10
148.9218399999999
 20
-19.04998999999998
 30
0.0
 11
193.4929799999999
 21
-19.04998999999998
 31
0.0
  0
LINE
  5
46D2
330
21CC
100
AcDbEntity
  8
0
  6
CENTER
100
AcDbLine
 10
-5.0
 20
-150.0
 30
0.0
 11
205.0
 21
-150.0
 31
0.0
  0
LINE
  5
46D3
330
21CC
100
AcDbEntity
  8
0
  6
Continuous
100
AcDbLine
 10
58.0
 20
-169.0499899999999
 30
0.0
 11
6.507052625333926
 21
-169.0499899999999
 31
0.0
  0
LINE
  5
46D4
330
21CC
100
AcDbEntity
  8
0
  6
Continuous
100
AcDbLine
 10
6.507012625316065
 20
-130.95001
 30
0.0
 11
58.0
 21
-130.95001
 31
0.0
  0
LINE
  5
46D5
330
21CC
100
AcDbEntity
  8
0
  6
Continuous
100
AcDbLine
 10
60.0
 20
-127.6499899999999
 30
0.0
 11
60.0
 21
-128.95001
 31
0.0
  0
LINE
  5
46D6
330
21CC
100
AcDbEntity
  8
0
  6
Continuous
100
AcDbLine
 10
55.5
 20
-127.6499899999999
 30
0.0
 11
97.0
 21
-127.6499899999999
 31
0.0
  0
LINE
  5
46D7
330
21CC
100
AcDbEntity
  8
0
  6
Continuous
100
AcDbLine
 10
55.5
 20
-110.6499899999998
 30
0.0
 11
97.0
 21
-110.6499899999998
 31
0.0
  0
LINE
  5
46D8
330
21CC
100
AcDbEntity
  8
0
  6
Continuous
100
AcDbLine
 10
47.5
 20
-113.5617699999998
 30
0.0
 11
47.5
 21
-124.7382199999997
 31
0.0
  0
LINE
  5
46D9
330
21CC
100
AcDbEntity
  8
0
  6
Continuous
100
AcDbLine
 10
47.5
 20
-113.5617499999998
 30
0.0
 11
55.5
 21
-110.6499899999998
 31
0.0
  0
LINE
  5
46DA
330
21CC
100
AcDbEntity
  8
0
  6
Continuous
100
AcDbLine
 10
47.5
 20
-124.7382400000001
 30
0.0
 11
55.5
 21
-127.6499899999999
 31
0.0
  0
LINE
  5
46DB
330
21CC
100
AcDbEntity
  8
0
  6
Continuous
100
AcDbLine
 10
97.0
 20
-110.6499899999998
 30
0.0
 11
97.0
 21
-127.6499899999999
 31
0.0
  0
LINE
  5
46DC
330
21CC
100
AcDbEntity
  8
0
  6
Continuous
100
AcDbLine
 10
85.0
 20
-111.64444
 30
0.0
 11
85.0
 21
-126.6555499999999
 31
0.0
  0
LINE
  5
46DD
330
21CC
100
AcDbEntity
  8
0
  6
Continuous
100
AcDbLine
 10
103.0
 20
-115.1499899999999
 30
0.0
 11
97.0
 21
-115.1499899999999
 31
0.0
  0
LINE
  5
46DE
330
21CC
100
AcDbEntity
  8
0
  6
Continuous
100
AcDbLine
 10
103.0
 20
-123.1499899999998
 30
0.0
 11
97.0
 21
-123.1499899999998
 31
0.0
  0
LINE
  5
46DF
330
21CC
100
AcDbEntity
  8
0
  6
Continuous
100
AcDbLine
 10
79.5
 20
-113.5208400000001
 30
0.0
 11
79.5
 21
-124.77914
 31
0.0
  0
LINE
  5
46E0
330
21CC
100
AcDbEntity
  8
0
  6
Continuous
100
AcDbLine
 10
80.22491000000002
 20
-111.64444
 30
0.0
 11
85.0
 21
-111.64444
 31
0.0
  0
LINE
  5
46E1
330
21CC
100
AcDbEntity
  8
0
  6
Continuous
100
AcDbLine
 10
80.22491000000002
 20
-126.6555499999999
 30
0.0
 11
85.0
 21
-126.6555499999999
 31
0.0
  0
LINE
  5
46E2
330
21CC
100
AcDbEntity
  8
0
  6
Continuous
100
AcDbLine
 10
80.22491000000002
 20
-115.3972200000003
 30
0.0
 11
85.0
 21
-115.3972200000003
 31
0.0
  0
LINE
  5
46E3
330
21CC
100
AcDbEntity
  8
0
  6
Continuous
100
AcDbLine
 10
80.22491000000002
 20
-122.9027700000001
 30
0.0
 11
85.0
 21
-122.9027700000001
 31
0.0
  0
LINE
  5
46E4
330
21CC
100
AcDbEntity
  8
0
  6
Continuous
100
AcDbLine
 10
47.5
 20
-113.5617699999998
 30
0.0
 11
79.5
 21
-113.5617699999998
 31
0.0
  0
LINE
  5
46E5
330
21CC
100
AcDbEntity
  8
0
  6
Continuous
100
AcDbLine
 10
47.5
 20
-124.7382199999997
 30
0.0
 11
79.5
 21
-124.7382199999997
 31
0.0
  0
LINE
  5
46E6
330
21CC
100
AcDbEntity
  8
0
  6
Continuous
100
AcDbLine
 10
85.0
 20
-112.1499899999998
 30
0.0
 11
97.0
 21
-112.1499899999998
 31
0.0
  0
LINE
  5
46E7
330
21CC
100
AcDbEntity
  8
0
  6
Continuous
100
AcDbLine
 10
85.0
 20
-126.1499899999998
 30
0.0
 11
97.0
 21
-126.1499899999998
 31
0.0
  0
LINE
  5
46E8
330
21CC
100
AcDbEntity
  8
0
  6
Continuous
100
AcDbLine
 10
55.5
 20
-189.3500100000001
 30
0.0
 11
97.0
 21
-189.3500100000001
 31
0.0
  0
LINE
  5
46E9
330
21CC
100
AcDbEntity
  8
0
  6
Continuous
100
AcDbLine
 10
47.5
 20
-186.4382300000002
 30
0.0
 11
47.5
 21
-175.2617800000002
 31
0.0
  0
LINE
  5
46EA
330
21CC
100
AcDbEntity
  8
0
  6
Continuous
100
AcDbLine
 10
47.5
 20
-186.4382500000001
 30
0.0
 11
55.5
 21
-189.3500100000001
 31
0.0
  0
LINE
  5
46EB
330
21CC
100
AcDbEntity
  8
0
  6
Continuous
100
AcDbLine
 10
47.5
 20
-175.2617500000001
 30
0.0
 11
55.5
 21
-172.3499900000001
 31
0.0
  0
LINE
  5
46EC
330
21CC
100
AcDbEntity
  8
0
  6
Continuous
100
AcDbLine
 10
97.0
 20
-189.3500100000001
 30
0.0
 11
97.0
 21
-172.3500100000001
 31
0.0
  0
LINE
  5
46ED
330
21CC
100
AcDbEntity
  8
0
  6
Continuous
100
AcDbLine
 10
85.0
 20
-188.3555599999999
 30
0.0
 11
85.0
 21
-173.34445
 31
0.0
  0
LINE
  5
46EE
330
21CC
100
AcDbEntity
  8
0
  6
Continuous
100
AcDbLine
 10
103.0
 20
-184.8500100000001
 30
0.0
 11
97.0
 21
-184.8500100000001
 31
0.0
  0
LINE
  5
46EF
330
21CC
100
AcDbEntity
  8
0
  6
Continuous
100
AcDbLine
 10
103.0
 20
-176.8500100000001
 30
0.0
 11
97.0
 21
-176.8500100000001
 31
0.0
  0
LINE
  5
46F0
330
21CC
100
AcDbEntity
  8
0
  6
Continuous
100
AcDbLine
 10
79.5
 20
-186.4791599999998
 30
0.0
 11
79.5
 21
-175.2208599999999
 31
0.0
  0
LINE
  5
46F1
330
21CC
100
AcDbEntity
  8
0
  6
Continuous
100
AcDbLine
 10
80.22491000000002
 20
-188.3555599999999
 30
0.0
 11
85.0
 21
-188.3555599999999
 31
0.0
  0
LINE
  5
46F2
330
21CC
100
AcDbEntity
  8
0
  6
Continuous
100
AcDbLine
 10
80.22491000000002
 20
-184.6027799999997
 30
0.0
 11
85.0
 21
-184.6027799999997
 31
0.0
  0
LINE
  5
46F3
330
21CC
100
AcDbEntity
  8
0
  6
Continuous
100
AcDbLine
 10
80.22491000000002
 20
-177.0972299999998
 30
0.0
 11
85.0
 21
-177.0972299999998
 31
0.0
  0
LINE
  5
46F4
330
21CC
100
AcDbEntity
  8
0
  6
Continuous
100
AcDbLine
 10
47.5
 20
-186.4382300000002
 30
0.0
 11
79.5
 21
-186.4382300000002
 31
0.0
  0
LINE
  5
46F5
330
21CC
100
AcDbEntity
  8
0
  6
Continuous
100
AcDbLine
 10
47.5
 20
-175.2617800000002
 30
0.0
 11
79.5
 21
-175.2617800000002
 31
0.0
  0
LINE
  5
46F6
330
21CC
100
AcDbEntity
  8
0
  6
Continuous
100
AcDbLine
 10
85.0
 20
-187.8500100000001
 30
0.0
 11
97.0
 21
-187.8500100000001
 31
0.0
  0
LINE
  5
46F7
330
21CC
100
AcDbEntity
  8
0
  6
Continuous
100
AcDbLine
 10
85.0
 20
-173.8500100000001
 30
0.0
 11
97.0
 21
-173.8500100000001
 31
0.0
  0
LINE
  5
46F8
330
21CC
100
AcDbEntity
  8
0
  6
Continuous
100
AcDbLine
 10
55.5
 20
-172.3500100000001
 30
0.0
 11
97.0
 21
-172.3500100000001
 31
0.0
  0
LINE
  5
46F9
330
21CC
100
AcDbEntity
  8
0
  6
Continuous
100
AcDbLine
 10
80.22491000000002
 20
-173.34445
 30
0.0
 11
85.0
 21
-173.34445
 31
0.0
  0
LINE
  5
46FA
330
21CC
100
AcDbEntity
  8
0
  6
Continuous
100
AcDbLine
 10
60.0
 20
-172.3500100000001
 30
0.0
 11
60.0
 21
-171.0499899999999
 31
0.0
  0
LINE
  5
46FB
330
21CC
100
AcDbEntity
  8
0
  6
Continuous
100
AcDbLine
 10
0.0
 20
-124.75
 30
0.0
 11
0.0
 21
-175.2499999999999
 31
0.0
  0
LINE
  5
46FC
330
21CC
100
AcDbEntity
  8
0
  6
Continuous
100
AcDbLine
 10
0.0
 20
-124.75
 30
0.0
 11
2.289829999999938
 21
-124.75
 31
0.0
  0
LINE
  5
46FD
330
21CC
100
AcDbEntity
  8
0
  6
Continuous
100
AcDbLine
 10
2.850009999999883
 20
-127.673893196737
 30
0.0
 11
2.850009999999883
 21
-172.3262114189924
 31
0.0
  0
LINE
  5
46FE
330
21CC
100
AcDbEntity
  8
0
  6
Continuous
100
AcDbLine
 10
3.04155999999989
 20
-125.27637
 30
0.0
 11
4.627627587357665
 21
-129.6340508460744
 31
0.0
  0
LINE
  5
46FF
330
21CC
100
AcDbEntity
  8
0
  6
Continuous
100
AcDbLine
 10
0.0
 20
-175.2499999999999
 30
0.0
 11
2.289829999999938
 21
-175.2499999999999
 31
0.0
  0
LINE
  5
4700
330
21CC
100
AcDbEntity
  8
0
  6
Continuous
100
AcDbLine
 10
3.041600000000016
 20
-174.7236200000002
 30
0.0
 11
4.627668091883265
 21
-170.3659477678047
 31
0.0
  0
LINE
  5
4701
330
21CC
100
AcDbEntity
  8
0
  6
Continuous
100
AcDbLine
 10
5.106629999999995
 20
-168.3969132068309
 30
0.0
 11
5.106629999999995
 21
-131.6031079067333
 31
0.0
  0
LINE
  5
4702
330
21CC
100
AcDbEntity
  8
0
  6
Continuous
100
AcDbLine
 10
0.0
 20
25.25
 30
0.0
 11
0.0
 21
-25.25
 31
0.0
  0
LINE
  5
4703
330
21CC
100
AcDbEntity
  8
0
  6
Continuous
100
AcDbLine
 10
0.0
 20
25.25
 30
0.0
 11
2.289829999999938
 21
25.25
 31
0.0
  0
LINE
  5
4704
330
21CC
100
AcDbEntity
  8
0
  6
Continuous
100
AcDbLine
 10
2.850009999999883
 20
22.32621670225762
 30
0.0
 11
2.850009999999883
 21
-22.32607680326282
 31
0.0
  0
LINE
  5
4705
330
21CC
100
AcDbEntity
  8
0
  6
Continuous
100
AcDbLine
 10
3.041600000000016
 20
24.72362999999996
 30
0.0
 11
4.627659999999877
 21
20.36597000000028
 31
0.0
  0
LINE
  5
4706
330
21CC
100
AcDbEntity
  8
0
  6
Continuous
100
AcDbLine
 10
0.0
 20
-25.25
 30
0.0
 11
2.289829999999938
 21
-25.25
 31
0.0
  0
LINE
  5
4707
330
21CC
100
AcDbEntity
  8
0
  6
Continuous
100
AcDbLine
 10
3.04155999999989
 20
-24.7235999999998
 30
0.0
 11
4.627619999999978
 21
-20.36594000000013
 31
0.0
  0
LINE
  5
4708
330
21CC
100
AcDbEntity
  8
0
  6
Continuous
100
AcDbLine
 10
6.507020000000011
 20
-19.04998999999998
 30
0.0
 11
51.07816000000003
 21
-19.04998999999998
 31
0.0
  0
LINE
  5
4709
330
21CC
100
AcDbEntity
  8
0
  6
Continuous
100
AcDbLine
 10
6.507020000000011
 20
19.04998999999998
 30
0.0
 11
51.07816000000003
 21
19.04998999999998
 31
0.0
  0
LINE
  5
470A
330
21CC
100
AcDbEntity
  8
0
  6
Continuous
100
AcDbLine
 10
5.106629999999995
 20
-18.39689598585346
 30
0.0
 11
5.106629999999995
 21
18.39689598585346
 31
0.0
  0
LINE
  5
470B
330
21CC
100
AcDbEntity
  8
0
  6
Continuous
100
AcDbLine
 10
200.0
 20
25.25
 30
0.0
 11
200.0
 21
-25.25
 31
0.0
  0
LINE
  5
470C
330
21CC
100
AcDbEntity
  8
0
  6
Continuous
100
AcDbLine
 10
200.0
 20
25.25
 30
0.0
 11
197.7101399999999
 21
25.25
 31
0.0
  0
LINE
  5
470D
330
21CC
100
AcDbEntity
  8
0
  6
Continuous
100
AcDbLine
 10
197.1499899999999
 20
22.32609095421821
 30
0.0
 11
197.1499899999998
 21
-22.32618670225793
 31
0.0
  0
LINE
  5
470E
330
21CC
100
AcDbEntity
  8
0
  6
Continuous
100
AcDbLine
 10
196.95844
 20
24.7235999999998
 30
0.0
 11
195.37238
 21
20.36597000000028
 31
0.0
  0
LINE
  5
470F
330
21CC
100
AcDbEntity
  8
0
  6
Continuous
100
AcDbLine
 10
200.0
 20
-25.25
 30
0.0
 11
197.7101399999999
 21
-25.25
 31
0.0
  0
LINE
  5
4710
330
21CC
100
AcDbEntity
  8
0
  6
Continuous
100
AcDbLine
 10
196.9583999999999
 20
-24.7235999999998
 30
0.0
 11
195.37234
 21
-20.36594000000013
 31
0.0
  0
LINE
  5
4711
330
21CC
100
AcDbEntity
  8
0
  6
Continuous
100
AcDbLine
 10
194.8933699999999
 20
-18.39689598585346
 30
0.0
 11
194.8933699999999
 21
18.39689598585346
 31
0.0
  0
CIRCLE
  5
4712
330
21CC
100
AcDbEntity
  8
0
  6
Continuous
100
AcDbCircle
 10
100.0
 20
0.0
 30
0.0
 40
20.0
  0
CIRCLE
  5
4713
330
21CC
100
AcDbEntity
  8
0
  6
Continuous
100
AcDbCircle
 10
100.0
 20
0.0
 30
0.0
 40
22.0
  0
ARC
  5
4714
330
21CC
100
AcDbEntity
  8
0
  6
Continuous
100
AcDbCircle
 10
58.0
 20
-128.95001
 30
0.0
 40
2.0
100
AcDbArc
 50
270.0
 51
0.0
  0
ARC
  5
4715
330
21CC
100
AcDbEntity
  8
0
  6
Continuous
100
AcDbCircle
 10
58.0
 20
-171.0499899999999
 30
0.0
 40
2.0
100
AcDbArc
 50
0.0
 51
90.0
  0
ARC
  5
4716
330
21CC
100
AcDbEntity
  8
0
  6
Continuous
100
AcDbCircle
 10
41.03247675260172
 20
-150.0
 30
0.0
 40
26.88250466643122
100
AcDbArc
 50
316.3071649901197
 51
43.69283500988031
  0
ARC
  5
4717
330
21CC
100
AcDbEntity
  8
0
  6
Continuous
100
AcDbCircle
 10
82.29095000000006
 20
-124.77914
 30
0.0
 40
2.790960799999999
100
AcDbArc
 50
137.7545300000046
 51
222.2454699999953
  0
ARC
  5
4718
330
21CC
100
AcDbEntity
  8
0
  6
Continuous
100
AcDbCircle
 10
89.57650999999998
 20
-119.1499899999998
 30
0.0
 40
10.07649999999999
100
AcDbArc
 50
158.1344999999927
 51
201.8655000000072
  0
ARC
  5
4719
330
21CC
100
AcDbEntity
  8
0
  6
Continuous
100
AcDbCircle
 10
82.29095000000006
 20
-113.5208400000001
 30
0.0
 40
2.790960799999999
100
AcDbArc
 50
137.7545300000046
 51
222.2454699999953
  0
ARC
  5
471A
330
21CC
100
AcDbEntity
  8
0
  6
Continuous
100
AcDbCircle
 10
82.29095000000006
 20
-175.2208599999999
 30
0.0
 40
2.790960799999999
100
AcDbArc
 50
137.7545300000046
 51
222.2454699999953
  0
ARC
  5
471B
330
21CC
100
AcDbEntity
  8
0
  6
Continuous
100
AcDbCircle
 10
89.57650999999998
 20
-180.8500100000001
 30
0.0
 40
10.07649999999999
100
AcDbArc
 50
158.1344999999927
 51
201.8655000000072
  0
ARC
  5
471C
330
21CC
100
AcDbEntity
  8
0
  6
Continuous
100
AcDbCircle
 10
82.29095000000006
 20
-186.4791599999998
 30
0.0
 40
2.790960799999999
100
AcDbArc
 50
137.7545300000046
 51
222.2454699999953
  0
CIRCLE
  5
471D
330
21CC
100
AcDbEntity
  8
0
  6
Continuous
100
AcDbCircle
 10
100.0
 20
0.0
 30
0.0
 40
37.757038
  0
ARC
  5
471E
330
21CC
100
AcDbEntity
  8
0
  6
Continuous
100
AcDbCircle
 10
100.0
 20
0.0
 30
0.0
 40
45.450012
100
AcDbArc
 50
86.21535000000283
 51
93.78464999999717
  0
ARC
  5
471F
330
21CC
100
AcDbEntity
  8
0
  6
Continuous
100
AcDbCircle
 10
100.0
 20
0.0
 30
0.0
 40
45.450012
100
AcDbArc
 50
266.2153500000028
 51
273.7846499999971
  0
ARC
  5
4720
330
21CC
100
AcDbEntity
  8
0
  6
Continuous
100
AcDbCircle
 10
100.0
 20
0.0
 30
0.0
 40
44.5
100
AcDbArc
 50
93.8655680000023
 51
266.1344299999981
  0
ARC
  5
4721
330
21CC
100
AcDbEntity
  8
0
  6
Continuous
100
AcDbCircle
 10
100.0
 20
0.0
 30
0.0
 40
44.5
100
AcDbArc
 50
273.8655700000018
 51
86.13443199999769
  0
ARC
  5
4722
330
21CC
100
AcDbEntity
  8
0
  6
Continuous
100
AcDbCircle
 10
2.289829999999938
 20
-125.5499999999997
 30
0.0
 40
0.8000000099999999
100
AcDbArc
 50
20.00066000000197
 51
90.0
  0
ARC
  5
4723
330
21CC
100
AcDbEntity
  8
0
  6
Continuous
100
AcDbCircle
 10
2.289829999999938
 20
-174.4500000000002
 30
0.0
 40
0.8000000099999999
100
AcDbArc
 50
270.0
 51
339.999339999998
  0
ARC
  5
4724
330
21CC
100
AcDbEntity
  8
0
  6
Continuous
100
AcDbCircle
 10
2.289829999999938
 20
24.45001000000002
 30
0.0
 40
0.8000000099999999
100
AcDbArc
 50
20.00066000000197
 51
90.0
  0
ARC
  5
4725
330
21CC
100
AcDbEntity
  8
0
  6
Continuous
100
AcDbCircle
 10
2.289829999999938
 20
-24.45001000000002
 30
0.0
 40
0.8000000099999999
100
AcDbArc
 50
270.0
 51
339.999339999998
  0
ARC
  5
4726
330
21CC
100
AcDbEntity
  8
0
  6
Continuous
100
AcDbCircle
 10
6.507020000000011
 20
21.04998999999998
 30
0.0
 40
2.0
100
AcDbArc
 50
200.0002100000108
 51
270.0
  0
ARC
  5
4727
330
21CC
100
AcDbEntity
  8
0
  6
Continuous
100
AcDbCircle
 10
6.507020000000011
 20
-21.04998999999998
 30
0.0
 40
2.0
100
AcDbArc
 50
90.0
 51
159.9997899999891
  0
ARC
  5
4728
330
21CC
100
AcDbEntity
  8
0
  6
Continuous
100
AcDbCircle
 10
197.7101399999999
 20
24.45001000000002
 30
0.0
 40
0.8000000099999999
100
AcDbArc
 50
90.0
 51
159.999339999998
  0
ARC
  5
4729
330
21CC
100
AcDbEntity
  8
0
  6
Continuous
100
AcDbCircle
 10
197.7101399999999
 20
-24.45001000000002
 30
0.0
 40
0.8000000099999999
100
AcDbArc
 50
200.0006600000019
 51
270.0
  0
ARC
  5
472A
330
21CC
100
AcDbEntity
  8
0
  6
Continuous
100
AcDbCircle
 10
193.4929799999999
 20
21.04998999999998
 30
0.0
 40
2.0
100
AcDbArc
 50
270.0
 51
339.9997899999891
  0
ARC
  5
472B
330
21CC
100
AcDbEntity
  8
0
  6
Continuous
100
AcDbCircle
 10
193.4929799999999
 20
-21.04998999999998
 30
0.0
 40
2.0
100
AcDbArc
 50
20.00021099999603
 51
90.0
  0
ARC
  5
472C
330
21CC
100
AcDbEntity
  8
0
  6
Continuous
100
AcDbCircle
 10
6.507012625316065
 20
-128.95001
 30
0.0
 40
2.0
100
AcDbArc
 50
200.0000170548072
 51
270.0
  0
ARC
  5
472D
330
21CC
100
AcDbEntity
  8
0
  6
Continuous
100
AcDbCircle
 10
6.507052625333926
 20
-171.0499899999999
 30
0.0
 40
2.0
100
AcDbArc
 50
90.0
 51
159.999940687281
  0
LINE
  5
473E
330
21CC
100
AcDbEntity
  8
0
  6
Continuous
100
AcDbLine
 10
96.99999995529651
 20
67.00000099837779
 30
0.0
 11
96.99999995529651
 21
43.31570217299258
 31
0.0
  0
LINE
  5
473F
330
21CC
100
AcDbEntity
  8
0
  6
Continuous
100
AcDbLine
 10
84.99999977648258
 20
67.00000099837779
 30
0.0
 11
84.99999977648258
 21
51.05144539143521
 31
0.0
  0
LINE
  5
4740
330
21CC
100
AcDbEntity
  8
0
  6
Continuous
100
AcDbLine
 10
96.99999995529651
 20
67.00000099837779
 30
0.0
 11
84.99999977648258
 21
67.00000099837779
 31
0.0
  0
LINE
  5
4741
330
21CC
100
AcDbEntity
  8
0
  6
Continuous
100
AcDbLine
 10
115.0000002235174
 20
67.00000099837779
 30
0.0
 11
115.0000002235174
 21
51.05144539143521
 31
0.0
  0
LINE
  5
4742
330
21CC
100
AcDbEntity
  8
0
  6
Continuous
100
AcDbLine
 10
103.0000000447034
 20
67.00000099837779
 30
0.0
 11
115.0000002235174
 21
67.00000099837779
 31
0.0
  0
LINE
  5
4743
330
21CC
100
AcDbEntity
  8
0
  6
Continuous
100
AcDbLine
 10
103.0000000447034
 20
67.00000099837779
 30
0.0
 11
103.0000000447034
 21
43.31570217299258
 31
0.0
  0
LINE
  5
4744
330
21CC
100
AcDbEntity
  8
0
  6
Continuous
100
AcDbLine
 10
103.0000000447034
 20
64.00000095367431
 30
0.0
 11
96.99999995529651
 21
64.00000095367431
 31
0.0
  0
LINE
  5
4745
330
21CC
100
AcDbEntity
  8
0
  6
Continuous
100
AcDbLine
 10
103.0000000447034
 20
56.00000083446502
 30
0.0
 11
96.99999995529651
 21
56.00000083446502
 31
0.0
  0
LINE
  5
4746
330
21CC
100
AcDbEntity
  8
0
  6
Continuous
100
AcDbLine
 10
84.99999977648258
 20
-67.00000099837779
 30
0.0
 11
84.99999977648258
 21
-51.05144539143521
 31
0.0
  0
LINE
  5
4747
330
21CC
100
AcDbEntity
  8
0
  6
Continuous
100
AcDbLine
 10
96.99999995529651
 20
-67.00000099837779
 30
0.0
 11
84.99999977648258
 21
-67.00000099837779
 31
0.0
  0
LINE
  5
4748
330
21CC
100
AcDbEntity
  8
0
  6
Continuous
100
AcDbLine
 10
96.99999995529651
 20
-67.00000099837779
 30
0.0
 11
96.99999995529651
 21
-43.31570217299258
 31
0.0
  0
LINE
  5
4749
330
21CC
100
AcDbEntity
  8
0
  6
Continuous
100
AcDbLine
 10
103.0000000447034
 20
-67.00000099837779
 30
0.0
 11
115.0000002235174
 21
-67.00000099837779
 31
0.0
  0
LINE
  5
474A
330
21CC
100
AcDbEntity
  8
0
  6
Continuous
100
AcDbLine
 10
103.0000000447034
 20
-67.00000099837779
 30
0.0
 11
103.0000000447034
 21
-43.31570217299258
 31
0.0
  0
LINE
  5
474B
330
21CC
100
AcDbEntity
  8
0
  6
Continuous
100
AcDbLine
 10
103.0000000447034
 20
-64.00000095367431
 30
0.0
 11
96.99999995529651
 21
-64.00000095367431
 31
0.0
  0
LINE
  5
474C
330
21CC
100
AcDbEntity
  8
0
  6
Continuous
100
AcDbLine
 10
103.0000000447034
 20
-56.00000083446502
 30
0.0
 11
96.99999995529651
 21
-56.00000083446502
 31
0.0
  0
LINE
  5
474D
330
21CC
100
AcDbEntity
  8
0
  6
Continuous
100
AcDbLine
 10
115.0000002235174
 20
-67.00000099837779
 30
0.0
 11
115.0000002235174
 21
-51.05144539143521
 31
0.0
  0
LINE
  5
474E
330
21CC
100
AcDbEntity
  8
0
  6
Continuous
100
AcDbLine
 10
128.0000004321336
 20
-64.00000095367431
 30
0.0
 11
123.5000003501772
 21
-64.00000095367431
 31
0.0
  0
LINE
  5
474F
330
21CC
100
AcDbEntity
  8
0
  6
Continuous
100
AcDbLine
 10
123.5000003501772
 20
-65.00000096857547
 30
0.0
 11
123.5000003501772
 21
-55.00000081956386
 31
0.0
  0
LINE
  5
4750
330
21CC
100
AcDbEntity
  8
0
  6
Continuous
100
AcDbLine
 10
129.0000004321336
 20
-63.00000095367431
 30
0.0
 11
129.0000004321336
 21
-57.00000083446503
 31
0.0
  0
LINE
  5
4751
330
21CC
100
AcDbEntity
  8
0
  6
Continuous
100
AcDbLine
 10
122.5000003352761
 20
-66.00000098347663
 30
0.0
 11
121.5000003203749
 21
-66.00000098347663
 31
0.0
  0
LINE
  5
4752
330
21CC
100
AcDbEntity
  8
0
  6
Continuous
100
AcDbLine
 10
122.5000003352761
 20
-54.0000008046627
 30
0.0
 11
121.5000003203749
 21
-54.0000008046627
 31
0.0
  0
LINE
  5
4753
330
21CC
100
AcDbEntity
  8
0
  6
Continuous
100
AcDbLine
 10
120.7751067396269
 20
-60.00000089406967
 30
0.0
 11
115.7248938042654
 21
-60.00000089406967
 31
0.0
  0
LINE
  5
4754
330
21CC
100
AcDbEntity
  8
0
  6
Continuous
100
AcDbLine
 10
121.5000003203749
 20
-53.50000079721212
 30
0.0
 11
121.5000003203749
 21
-66.50000099092721
 31
0.0
  0
LINE
  5
4755
330
21CC
100
AcDbEntity
  8
0
  6
Continuous
100
AcDbLine
 10
121.5000003203749
 20
-53.50000079721212
 30
0.0
 11
115.0000002235174
 21
-53.50000079721212
 31
0.0
  0
LINE
  5
4756
330
21CC
100
AcDbEntity
  8
0
  6
Continuous
100
AcDbLine
 10
121.5000003203749
 20
-66.50000099092721
 30
0.0
 11
115.0000002235174
 21
-66.50000099092721
 31
0.0
  0
LINE
  5
4757
330
21CC
100
AcDbEntity
  8
0
  6
Continuous
100
AcDbLine
 10
128.0000004321336
 20
-56.00000083446502
 30
0.0
 11
123.5000003501772
 21
-56.00000083446502
 31
0.0
  0
LINE
  5
4758
330
21CC
100
AcDbEntity
  8
0
  6
Continuous
100
AcDbLine
 10
80.22489327527422
 20
-60.00000089406967
 30
0.0
 11
84.99999977648258
 21
-60.00000089406967
 31
0.0
  0
LINE
  5
4759
330
21CC
100
AcDbEntity
  8
0
  6
Continuous
100
AcDbLine
 10
79.49999969452619
 20
-63.25000094249844
 30
0.0
 11
79.49999969452619
 21
-56.75000084564089
 31
0.0
  0
LINE
  5
475A
330
21CC
100
AcDbEntity
  8
0
  6
Continuous
100
AcDbLine
 10
80.22489327527422
 20
-66.50000099092721
 30
0.0
 11
84.99999977648258
 21
-66.50000099092721
 31
0.0
  0
LINE
  5
475B
330
21CC
100
AcDbEntity
  8
0
  6
Continuous
100
AcDbLine
 10
80.22489327527422
 20
-53.50000079721212
 30
0.0
 11
84.99999977648258
 21
-53.50000079721212
 31
0.0
  0
LINE
  5
475C
330
21CC
100
AcDbEntity
  8
0
  6
Continuous
100
AcDbLine
 10
80.22489327527102
 20
60.00000089406876
 30
0.0
 11
84.99999977647929
 21
60.00000089406876
 31
0.0
  0
LINE
  5
475D
330
21CC
100
AcDbEntity
  8
0
  6
Continuous
100
AcDbLine
 10
79.49999969452278
 20
63.25000094249753
 30
0.0
 11
79.49999969452324
 21
56.75000084563999
 31
0.0
  0
LINE
  5
475E
330
21CC
100
AcDbEntity
  8
0
  6
Continuous
100
AcDbLine
 10
80.22489327527068
 20
66.50000099092631
 30
0.0
 11
84.99999977647906
 21
66.50000099092631
 31
0.0
  0
LINE
  5
475F
330
21CC
100
AcDbEntity
  8
0
  6
Continuous
100
AcDbLine
 10
80.22489327527138
 20
53.50000079721121
 30
0.0
 11
84.99999977647973
 21
53.50000079721121
 31
0.0
  0
LINE
  5
4760
330
21CC
100
AcDbEntity
  8
0
  6
Continuous
100
AcDbLine
 10
128.0000004321336
 20
64.00000095367431
 30
0.0
 11
123.5000003501772
 21
64.00000095367431
 31
0.0
  0
LINE
  5
4761
330
21CC
100
AcDbEntity
  8
0
  6
Continuous
100
AcDbLine
 10
123.5000003501772
 20
65.00000096857547
 30
0.0
 11
123.5000003501772
 21
55.00000081956386
 31
0.0
  0
LINE
  5
4762
330
21CC
100
AcDbEntity
  8
0
  6
Continuous
100
AcDbLine
 10
129.0000004321336
 20
63.00000095367431
 30
0.0
 11
129.0000004321336
 21
57.00000083446503
 31
0.0
  0
LINE
  5
4763
330
21CC
100
AcDbEntity
  8
0
  6
Continuous
100
AcDbLine
 10
122.5000003352761
 20
66.00000098347663
 30
0.0
 11
121.5000003203749
 21
66.00000098347663
 31
0.0
  0
LINE
  5
4764
330
21CC
100
AcDbEntity
  8
0
  6
Continuous
100
AcDbLine
 10
122.5000003352761
 20
54.0000008046627
 30
0.0
 11
121.5000003203749
 21
54.0000008046627
 31
0.0
  0
LINE
  5
4765
330
21CC
100
AcDbEntity
  8
0
  6
Continuous
100
AcDbLine
 10
120.7751067396269
 20
60.00000089406967
 30
0.0
 11
115.7248938042654
 21
60.00000089406967
 31
0.0
  0
LINE
  5
4766
330
21CC
100
AcDbEntity
  8
0
  6
Continuous
100
AcDbLine
 10
121.5000003203749
 20
53.50000079721212
 30
0.0
 11
121.5000003203749
 21
66.50000099092721
 31
0.0
  0
LINE
  5
4767
330
21CC
100
AcDbEntity
  8
0
  6
Continuous
100
AcDbLine
 10
121.5000003203749
 20
53.50000079721212
 30
0.0
 11
115.0000002235174
 21
53.50000079721212
 31
0.0
  0
LINE
  5
4768
330
21CC
100
AcDbEntity
  8
0
  6
Continuous
100
AcDbLine
 10
121.5000003203749
 20
66.50000099092721
 30
0.0
 11
115.0000002235174
 21
66.50000099092721
 31
0.0
  0
LINE
  5
4769
330
21CC
100
AcDbEntity
  8
0
  6
Continuous
100
AcDbLine
 10
128.0000004321336
 20
56.00000083446502
 30
0.0
 11
123.5000003501772
 21
56.00000083446502
 31
0.0
  0
ARC
  5
476A
330
21CC
100
AcDbEntity
  8
0
  6
Continuous
100
AcDbCircle
 10
100.0
 20
0.0
 30
0.0
 40
52.50000078231096
100
AcDbArc
 50
107.4014787600071
 51
252.5985212399928
  0
ARC
  5
476B
330
21CC
100
AcDbEntity
  8
0
  6
Continuous
100
AcDbCircle
 10
100.0
 20
0.0
 30
0.0
 40
42.50000063329935
100
AcDbArc
 50
275.2760305827692
 51
84.72396941723081
  0
ARC
  5
476C
330
21CC
100
AcDbEntity
  8
0
  6
Continuous
100
AcDbCircle
 10
100.0
 20
0.0
 30
0.0
 40
52.50000078231096
100
AcDbArc
 50
287.4014787600071
 51
72.59852123999285
  0
ARC
  5
476D
330
21CC
100
AcDbEntity
  8
0
  6
Continuous
100
AcDbCircle
 10
100.0
 20
0.0
 30
0.0
 40
42.50000063329935
100
AcDbArc
 50
95.27603058276918
 51
264.7239694172308
  0
ARC
  5
476E
330
21CC
100
AcDbEntity
  8
0
  6
Continuous
100
AcDbCircle
 10
122.5000003352761
 20
-65.00000096857547
 30
0.0
 40
1.00000001490116
100
AcDbArc
 50
270.0000043257074
 51
0.000005008963459
  0
ARC
  5
476F
330
21CC
100
AcDbEntity
  8
0
  6
Continuous
100
AcDbCircle
 10
122.5000003352761
 20
-55.00000081956386
 30
0.0
 40
1.00000001490116
100
AcDbArc
 50
359.9999949910365
 51
89.99999567428604
  0
ARC
  5
4770
330
21CC
100
AcDbEntity
  8
0
  6
Continuous
100
AcDbCircle
 10
113.8520052112937
 20
-56.75000084564089
 30
0.0
 40
7.647995109081192
100
AcDbArc
 50
334.852624881777
 51
25.14737170312175
  0
ARC
  5
4771
330
21CC
100
AcDbEntity
  8
0
  6
Continuous
100
AcDbCircle
 10
113.8520052112937
 20
-63.25000094249844
 30
0.0
 40
7.647995109081192
100
AcDbArc
 50
334.8526317119531
 51
25.14737170312175
  0
ARC
  5
4772
330
21CC
100
AcDbEntity
  8
0
  6
Continuous
100
AcDbCircle
 10
122.6479953325986
 20
-56.75000084564089
 30
0.0
 40
7.647995109081192
100
AcDbArc
 50
154.8526281831849
 51
205.1473681743535
  0
ARC
  5
4773
330
21CC
100
AcDbEntity
  8
0
  6
Continuous
100
AcDbCircle
 10
122.6479953325986
 20
-63.25000094249844
 30
0.0
 40
7.647995109081192
100
AcDbArc
 50
154.8526281831849
 51
205.1473681743535
  0
ARC
  5
4774
330
21CC
100
AcDbEntity
  8
0
  6
Continuous
100
AcDbCircle
 10
87.14799480360738
 20
-63.25000094249844
 30
0.0
 40
7.647994632244027
100
AcDbArc
 50
154.8526281831849
 51
205.1473681743535
  0
ARC
  5
4775
330
21CC
100
AcDbEntity
  8
0
  6
Continuous
100
AcDbCircle
 10
87.14799480360738
 20
-56.75000084564089
 30
0.0
 40
7.647994632244027
100
AcDbArc
 50
154.8526281831849
 51
205.1473681743535
  0
ARC
  5
4776
330
21CC
100
AcDbEntity
  8
0
  6
Continuous
100
AcDbCircle
 10
87.14799480360738
 20
63.25000094249844
 30
0.0
 40
7.647994632244027
100
AcDbArc
 50
154.8526281831849
 51
205.1473681743535
  0
ARC
  5
4777
330
21CC
100
AcDbEntity
  8
0
  6
Continuous
100
AcDbCircle
 10
87.14799480360738
 20
56.75000084564089
 30
0.0
 40
7.647994632244027
100
AcDbArc
 50
154.8526281831849
 51
205.1473681743535
  0
ARC
  5
4778
330
21CC
100
AcDbEntity
  8
0
  6
Continuous
100
AcDbCircle
 10
122.5000003352761
 20
65.00000096857547
 30
0.0
 40
1.00000001490116
100
AcDbArc
 50
359.9999949910365
 51
89.99999567428604
  0
ARC
  5
4779
330
21CC
100
AcDbEntity
  8
0
  6
Continuous
100
AcDbCircle
 10
122.5000003352761
 20
55.00000081956386
 30
0.0
 40
1.00000001490116
100
AcDbArc
 50
270.0000043257074
 51
0.000005008963459
  0
ARC
  5
477A
330
21CC
100
AcDbEntity
  8
0
  6
Continuous
100
AcDbCircle
 10
113.8520052112937
 20
56.75000084564089
 30
0.0
 40
7.647995109081192
100
AcDbArc
 50
334.8526282968782
 51
25.14737511822298
  0
ARC
  5
477B
330
21CC
100
AcDbEntity
  8
0
  6
Continuous
100
AcDbCircle
 10
113.8520052112937
 20
63.25000094249844
 30
0.0
 40
7.647995109081192
100
AcDbArc
 50
334.8526282968782
 51
25.14736828804689
  0
ARC
  5
477C
330
21CC
100
AcDbEntity
  8
0
  6
Continuous
100
AcDbCircle
 10
122.6479953325986
 20
56.75000084564089
 30
0.0
 40
7.647995109081192
100
AcDbArc
 50
154.8526281831849
 51
205.1473681743535
  0
ARC
  5
477D
330
21CC
100
AcDbEntity
  8
0
  6
Continuous
100
AcDbCircle
 10
122.6479953325986
 20
63.25000094249844
 30
0.0
 40
7.647995109081192
100
AcDbArc
 50
154.8526281831849
 51
205.1473681743535
  0
LINE
  5
477E
330
21CC
100
AcDbEntity
  8
0
  6
Continuous
100
AcDbLine
 10
103.0000000447034
 20
63.00000095367431
 30
0.0
 11
96.99999995529651
 21
63.00000095367431
 31
0.0
  0
LINE
  5
477F
330
21CC
100
AcDbEntity
  8
0
  6
Continuous
100
AcDbLine
 10
103.0000000447034
 20
57.00000083446503
 30
0.0
 11
96.99999995529651
 21
57.00000083446503
 31
0.0
  0
LINE
  5
4780
330
21CC
100
AcDbEntity
  8
0
  6
Continuous
100
AcDbLine
 10
129.0000004321336
 20
63.00000095367431
 30
0.0
 11
123.5000003501772
 21
63.00000095367431
 31
0.0
  0
LINE
  5
4781
330
21CC
100
AcDbEntity
  8
0
  6
Continuous
100
AcDbLine
 10
129.0000004321336
 20
57.00000083446503
 30
0.0
 11
123.5000003501772
 21
57.00000083446503
 31
0.0
  0
LINE
  5
4782
330
21CC
100
AcDbEntity
  8
0
  6
Continuous
100
AcDbLine
 10
128.0000004321336
 20
64.00000095367431
 30
0.0
 11
128.0000004321336
 21
56.00000083446502
 31
0.0
  0
LINE
  5
4783
330
21CC
100
AcDbEntity
  8
0
  6
Continuous
100
AcDbLine
 10
129.0000004321336
 20
-57.00000083446503
 30
0.0
 11
123.5000003501772
 21
-57.00000083446503
 31
0.0
  0
LINE
  5
4784
330
21CC
100
AcDbEntity
  8
0
  6
Continuous
100
AcDbLine
 10
128.0000004321336
 20
-64.00000095367431
 30
0.0
 11
128.0000004321336
 21
-56.00000083446502
 31
0.0
  0
LINE
  5
4785
330
21CC
100
AcDbEntity
  8
0
  6
Continuous
100
AcDbLine
 10
129.0000004321336
 20
-63.00000095367431
 30
0.0
 11
123.5000003501772
 21
-63.00000095367431
 31
0.0
  0
LINE
  5
4786
330
21CC
100
AcDbEntity
  8
0
  6
Continuous
100
AcDbLine
 10
103.0000000447034
 20
-63.00000095367431
 30
0.0
 11
96.99999995529651
 21
-63.00000095367431
 31
0.0
  0
LINE
  5
4787
330
21CC
100
AcDbEntity
  8
0
  6
Continuous
100
AcDbLine
 10
103.0000000447034
 20
-57.00000083446503
 30
0.0
 11
96.99999995529651
 21
-57.00000083446503
 31
0.0
  0
LINE
  5
4788
330
21CC
100
AcDbEntity
  8
0
  6
Continuous
100
AcDbLine
 10
129.0000004321336
 20
-57.00000083446503
 30
0.0
 11
128.0000004321336
 21
-56.00000083446502
 31
0.0
  0
LINE
  5
4789
330
21CC
100
AcDbEntity
  8
0
  6
Continuous
100
AcDbLine
 10
129.0000004321336
 20
-63.00000095367431
 30
0.0
 11
128.0000004321336
 21
-64.00000095367431
 31
0.0
  0
LINE
  5
478A
330
21CC
100
AcDbEntity
  8
0
  6
Continuous
100
AcDbLine
 10
128.0000004321336
 20
64.00000095367431
 30
0.0
 11
129.0000004321336
 21
63.00000095367431
 31
0.0
  0
LINE
  5
478B
330
21CC
100
AcDbEntity
  8
0
  6
Continuous
100
AcDbLine
 10
129.0000004321336
 20
57.00000083446503
 30
0.0
 11
128.0000004321336
 21
56.00000083446502
 31
0.0
  0
ARC
  5
478C
330
21CC
100
AcDbEntity
  8
0
  6
Continuous
100
AcDbCircle
 10
83.99999977648258
 20
51.05144539143521
 30
0.0
 40
1.0
100
AcDbArc
 50
287.4014787600071
 51
0.0
  0
ARC
  5
478D
330
21CC
100
AcDbEntity
  8
0
  6
Continuous
100
AcDbCircle
 10
116.0000002235174
 20
51.05144539143521
 30
0.0
 40
1.0
100
AcDbArc
 50
180.0
 51
252.5985212399928
  0
ARC
  5
478E
330
21CC
100
AcDbEntity
  8
0
  6
Continuous
100
AcDbCircle
 10
104.0000000447035
 20
43.31570217299258
 30
0.0
 40
1.0
100
AcDbArc
 50
180.0
 51
264.7239694172308
  0
ARC
  5
478F
330
21CC
100
AcDbEntity
  8
0
  6
Continuous
100
AcDbCircle
 10
95.99999995529651
 20
43.31570217299258
 30
0.0
 40
1.0
100
AcDbArc
 50
275.2760305827692
 51
0.0
  0
ARC
  5
4790
330
21CC
100
AcDbEntity
  8
0
  6
Continuous
100
AcDbCircle
 10
104.0000000447035
 20
-43.31570217299258
 30
0.0
 40
1.0
100
AcDbArc
 50
95.27603058276918
 51
180.0
  0
ARC
  5
4791
330
21CC
100
AcDbEntity
  8
0
  6
Continuous
100
AcDbCircle
 10
95.99999995529651
 20
-43.31570217299258
 30
0.0
 40
1.0
100
AcDbArc
 50
0.0
 51
84.72396941723081
  0
ARC
  5
4792
330
21CC
100
AcDbEntity
  8
0
  6
Continuous
100
AcDbCircle
 10
83.99999977648258
 20
-51.05144539143521
 30
0.0
 40
1.0
100
AcDbArc
 50
0.0
 51
72.59852123999285
  0
ARC
  5
4793
330
21CC
100
AcDbEntity
  8
0
  6
Continuous
100
AcDbCircle
 10
116.0000002235174
 20
-51.05144539143521
 30
0.0
 40
1.0
100
AcDbArc
 50
107.4014787600071
 51
180.0
  0
LINE
  5
4C4E
330
21CC
100
AcDbEntity
  8
0
  6
CENTER
100
AcDbLine
 10
100.0
 20
-105.8365499999999
 30
0.0
 11
100.0
 21
-194.16345
 31
0.0
  0
LINE
  5
4C4F
330
21CC
100
AcDbEntity
  8
0
  6
Continuous
100
AcDbLine
 10
142.0
 20
-169.0499899999999
 30
0.0
 11
193.492947374666
 21
-169.0499899999999
 31
0.0
  0
LINE
  5
4C50
330
21CC
100
AcDbEntity
  8
0
  6
Continuous
100
AcDbLine
 10
193.4929873746839
 20
-130.95001
 30
0.0
 11
142.0
 21
-130.95001
 31
0.0
  0
LINE
  5
4C51
330
21CC
100
AcDbEntity
  8
0
  6
Continuous
100
AcDbLine
 10
140.0
 20
-127.6499899999999
 30
0.0
 11
140.0
 21
-128.95001
 31
0.0
  0
LINE
  5
4C52
330
21CC
100
AcDbEntity
  8
0
  6
Continuous
100
AcDbLine
 10
144.5
 20
-127.6499899999999
 30
0.0
 11
103.0
 21
-127.6499899999999
 31
0.0
  0
LINE
  5
4C53
330
21CC
100
AcDbEntity
  8
0
  6
Continuous
100
AcDbLine
 10
144.5
 20
-110.6499899999998
 30
0.0
 11
103.0
 21
-110.6499899999998
 31
0.0
  0
LINE
  5
4C54
330
21CC
100
AcDbEntity
  8
0
  6
Continuous
100
AcDbLine
 10
152.5
 20
-113.5617699999998
 30
0.0
 11
152.5
 21
-124.7382199999997
 31
0.0
  0
LINE
  5
4C55
330
21CC
100
AcDbEntity
  8
0
  6
Continuous
100
AcDbLine
 10
152.5
 20
-113.5617499999998
 30
0.0
 11
144.5
 21
-110.6499899999998
 31
0.0
  0
LINE
  5
4C56
330
21CC
100
AcDbEntity
  8
0
  6
Continuous
100
AcDbLine
 10
152.5
 20
-124.7382400000001
 30
0.0
 11
144.5
 21
-127.6499899999999
 31
0.0
  0
LINE
  5
4C57
330
21CC
100
AcDbEntity
  8
0
  6
Continuous
100
AcDbLine
 10
103.0
 20
-110.6499899999998
 30
0.0
 11
103.0
 21
-127.6499899999999
 31
0.0
  0
LINE
  5
4C58
330
21CC
100
AcDbEntity
  8
0
  6
Continuous
100
AcDbLine
 10
115.0
 20
-112.1499899999998
 30
0.0
 11
115.0
 21
-126.1499899999998
 31
0.0
  0
LINE
  5
4C59
330
21CC
100
AcDbEntity
  8
0
  6
Continuous
100
AcDbLine
 10
152.5
 20
-113.5617699999998
 30
0.0
 11
123.308697403811
 21
-113.5617699999998
 31
0.0
  0
LINE
  5
4C5A
330
21CC
100
AcDbEntity
  8
0
  6
Continuous
100
AcDbLine
 10
152.5
 20
-124.7382199999997
 30
0.0
 11
123.308697403811
 21
-124.7382199999997
 31
0.0
  0
LINE
  5
4C5B
330
21CC
100
AcDbEntity
  8
0
  6
Continuous
100
AcDbLine
 10
115.0
 20
-112.1499899999998
 30
0.0
 11
103.0
 21
-112.1499899999998
 31
0.0
  0
LINE
  5
4C5C
330
21CC
100
AcDbEntity
  8
0
  6
Continuous
100
AcDbLine
 10
115.0
 20
-126.1499899999998
 30
0.0
 11
103.0
 21
-126.1499899999998
 31
0.0
  0
LINE
  5
4C5D
330
21CC
100
AcDbEntity
  8
0
  6
Continuous
100
AcDbLine
 10
144.5
 20
-189.3500100000001
 30
0.0
 11
103.0
 21
-189.3500100000001
 31
0.0
  0
LINE
  5
4C5E
330
21CC
100
AcDbEntity
  8
0
  6
Continuous
100
AcDbLine
 10
152.5
 20
-186.4382300000002
 30
0.0
 11
152.5
 21
-175.2617800000002
 31
0.0
  0
LINE
  5
4C5F
330
21CC
100
AcDbEntity
  8
0
  6
Continuous
100
AcDbLine
 10
152.5
 20
-186.4382500000001
 30
0.0
 11
144.5
 21
-189.3500100000001
 31
0.0
  0
LINE
  5
4C60
330
21CC
100
AcDbEntity
  8
0
  6
Continuous
100
AcDbLine
 10
152.5
 20
-175.2617500000001
 30
0.0
 11
144.5
 21
-172.3499900000001
 31
0.0
  0
LINE
  5
4C61
330
21CC
100
AcDbEntity
  8
0
  6
Continuous
100
AcDbLine
 10
103.0
 20
-189.3500100000001
 30
0.0
 11
103.0
 21
-172.3500100000001
 31
0.0
  0
LINE
  5
4C62
330
21CC
100
AcDbEntity
  8
0
  6
Continuous
100
AcDbLine
 10
152.5
 20
-186.4382300000002
 30
0.0
 11
123.3087010406541
 21
-186.4382300000002
 31
0.0
  0
LINE
  5
4C63
330
21CC
100
AcDbEntity
  8
0
  6
Continuous
100
AcDbLine
 10
152.5
 20
-175.2617800000002
 30
0.0
 11
123.3086937669206
 21
-175.2617800000002
 31
0.0
  0
LINE
  5
4C64
330
21CC
100
AcDbEntity
  8
0
  6
Continuous
100
AcDbLine
 10
115.0
 20
-187.8500100000001
 30
0.0
 11
103.0
 21
-187.8500100000001
 31
0.0
  0
LINE
  5
4C65
330
21CC
100
AcDbEntity
  8
0
  6
Continuous
100
AcDbLine
 10
115.0
 20
-173.8500100000001
 30
0.0
 11
103.0
 21
-173.8500100000001
 31
0.0
  0
LINE
  5
4C66
330
21CC
100
AcDbEntity
  8
0
  6
Continuous
100
AcDbLine
 10
144.5
 20
-172.3500100000001
 30
0.0
 11
103.0
 21
-172.3500100000001
 31
0.0
  0
LINE
  5
4C67
330
21CC
100
AcDbEntity
  8
0
  6
Continuous
100
AcDbLine
 10
140.0
 20
-172.3500100000001
 30
0.0
 11
140.0
 21
-171.0499899999999
 31
0.0
  0
LINE
  5
4C68
330
21CC
100
AcDbEntity
  8
0
  6
Continuous
100
AcDbLine
 10
200.0
 20
-124.75
 30
0.0
 11
200.0
 21
-175.2499999999999
 31
0.0
  0
LINE
  5
4C69
330
21CC
100
AcDbEntity
  8
0
  6
Continuous
100
AcDbLine
 10
200.0
 20
-124.75
 30
0.0
 11
197.71017
 21
-124.75
 31
0.0
  0
LINE
  5
4C6A
330
21CC
100
AcDbEntity
  8
0
  6
Continuous
100
AcDbLine
 10
194.8933699999999
 20
-168.3969132068309
 30
0.0
 11
194.8933699999999
 21
-131.6031079067333
 31
0.0
  0
LINE
  5
4C6B
330
21CC
100
AcDbEntity
  8
0
  6
Continuous
100
AcDbLine
 10
197.1499900000001
 20
-127.673893196737
 30
0.0
 11
197.1499900000001
 21
-172.3262114189924
 31
0.0
  0
LINE
  5
4C6C
330
21CC
100
AcDbEntity
  8
0
  6
Continuous
100
AcDbLine
 10
196.9584400000001
 20
-125.27637
 30
0.0
 11
195.3723724126423
 21
-129.6340508460744
 31
0.0
  0
LINE
  5
4C6D
330
21CC
100
AcDbEntity
  8
0
  6
Continuous
100
AcDbLine
 10
200.0
 20
-175.2499999999999
 30
0.0
 11
197.71017
 21
-175.2499999999999
 31
0.0
  0
LINE
  5
4C6E
330
21CC
100
AcDbEntity
  8
0
  6
Continuous
100
AcDbLine
 10
196.9583999999999
 20
-174.7236200000002
 30
0.0
 11
195.3723319081167
 21
-170.3659477678047
 31
0.0
  0
ARC
  5
4C6F
330
21CC
100
AcDbEntity
  8
0
  6
Continuous
100
AcDbCircle
 10
142.0
 20
-128.95001
 30
0.0
 40
2.0
100
AcDbArc
 50
180.0
 51
270.0
  0
ARC
  5
4C70
330
21CC
100
AcDbEntity
  8
0
  6
Continuous
100
AcDbCircle
 10
142.0
 20
-171.0499899999999
 30
0.0
 40
2.0
100
AcDbArc
 50
90.0
 51
180.0
  0
ARC
  5
4C71
330
21CC
100
AcDbEntity
  8
0
  6
Continuous
100
AcDbCircle
 10
158.9675232473982
 20
-150.0
 30
0.0
 40
26.88250466643122
100
AcDbArc
 50
136.3071649901197
 51
223.6928350098803
  0
ARC
  5
4C72
330
21CC
100
AcDbEntity
  8
0
  6
Continuous
100
AcDbCircle
 10
197.71017
 20
-125.5499999999997
 30
0.0
 40
0.8000000099999999
100
AcDbArc
 50
90.0
 51
159.999339999998
  0
ARC
  5
4C73
330
21CC
100
AcDbEntity
  8
0
  6
Continuous
100
AcDbCircle
 10
197.71017
 20
-174.4500000000002
 30
0.0
 40
0.8000000099999999
100
AcDbArc
 50
200.0006600000019
 51
270.0
  0
ARC
  5
4C74
330
21CC
100
AcDbEntity
  8
0
  6
Continuous
100
AcDbCircle
 10
193.4929873746839
 20
-128.95001
 30
0.0
 40
2.0
100
AcDbArc
 50
270.0
 51
339.9999829451928
  0
ARC
  5
4C75
330
21CC
100
AcDbEntity
  8
0
  6
Continuous
100
AcDbCircle
 10
193.492947374666
 20
-171.0499899999999
 30
0.0
 40
2.0
100
AcDbArc
 50
20.00005931271892
 51
90.0
  0
LINE
  5
4C76
330
21CC
100
AcDbEntity
  8
0
  6
Continuous
100
AcDbLine
 10
121.5
 20
-125.3999949999997
 30
0.0
 11
121.5
 21
-112.8999950000002
 31
0.0
  0
ARC
  5
4C77
330
21CC
100
AcDbEntity
  8
0
  6
Continuous
100
AcDbCircle
 10
117.5251083374023
 20
-124.7791574999996
 30
0.0
 40
3.752776145935058
100
AcDbArc
 50
330.0000105759246
 51
29.99998942407543
  0
ARC
  5
4C78
330
21CC
100
AcDbEntity
  8
0
  6
Continuous
100
AcDbCircle
 10
118.9748916625976
 20
-124.7791575000001
 30
0.0
 40
3.752776145935058
100
AcDbArc
 50
150.0000105759245
 51
209.9999894240754
  0
ARC
  5
4C79
330
21CC
100
AcDbEntity
  8
0
  6
Continuous
100
AcDbCircle
 10
111.423469543457
 20
-119.1499950000002
 30
0.0
 40
10.07653045654297
100
AcDbArc
 50
338.1346069180819
 51
21.86539308191804
  0
ARC
  5
4C7A
330
21CC
100
AcDbEntity
  8
0
  6
Continuous
100
AcDbCircle
 10
117.5251083374023
 20
-113.5208324999998
 30
0.0
 40
3.752776145935058
100
AcDbArc
 50
330.0000105759246
 51
29.99998942407543
  0
LINE
  5
4C7B
330
21CC
100
AcDbEntity
  8
0
  6
Continuous
100
AcDbLine
 10
120.7751082074999
 20
-111.6444449999999
 30
0.0
 11
121.5
 21
-112.8999950000002
 31
0.0
  0
LINE
  5
4C7C
330
21CC
100
AcDbEntity
  8
0
  6
Continuous
100
AcDbLine
 10
115.7248917925
 20
-111.6444449999999
 30
0.0
 11
115.0
 21
-112.8999950000002
 31
0.0
  0
ARC
  5
4C7D
330
21CC
100
AcDbEntity
  8
0
  6
Continuous
100
AcDbCircle
 10
118.9748916625976
 20
-113.5208324999998
 30
0.0
 40
3.752776145935058
100
AcDbArc
 50
150.0000105759245
 51
209.9999894240754
  0
LINE
  5
4C7E
330
21CC
100
AcDbEntity
  8
0
  6
Continuous
100
AcDbLine
 10
115.7248918546988
 20
-111.6444449999999
 30
0.0
 11
120.7751082074999
 21
-111.6444449999999
 31
0.0
  0
ARC
  5
4C7F
330
21CC
100
AcDbEntity
  8
0
  6
Continuous
100
AcDbCircle
 10
125.0765304565429
 20
-119.1499950000002
 30
0.0
 40
10.07653045654297
100
AcDbArc
 50
158.1346069180819
 51
201.865393081918
  0
LINE
  5
4C80
330
21CC
100
AcDbEntity
  8
0
  6
Continuous
100
AcDbLine
 10
115.7248918546988
 20
-115.3972200000003
 30
0.0
 11
120.7751082074999
 21
-115.3972199999998
 31
0.0
  0
LINE
  5
4C81
330
21CC
100
AcDbEntity
  8
0
  6
Continuous
100
AcDbLine
 10
115.7248917851114
 20
-122.9027700000001
 30
0.0
 11
120.7751082074999
 21
-122.9027700000001
 31
0.0
  0
LINE
  5
4C82
330
21CC
100
AcDbEntity
  8
0
  6
Continuous
100
AcDbLine
 10
120.7751082074999
 20
-126.655545
 30
0.0
 11
121.5
 21
-125.3999949999997
 31
0.0
  0
LINE
  5
4C83
330
21CC
100
AcDbEntity
  8
0
  6
Continuous
100
AcDbLine
 10
115.7248918546988
 20
-126.655545
 30
0.0
 11
120.7751082074999
 21
-126.655545
 31
0.0
  0
LINE
  5
4C84
330
21CC
100
AcDbEntity
  8
0
  6
Continuous
100
AcDbLine
 10
115.7248917925
 20
-126.655545
 30
0.0
 11
115.0
 21
-125.3999949999997
 31
0.0
  0
LINE
  5
4C85
330
21CC
100
AcDbEntity
  8
0
  6
Continuous
100
AcDbLine
 10
128.0000001117587
 20
-123.1499950596048
 30
0.0
 11
123.5000000298023
 21
-123.1499950596048
 31
0.0
  0
LINE
  5
4C86
330
21CC
100
AcDbEntity
  8
0
  6
Continuous
100
AcDbLine
 10
123.5000000298023
 20
-124.149995074506
 30
0.0
 11
123.5000000298023
 21
-114.1499949254944
 31
0.0
  0
LINE
  5
4C87
330
21CC
100
AcDbEntity
  8
0
  6
Continuous
100
AcDbLine
 10
129.0000001117587
 20
-122.1499950596048
 30
0.0
 11
129.0000001117587
 21
-116.1499949403955
 31
0.0
  0
LINE
  5
4C88
330
21CC
100
AcDbEntity
  8
0
  6
Continuous
100
AcDbLine
 10
122.5000000149011
 20
-125.1499950894071
 30
0.0
 11
121.5
 21
-125.1499950894071
 31
0.0
  0
LINE
  5
4C89
330
21CC
100
AcDbEntity
  8
0
  6
Continuous
100
AcDbLine
 10
122.5000000149011
 20
-113.1499949105932
 30
0.0
 11
121.5
 21
-113.1499949105932
 31
0.0
  0
LINE
  5
4C8A
330
21CC
100
AcDbEntity
  8
0
  6
Continuous
100
AcDbLine
 10
128.0000001117587
 20
-115.1499949403955
 30
0.0
 11
123.5000000298023
 21
-115.1499949403955
 31
0.0
  0
ARC
  5
4C8B
330
21CC
100
AcDbEntity
  8
0
  6
Continuous
100
AcDbCircle
 10
122.5000000149011
 20
-124.149995074506
 30
0.0
 40
1.00000001490116
100
AcDbArc
 50
270.0000043257074
 51
0.000005008963459
  0
ARC
  5
4C8C
330
21CC
100
AcDbEntity
  8
0
  6
Continuous
100
AcDbCircle
 10
122.5000000149011
 20
-114.1499949254944
 30
0.0
 40
1.00000001490116
100
AcDbArc
 50
359.9999949910365
 51
89.99999567428604
  0
LINE
  5
4C8D
330
21CC
100
AcDbEntity
  8
0
  6
Continuous
100
AcDbLine
 10
129.0000001117587
 20
-116.1499949403955
 30
0.0
 11
123.5000000298023
 21
-116.1499949403955
 31
0.0
  0
LINE
  5
4C8E
330
21CC
100
AcDbEntity
  8
0
  6
Continuous
100
AcDbLine
 10
128.0000001117587
 20
-123.1499950596048
 30
0.0
 11
128.0000001117587
 21
-115.1499949403955
 31
0.0
  0
LINE
  5
4C8F
330
21CC
100
AcDbEntity
  8
0
  6
Continuous
100
AcDbLine
 10
129.0000001117587
 20
-122.1499950596048
 30
0.0
 11
123.5000000298023
 21
-122.1499950596048
 31
0.0
  0
LINE
  5
4C90
330
21CC
100
AcDbEntity
  8
0
  6
Continuous
100
AcDbLine
 10
129.0000001117587
 20
-116.1499949403955
 30
0.0
 11
128.0000001117587
 21
-115.1499949403955
 31
0.0
  0
LINE
  5
4C91
330
21CC
100
AcDbEntity
  8
0
  6
Continuous
100
AcDbLine
 10
129.0000001117587
 20
-122.1499950596048
 30
0.0
 11
128.0000001117587
 21
-123.1499950596048
 31
0.0
  0
LINE
  5
4C92
330
21CC
100
AcDbEntity
  8
0
  6
Continuous
100
AcDbLine
 10
115.0
 20
-173.8500049999997
 30
0.0
 11
115.0
 21
-187.8500049999997
 31
0.0
  0
LINE
  5
4C93
330
21CC
100
AcDbEntity
  8
0
  6
Continuous
100
AcDbLine
 10
121.5
 20
-187.1000100000001
 30
0.0
 11
121.5
 21
-174.6000100000001
 31
0.0
  0
ARC
  5
4C94
330
21CC
100
AcDbEntity
  8
0
  6
Continuous
100
AcDbCircle
 10
117.5251083374023
 20
-186.4791725
 30
0.0
 40
3.752776145935058
100
AcDbArc
 50
330.0000105759246
 51
29.99998942407543
  0
ARC
  5
4C95
330
21CC
100
AcDbEntity
  8
0
  6
Continuous
100
AcDbCircle
 10
118.9748916625976
 20
-186.4791725
 30
0.0
 40
3.752776145935058
100
AcDbArc
 50
150.0000105759245
 51
209.9999894240754
  0
ARC
  5
4C96
330
21CC
100
AcDbEntity
  8
0
  6
Continuous
100
AcDbCircle
 10
111.423469543457
 20
-180.8500100000001
 30
0.0
 40
10.07653045654297
100
AcDbArc
 50
338.1346069180819
 51
21.86539308188901
  0
ARC
  5
4C97
330
21CC
100
AcDbEntity
  8
0
  6
Continuous
100
AcDbCircle
 10
117.5251083374023
 20
-175.2208475000002
 30
0.0
 40
3.752776145935058
100
AcDbArc
 50
330.0000105759246
 51
29.99998942407543
  0
LINE
  5
4C98
330
21CC
100
AcDbEntity
  8
0
  6
Continuous
100
AcDbLine
 10
120.7751082074999
 20
-173.3444599999998
 30
0.0
 11
121.5
 21
-174.6000100000001
 31
0.0
  0
LINE
  5
4C99
330
21CC
100
AcDbEntity
  8
0
  6
Continuous
100
AcDbLine
 10
115.7248917925
 20
-173.3444599999998
 30
0.0
 11
115.0
 21
-174.6000100000001
 31
0.0
  0
ARC
  5
4C9A
330
21CC
100
AcDbEntity
  8
0
  6
Continuous
100
AcDbCircle
 10
118.9748916625976
 20
-175.2208475000002
 30
0.0
 40
3.752776145935058
100
AcDbArc
 50
150.0000105759245
 51
209.9999894240754
  0
LINE
  5
4C9B
330
21CC
100
AcDbEntity
  8
0
  6
Continuous
100
AcDbLine
 10
115.7248918546988
 20
-173.3444599999998
 30
0.0
 11
120.7751082074999
 21
-173.3444599999998
 31
0.0
  0
ARC
  5
4C9C
330
21CC
100
AcDbEntity
  8
0
  6
Continuous
100
AcDbCircle
 10
125.0765304565429
 20
-180.8500100000001
 30
0.0
 40
10.07653045654297
100
AcDbArc
 50
158.1346069181109
 51
201.865393081889
  0
LINE
  5
4C9D
330
21CC
100
AcDbEntity
  8
0
  6
Continuous
100
AcDbLine
 10
115.7248918546988
 20
-177.0972350000001
 30
0.0
 11
120.7751082074999
 21
-177.0972350000001
 31
0.0
  0
LINE
  5
4C9E
330
21CC
100
AcDbEntity
  8
0
  6
Continuous
100
AcDbLine
 10
115.7248917851114
 20
-184.602785
 30
0.0
 11
120.7751082074999
 21
-184.602785
 31
0.0
  0
LINE
  5
4C9F
330
21CC
100
AcDbEntity
  8
0
  6
Continuous
100
AcDbLine
 10
120.7751082074999
 20
-188.3555599999999
 30
0.0
 11
121.5
 21
-187.1000100000001
 31
0.0
  0
LINE
  5
4CA0
330
21CC
100
AcDbEntity
  8
0
  6
Continuous
100
AcDbLine
 10
115.7248918546988
 20
-188.3555599999999
 30
0.0
 11
120.7751082074999
 21
-188.3555599999999
 31
0.0
  0
LINE
  5
4CA1
330
21CC
100
AcDbEntity
  8
0
  6
Continuous
100
AcDbLine
 10
115.7248917925
 20
-188.3555599999999
 30
0.0
 11
115.0
 21
-187.1000100000001
 31
0.0
  0
LINE
  5
4CA2
330
21CC
100
AcDbEntity
  8
0
  6
Continuous
100
AcDbLine
 10
128.0000001117587
 20
-184.8500100596047
 30
0.0
 11
123.5000000298023
 21
-184.8500100596047
 31
0.0
  0
LINE
  5
4CA3
330
21CC
100
AcDbEntity
  8
0
  6
Continuous
100
AcDbLine
 10
123.5000000298023
 20
-185.8500100745059
 30
0.0
 11
123.5000000298023
 21
-175.8500099254943
 31
0.0
  0
LINE
  5
4CA4
330
21CC
100
AcDbEntity
  8
0
  6
Continuous
100
AcDbLine
 10
129.0000001117587
 20
-183.8500100596047
 30
0.0
 11
129.0000001117587
 21
-177.8500099403954
 31
0.0
  0
LINE
  5
4CA5
330
21CC
100
AcDbEntity
  8
0
  6
Continuous
100
AcDbLine
 10
122.5000000149011
 20
-186.850010089407
 30
0.0
 11
121.5
 21
-186.850010089407
 31
0.0
  0
LINE
  5
4CA6
330
21CC
100
AcDbEntity
  8
0
  6
Continuous
100
AcDbLine
 10
122.5000000149011
 20
-174.8500099105931
 30
0.0
 11
121.5
 21
-174.8500099105931
 31
0.0
  0
LINE
  5
4CA7
330
21CC
100
AcDbEntity
  8
0
  6
Continuous
100
AcDbLine
 10
128.0000001117587
 20
-176.8500099403954
 30
0.0
 11
123.5000000298023
 21
-176.8500099403954
 31
0.0
  0
ARC
  5
4CA8
330
21CC
100
AcDbEntity
  8
0
  6
Continuous
100
AcDbCircle
 10
122.5000000149011
 20
-185.8500100745059
 30
0.0
 40
1.00000001490116
100
AcDbArc
 50
270.0000043257074
 51
0.000005008963459
  0
ARC
  5
4CA9
330
21CC
100
AcDbEntity
  8
0
  6
Continuous
100
AcDbCircle
 10
122.5000000149011
 20
-175.8500099254943
 30
0.0
 40
1.00000001490116
100
AcDbArc
 50
359.9999949910365
 51
89.99999567428604
  0
LINE
  5
4CAA
330
21CC
100
AcDbEntity
  8
0
  6
Continuous
100
AcDbLine
 10
129.0000001117587
 20
-177.8500099403954
 30
0.0
 11
123.5000000298023
 21
-177.8500099403954
 31
0.0
  0
LINE
  5
4CAB
330
21CC
100
AcDbEntity
  8
0
  6
Continuous
100
AcDbLine
 10
128.0000001117587
 20
-184.8500100596047
 30
0.0
 11
128.0000001117587
 21
-176.8500099403954
 31
0.0
  0
LINE
  5
4CAC
330
21CC
100
AcDbEntity
  8
0
  6
Continuous
100
AcDbLine
 10
129.0000001117587
 20
-183.8500100596047
 30
0.0
 11
123.5000000298023
 21
-183.8500100596047
 31
0.0
  0
LINE
  5
4CAD
330
21CC
100
AcDbEntity
  8
0
  6
Continuous
100
AcDbLine
 10
129.0000001117587
 20
-177.8500099403954
 30
0.0
 11
128.0000001117587
 21
-176.8500099403954
 31
0.0
  0
LINE
  5
4CAE
330
21CC
100
AcDbEntity
  8
0
  6
Continuous
100
AcDbLine
 10
129.0000001117587
 20
-183.8500100596047
 30
0.0
 11
128.0000001117587
 21
-184.8500100596047
 31
0.0
  0
ENDSEC
  0
SECTION
  2
OBJECTS
  0
DICTIONARY
  5
21BA
330
0
100
AcDbDictionary
281
     1
  3
ACAD_GROUP
350
21BB
  3
ACAD_LAYOUT
350
21C7
  3
ACAD_MLINESTYLE
350
21C4
  3
ACAD_PLOTSETTINGS
350
21C6
  3
ACAD_PLOTSTYLENAME
350
21BC
  3
AcDbVariableDictionary
350
2238
  0
DICTIONARY
  5
2244
330
21B0
100
AcDbDictionary
280
     1
281
     1
  3
ACAD_LAYERSTATES
360
2245
  0
DICTIONARY
  5
21F8
330
21CC
100
AcDbDictionary
280
     1
281
     1
  3
ACAD_LAYOUTSELFREF
360
2227
  0
DICTIONARY
  5
21FA
330
21C8
100
AcDbDictionary
280
     1
281
     1
  3
ACAD_LAYOUTSELFREF
360
2226
  0
DICTIONARY
  5
21BB
102
{ACAD_REACTORS
330
21BA
102
}
330
21BA
100
AcDbDictionary
281
     1
  0
DICTIONARY
  5
21C7
102
{ACAD_REACTORS
330
21BA
102
}
330
21BA
100
AcDbDictionary
281
     1
  3
Model
350
21CF
  3
ﾚｲｱｳﾄ1
350
21CB
  0
DICTIONARY
  5
21C4
102
{ACAD_REACTORS
330
21BA
102
}
330
21BA
100
AcDbDictionary
281
     1
  3
Standard
350
21C5
  0
DICTIONARY
  5
21C6
102
{ACAD_REACTORS
330
21BA
102
}
330
21BA
100
AcDbDictionary
281
     1
  0
ACDBDICTIONARYWDFLT
  5
21BC
102
{ACAD_REACTORS
330
21BA
102
}
330
21BA
100
AcDbDictionary
281
     1
  3
Normal
350
21BD
100
AcDbDictionaryWithDefault
340
21BD
  0
DICTIONARY
  5
2238
102
{ACAD_REACTORS
330
21BA
102
}
330
21BA
100
AcDbDictionary
281
     1
  3
DIMASSOC
350
2239
  0
DICTIONARY
  5
2245
102
{ACAD_REACTORS
330
2244
102
}
330
2244
100
AcDbDictionary
281
     1
  0
XRECORD
  5
2227
102
{ACAD_REACTORS
330
21F8
102
}
330
21F8
100
AcDbXrecord
280
     1
340
21CC
  0
XRECORD
  5
2226
102
{ACAD_REACTORS
330
21FA
102
}
330
21FA
100
AcDbXrecord
280
     1
340
21C8
  0
LAYOUT
  5
21CF
102
{ACAD_REACTORS
330
21C7
102
}
330
21C7
100
AcDbPlotSettings
  1

  2
SII LP-2150 (D-SCAN C2)
  4

  6

 40
0.0
 41
0.0
 42
0.0
 43
0.0
 44
0.0
 45
0.0
 46
0.0
 47
0.0
 48
0.0
 49
0.0
140
0.0
141
0.0
142
1.0
143
1.0
 70
  1712
 72
     0
 73
     0
 74
     0
  7

 75
     0
147
1.0
148
0.0
149
0.0
100
AcDbLayout
  1
Model
 70
     1
 71
     0
 10
0.0
 20
0.0
 11
12.0
 21
9.0
 12
0.0
 22
0.0
 32
0.0
 14
0.0
 24
0.0
 34
0.0
 15
0.0
 25
0.0
 35
0.0
146
0.0
 13
0.0
 23
0.0
 33
0.0
 16
1.0
 26
0.0
 36
0.0
 17
0.0
 27
1.0
 37
0.0
 76
     0
330
21CC
  0
LAYOUT
  5
21CB
102
{ACAD_REACTORS
330
21C7
102
}
330
21C7
100
AcDbPlotSettings
  1

  2
SII LP-2150 (D-SCAN C2)
  4

  6

 40
0.0
 41
0.0
 42
0.0
 43
0.0
 44
0.0
 45
0.0
 46
0.0
 47
0.0
 48
0.0
 49
0.0
140
0.0
141
0.0
142
1.0
143
1.0
 70
   688
 72
     0
 73
     0
 74
     5
  7

 75
    16
147
1.0
148
0.0
149
0.0
100
AcDbLayout
  1
ﾚｲｱｳﾄ1
 70
     1
 71
     1
 10
0.0
 20
0.0
 11
12.0
 21
9.0
 12
0.0
 22
0.0
 32
0.0
 14
1.000000000000000E+20
 24
1.000000000000000E+20
 34
1.000000000000000E+20
 15
-1.000000000000000E+20
 25
-1.000000000000000E+20
 35
-1.000000000000000E+20
146
0.0
 13
0.0
 23
0.0
 33
0.0
 16
1.0
 26
0.0
 36
0.0
 17
0.0
 27
1.0
 37
0.0
 76
     0
330
21C8
  0
MLINESTYLE
  5
21C5
102
{ACAD_REACTORS
330
21C4
102
}
330
21C4
100
AcDbMlineStyle
  2
STANDARD
 70
     0
  3

 62
   256
 51
90.0
 52
90.0
 71
     2
 49
0.5
 62
   256
  6
BYLAYER
 49
-0.5
 62
   256
  6
BYLAYER
  0
ACDBPLACEHOLDER
  5
21BD
102
{ACAD_REACTORS
330
21BC
102
}
330
21BC
  0
DICTIONARYVAR
  5
2239
102
{ACAD_REACTORS
330
2238
102
}
330
2238
100
DictionaryVariables
280
     0
  1
1
  0
ENDSEC
  0
EOF
