  0
SECTION
  2
HEADER
  9
$ACADVER
  1
AC1015
  9
$ACADMAINTVER
 70
    14
  9
$DWGCODEPAGE
  3
ANSI_932
  9
$INSBASE
 10
0.0
 20
0.0
 30
0.0
  9
$EXTMIN
 10
-10.0106771452007
 20
-100.0051278347376
 30
-0.0000000349181948
  9
$EXTMAX
 10
333.9519167782652
 20
198.0095509295697
 30
0.0000000814935746
  9
$LIMMIN
 10
0.0
 20
0.0
  9
$LIMMAX
 10
12.0
 20
9.0
  9
$ORTHOMODE
 70
     0
  9
$REGENMODE
 70
     1
  9
$FILLMODE
 70
     1
  9
$QTEXTMODE
 70
     0
  9
$MIRRTEXT
 70
     1
  9
$LTSCALE
 40
1.0
  9
$ATTMODE
 70
     1
  9
$TEXTSIZE
 40
0.2
  9
$TRACEWID
 40
0.05
  9
$TEXTSTYLE
  7
STANDARD
  9
$CLAYER
  8
0
  9
$CELTYPE
  6
CONTINUOUS
  9
$CECOLOR
 62
   256
  9
$CELTSCALE
 40
1.0
  9
$DISPSILH
 70
     0
  9
$DIMSCALE
 40
1.0
  9
$DIMASZ
 40
1.0
  9
$DIMEXO
 40
2.54
  9
$DIMDLI
 40
0.38
  9
$DIMRND
 40
0.0
  9
$DIMDLE
 40
0.0
  9
$DIMEXE
 40
2.54
  9
$DIMTP
 40
0.0
  9
$DIMTM
 40
0.0
  9
$DIMTXT
 40
3.2
  9
$DIMCEN
 40
0.09
  9
$DIMTSZ
 40
0.0
  9
$DIMTOL
 70
     0
  9
$DIMLIM
 70
     0
  9
$DIMTIH
 70
     0
  9
$DIMTOH
 70
     0
  9
$DIMSE1
 70
     0
  9
$DIMSE2
 70
     0
  9
$DIMTAD
 70
     1
  9
$DIMZIN
 70
     0
  9
$DIMBLK
  1

  9
$DIMASO
 70
     1
  9
$DIMSHO
 70
     0
  9
$DIMPOST
  1

  9
$DIMAPOST
  1

  9
$DIMALT
 70
     0
  9
$DIMALTD
 70
     2
  9
$DIMALTF
 40
25.4
  9
$DIMLFAC
 40
1.0
  9
$DIMTOFL
 70
     0
  9
$DIMTVP
 40
1.0
  9
$DIMTIX
 70
     0
  9
$DIMSOXD
 70
     0
  9
$DIMSAH
 70
     1
  9
$DIMBLK1
  1

  9
$DIMBLK2
  1

  9
$DIMSTYLE
  2
STANDARD
  9
$DIMCLRD
 70
     0
  9
$DIMCLRE
 70
     0
  9
$DIMCLRT
 70
     0
  9
$DIMTFAC
 40
1.0
  9
$DIMGAP
 40
1.6
  9
$DIMJUST
 70
     0
  9
$DIMSD1
 70
     0
  9
$DIMSD2
 70
     0
  9
$DIMTOLJ
 70
     1
  9
$DIMTZIN
 70
     0
  9
$DIMALTZ
 70
     0
  9
$DIMALTTZ
 70
     0
  9
$DIMUPT
 70
     0
  9
$DIMDEC
 70
     4
  9
$DIMTDEC
 70
     4
  9
$DIMALTU
 70
     2
  9
$DIMALTTD
 70
     2
  9
$DIMTXSTY
  7
STANDARD
  9
$DIMAUNIT
 70
     0
  9
$DIMADEC
 70
     0
  9
$DIMALTRND
 40
0.0
  9
$DIMAZIN
 70
     0
  9
$DIMDSEP
 70
    46
  9
$DIMATFIT
 70
     3
  9
$DIMFRAC
 70
     0
  9
$DIMLDRBLK
  1

  9
$DIMLUNIT
 70
     2
  9
$DIMLWD
 70
    -2
  9
$DIMLWE
 70
    -2
  9
$DIMTMOVE
 70
     0
  9
$LUNITS
 70
     2
  9
$LUPREC
 70
     4
  9
$SKETCHINC
 40
0.1
  9
$FILLETRAD
 40
0.0
  9
$AUNITS
 70
     0
  9
$AUPREC
 70
     0
  9
$MENU
  1
.
  9
$ELEVATION
 40
0.0
  9
$PELEVATION
 40
0.0
  9
$THICKNESS
 40
0.0
  9
$LIMCHECK
 70
     0
  9
$CHAMFERA
 40
0.0
  9
$CHAMFERB
 40
0.0
  9
$CHAMFERC
 40
0.0
  9
$CHAMFERD
 40
0.0
  9
$SKPOLY
 70
     0
  9
$TDCREATE
 40
2452488.423138738
  9
$TDUCREATE
 40
2452488.048138738
  9
$TDUPDATE
 40
2456906.721163657
  9
$TDUUPDATE
 40
2456906.346163657
  9
$TDINDWG
 40
0.2823233912
  9
$TDUSRTIMER
 40
0.2823232060
  9
$USRTIMER
 70
     1
  9
$ANGBASE
 50
0.0
  9
$ANGDIR
 70
     0
  9
$PDMODE
 70
     3
  9
$PDSIZE
 40
0.0
  9
$PLINEWID
 40
0.0
  9
$SPLFRAME
 70
     0
  9
$SPLINETYPE
 70
     6
  9
$SPLINESEGS
 70
     8
  9
$HANDSEED
  5
26CA
  9
$SURFTAB1
 70
     6
  9
$SURFTAB2
 70
     6
  9
$SURFTYPE
 70
     6
  9
$SURFU
 70
     6
  9
$SURFV
 70
     6
  9
$UCSBASE
  2

  9
$UCSNAME
  2

  9
$UCSORG
 10
0.0
 20
0.0
 30
0.0
  9
$UCSXDIR
 10
1.0
 20
0.0
 30
0.0
  9
$UCSYDIR
 10
0.0
 20
1.0
 30
0.0
  9
$UCSORTHOREF
  2

  9
$UCSORTHOVIEW
 70
     0
  9
$UCSORGTOP
 10
0.0
 20
0.0
 30
0.0
  9
$UCSORGBOTTOM
 10
0.0
 20
0.0
 30
0.0
  9
$UCSORGLEFT
 10
0.0
 20
0.0
 30
0.0
  9
$UCSORGRIGHT
 10
0.0
 20
0.0
 30
0.0
  9
$UCSORGFRONT
 10
0.0
 20
0.0
 30
0.0
  9
$UCSORGBACK
 10
0.0
 20
0.0
 30
0.0
  9
$PUCSBASE
  2

  9
$PUCSNAME
  2

  9
$PUCSORG
 10
0.0
 20
0.0
 30
0.0
  9
$PUCSXDIR
 10
1.0
 20
0.0
 30
0.0
  9
$PUCSYDIR
 10
0.0
 20
1.0
 30
0.0
  9
$PUCSORTHOREF
  2

  9
$PUCSORTHOVIEW
 70
     0
  9
$PUCSORGTOP
 10
0.0
 20
0.0
 30
0.0
  9
$PUCSORGBOTTOM
 10
0.0
 20
0.0
 30
0.0
  9
$PUCSORGLEFT
 10
0.0
 20
0.0
 30
0.0
  9
$PUCSORGRIGHT
 10
0.0
 20
0.0
 30
0.0
  9
$PUCSORGFRONT
 10
0.0
 20
0.0
 30
0.0
  9
$PUCSORGBACK
 10
0.0
 20
0.0
 30
0.0
  9
$USERI1
 70
     0
  9
$USERI2
 70
     0
  9
$USERI3
 70
     0
  9
$USERI4
 70
     0
  9
$USERI5
 70
     0
  9
$USERR1
 40
0.0
  9
$USERR2
 40
0.0
  9
$USERR3
 40
0.0
  9
$USERR4
 40
0.0
  9
$USERR5
 40
0.0
  9
$WORLDVIEW
 70
     1
  9
$SHADEDGE
 70
     3
  9
$SHADEDIF
 70
    70
  9
$TILEMODE
 70
     1
  9
$MAXACTVP
 70
    48
  9
$PINSBASE
 10
0.0
 20
0.0
 30
0.0
  9
$PLIMCHECK
 70
     0
  9
$PEXTMIN
 10
1.000000000000000E+20
 20
1.000000000000000E+20
 30
1.000000000000000E+20
  9
$PEXTMAX
 10
-1.000000000000000E+20
 20
-1.000000000000000E+20
 30
-1.000000000000000E+20
  9
$PLIMMIN
 10
0.0
 20
0.0
  9
$PLIMMAX
 10
12.0
 20
9.0
  9
$UNITMODE
 70
     0
  9
$VISRETAIN
 70
     1
  9
$PLINEGEN
 70
     0
  9
$PSLTSCALE
 70
     1
  9
$TREEDEPTH
 70
  3020
  9
$CMLSTYLE
  2
Standard
  9
$CMLJUST
 70
     0
  9
$CMLSCALE
 40
1.0
  9
$PROXYGRAPHICS
 70
     1
  9
$MEASUREMENT
 70
     0
  9
$CELWEIGHT
370
    -1
  9
$ENDCAPS
280
     0
  9
$JOINSTYLE
280
     0
  9
$LWDISPLAY
290
     0
  9
$INSUNITS
 70
     0
  9
$HYPERLINKBASE
  1

  9
$STYLESHEET
  1

  9
$XEDIT
290
     1
  9
$CEPSNTYPE
380
     0
  9
$PSTYLEMODE
290
     1
  9
$FINGERPRINTGUID
  2
{FFE95C04-33D2-4560-80D0-1E2918E4EC86}
  9
$VERSIONGUID
  2
{10C3F575-BBA6-4C62-9E8B-E9B237EE0AF0}
  9
$EXTNAMES
290
     1
  9
$PSVPSCALE
 40
0.0
  9
$OLESTARTUP
290
     0
  0
ENDSEC
  0
SECTION
  2
CLASSES
  0
CLASS
  1
ACDBDICTIONARYWDFLT
  2
AcDbDictionaryWithDefault
  3
AutoCAD 2000
 90
        0
280
     0
281
     0
  0
CLASS
  1
ACDBPLACEHOLDER
  2
AcDbPlaceHolder
  3
AutoCAD 2000
 90
        0
280
     0
281
     0
  0
CLASS
  1
LAYOUT
  2
AcDbLayout
  3
AutoCAD 2000
 90
        0
280
     0
281
     0
  0
CLASS
  1
DICTIONARYVAR
  2
AcDbDictionaryVar
  3
AutoCAD 2000
 90
        0
280
     0
281
     0
  0
CLASS
  1
LONG_TRANSACTION
  2
AcDbLongTransaction
  3
AutoCAD 2000
 90
    32768
280
     0
281
     0
  0
CLASS
  1
LWPOLYLINE
  2
AcDbPolyline
  3
AutoCAD 2000
 90
    32768
280
     0
281
     1
  0
CLASS
  1
HATCH
  2
AcDbHatch
  3
AutoCAD 2000
 90
    32768
280
     0
281
     1
  0
CLASS
  1
XRECORD
  2
AcDbXrecord
  3
AutoCAD 2000
 90
    32768
280
     0
281
     0
  0
ENDSEC
  0
SECTION
  2
TABLES
  0
TABLE
  2
VPORT
  5
21B6
330
0
100
AcDbSymbolTable
 70
     2
  0
VPORT
  5
26C9
330
21B6
100
AcDbSymbolTableRecord
100
AcDbViewportTableRecord
  2
*Active
 70
     0
 10
0.0
 20
0.0
 11
1.0
 21
1.0
 12
161.9706198165322
 22
49.00221154741605
 13
0.0
 23
0.0
 14
1.0
 24
1.0
 15
0.0
 25
0.0
 16
0.0
 26
0.0
 36
1.0
 17
0.0
 27
0.0
 37
0.0
 40
299.9068354548744
 41
1.953389830508474
 42
50.0
 43
0.0
 44
0.0
 50
0.0
 51
0.0
 71
     0
 72
   100
 73
     1
 74
     3
 75
     0
 76
     0
 77
     0
 78
     0
281
     0
 65
     1
110
0.0
120
0.0
130
0.0
111
1.0
121
0.0
131
0.0
112
0.0
122
1.0
132
0.0
 79
     0
146
0.0
  0
ENDTAB
  0
TABLE
  2
LTYPE
  5
21B3
330
0
100
AcDbSymbolTable
 70
     2
  0
LTYPE
  5
21C1
330
21B3
100
AcDbSymbolTableRecord
100
AcDbLinetypeTableRecord
  2
ByBlock
 70
     0
  3

 72
    65
 73
     0
 40
0.0
  0
LTYPE
  5
21C2
330
21B3
100
AcDbSymbolTableRecord
100
AcDbLinetypeTableRecord
  2
ByLayer
 70
     0
  3

 72
    65
 73
     0
 40
0.0
  0
LTYPE
  5
21C3
330
21B3
100
AcDbSymbolTableRecord
100
AcDbLinetypeTableRecord
  2
CONTINUOUS
 70
     0
  3
Solid line
 72
    65
 73
     0
 40
0.0
  0
LTYPE
  5
21D1
330
21B3
100
AcDbSymbolTableRecord
100
AcDbLinetypeTableRecord
  2
CENTER
 70
     0
  3
__ . __
 72
    65
 73
     4
 40
7.0
 49
4.0
 74
     0
 49
-1.0
 74
     0
 49
1.0
 74
     0
 49
-1.0
 74
     0
  0
ENDTAB
  0
TABLE
  2
LAYER
  5
21B0
102
{ACAD_XDICTIONARY
360
2244
102
}
330
0
100
AcDbSymbolTable
 70
     1
  0
LAYER
  5
21BE
330
21B0
100
AcDbSymbolTableRecord
100
AcDbLayerTableRecord
  2
0
 70
     0
 62
     7
  6
CONTINUOUS
370
    -3
390
21BD
  0
ENDTAB
  0
TABLE
  2
STYLE
  5
21B1
330
0
100
AcDbSymbolTable
 70
     1
  0
STYLE
  5
21BF
330
21B1
100
AcDbSymbolTableRecord
100
AcDbTextStyleTableRecord
  2
STANDARD
 70
     0
 40
0.0
 41
1.0
 50
0.0
 71
     0
 42
0.2
  3
txt
  4
BIGFONT
  0
ENDTAB
  0
TABLE
  2
VIEW
  5
21B4
330
0
100
AcDbSymbolTable
 70
     1
  0
VIEW
  5
21DE
330
21B4
100
AcDbSymbolTableRecord
100
AcDbViewTableRecord
  2
OLE1
 70
     0
 40
3692.141019219747
 10
1914.591370701856
 20
1272.206200738182
 41
4595.022665841169
 11
0.0
 21
0.0
 31
1.0
 12
0.0
 22
0.0
 32
0.0
 42
50.0
 43
0.0
 44
0.0
 50
0.0
 71
     0
281
     0
 72
     1
110
0.0
120
0.0
130
0.0
111
1.0
121
0.0
131
0.0
112
0.0
122
1.0
132
0.0
 79
     0
146
0.0
  0
ENDTAB
  0
TABLE
  2
UCS
  5
21B5
330
0
100
AcDbSymbolTable
 70
     0
  0
ENDTAB
  0
TABLE
  2
APPID
  5
21B7
330
0
100
AcDbSymbolTable
 70
     8
  0
APPID
  5
21C0
330
21B7
100
AcDbSymbolTableRecord
100
AcDbRegAppTableRecord
  2
ACAD
 70
     0
  0
APPID
  5
21DF
330
21B7
100
AcDbSymbolTableRecord
100
AcDbRegAppTableRecord
  2
MCAD_NO_VIS
 70
     0
  0
APPID
  5
21E0
330
21B7
100
AcDbSymbolTableRecord
100
AcDbRegAppTableRecord
  2
ACAD_TEMP_GRAPHIC
 70
     0
  0
APPID
  5
21E1
330
21B7
100
AcDbSymbolTableRecord
100
AcDbRegAppTableRecord
  2
ACATTRIBSERVICES
 70
     0
  0
APPID
  5
21E2
330
21B7
100
AcDbSymbolTableRecord
100
AcDbRegAppTableRecord
  2
CONTENTBLOCKICON
 70
     0
  0
APPID
  5
2241
330
21B7
100
AcDbSymbolTableRecord
100
AcDbRegAppTableRecord
  2
ACAD_DSTYLE_DIMJAG
 70
     0
  0
APPID
  5
2242
330
21B7
100
AcDbSymbolTableRecord
100
AcDbRegAppTableRecord
  2
ACAD_DSTYLE_DIMTALN
 70
     0
  0
APPID
  5
2243
330
21B7
100
AcDbSymbolTableRecord
100
AcDbRegAppTableRecord
  2
ACAD_PSEXT
 70
     0
  0
ENDTAB
  0
TABLE
  2
DIMSTYLE
  5
21B8
330
0
100
AcDbSymbolTable
 70
     1
100
AcDbDimStyleTable
 71
     0
  0
DIMSTYLE
105
21E3
330
21B8
100
AcDbSymbolTableRecord
100
AcDbDimStyleTableRecord
  2
STANDARD
 70
     0
279
     2
340
21BF
  0
ENDTAB
  0
TABLE
  2
BLOCK_RECORD
  5
21AF
330
0
100
AcDbSymbolTable
 70
     0
  0
BLOCK_RECORD
  5
21CC
102
{ACAD_XDICTIONARY
360
21F8
102
}
330
21AF
100
AcDbSymbolTableRecord
100
AcDbBlockTableRecord
  2
*Model_Space
340
21CF
  0
BLOCK_RECORD
  5
21C8
102
{ACAD_XDICTIONARY
360
21FA
102
}
330
21AF
100
AcDbSymbolTableRecord
100
AcDbBlockTableRecord
  2
*Paper_Space
340
21CB
  0
ENDTAB
  0
ENDSEC
  0
SECTION
  2
BLOCKS
  0
BLOCK
  5
21CD
330
21CC
100
AcDbEntity
  8
0
100
AcDbBlockBegin
  2
*Model_Space
 70
     0
 10
0.0
 20
0.0
 30
0.0
  3
*Model_Space
  1

  0
ENDBLK
  5
21CE
330
21CC
100
AcDbEntity
  8
0
100
AcDbBlockEnd
  0
BLOCK
  5
21C9
330
21C8
100
AcDbEntity
 67
     1
  8
0
100
AcDbBlockBegin
  2
*Paper_Space
 70
     0
 10
0.0
 20
0.0
 30
0.0
  3
*Paper_Space
  1

  0
ENDBLK
  5
21CA
330
21C8
100
AcDbEntity
 67
     1
  8
0
100
AcDbBlockEnd
  0
ENDSEC
  0
SECTION
  2
ENTITIES
  0
TEXT
  5
F6E
330
21CC
100
AcDbEntity
  8
0
  6
Continuous
100
AcDbText
 10
0.0
 20
150.0
 30
0.0
 40
48.000002
  1
SGL 4S
 41
1.32095
100
AcDbText
  0
ARC
  5
2575
330
21CC
100
AcDbEntity
  8
0
100
AcDbCircle
 10
39.78356999999994
 20
-74.63878533333354
 30
0.0
 40
3.783614666666666
100
AcDbArc
 50
139.5701800000002
 51
220.4298199999997
  0
LINE
  5
2576
330
21CC
100
AcDbEntity
  8
0
100
AcDbLine
 10
35.99995333333322
 20
-89.3612186666669
 30
0.0
 11
35.99995333333322
 21
-74.63878533333354
 31
0.0
  0
ARC
  5
2577
330
21CC
100
AcDbEntity
  8
0
100
AcDbCircle
 10
39.78356999999994
 20
-89.3612186666669
 30
0.0
 40
3.783614666666666
100
AcDbArc
 50
139.5701800000002
 51
220.4298199999997
  0
ARC
  5
2578
330
21CC
100
AcDbEntity
  8
0
100
AcDbCircle
 10
49.77915333333328
 20
-82.00000200000022
 30
0.0
 40
13.77916816666666
100
AcDbArc
 50
159.1359000000016
 51
200.8640999999983
  0
LINE
  5
2579
330
21CC
100
AcDbEntity
  8
0
100
AcDbLine
 10
36.90346999999985
 20
-86.90748533333318
 30
0.0
 11
41.99996999999996
 21
-86.90748533333318
 31
0.0
  0
LINE
  5
257A
330
21CC
100
AcDbEntity
  8
0
100
AcDbLine
 10
36.90346999999985
 20
-91.81496866666657
 30
0.0
 11
41.99996999999996
 21
-91.81496866666657
 31
0.0
  0
LINE
  5
257B
330
21CC
100
AcDbEntity
  8
0
100
AcDbLine
 10
36.90346999999985
 20
-77.09251866666682
 30
0.0
 11
41.99996999999996
 21
-77.09251866666682
 31
0.0
  0
LINE
  5
257C
330
21CC
100
AcDbEntity
  8
0
100
AcDbLine
 10
36.90346999999985
 20
-72.18503533333342
 30
0.0
 11
41.99996999999996
 21
-72.18503533333342
 31
0.0
  0
ARC
  5
257D
330
21CC
100
AcDbEntity
  8
0
100
AcDbCircle
 10
210.2163699999999
 20
-74.63878533333354
 30
0.0
 40
3.783614666666666
100
AcDbArc
 50
319.5701800000002
 51
40.42982500000397
  0
LINE
  5
257E
330
21CC
100
AcDbEntity
  8
0
100
AcDbLine
 10
213.9999866666665
 20
-89.3612186666669
 30
0.0
 11
213.9999866666665
 21
-74.63878533333354
 31
0.0
  0
LINE
  5
257F
330
21CC
100
AcDbEntity
  8
0
100
AcDbLine
 10
213.09647
 20
-77.09251866666682
 30
0.0
 11
207.9999699999999
 21
-77.09251866666682
 31
0.0
  0
LINE
  5
2580
330
21CC
100
AcDbEntity
  8
0
100
AcDbLine
 10
213.09647
 20
-86.90748533333318
 30
0.0
 11
207.9999699999999
 21
-86.90748533333318
 31
0.0
  0
LINE
  5
2581
330
21CC
100
AcDbEntity
  8
0
100
AcDbLine
 10
213.09647
 20
-91.81496866666657
 30
0.0
 11
207.9999699999999
 21
-91.81496866666657
 31
0.0
  0
ARC
  5
2582
330
21CC
100
AcDbEntity
  8
0
100
AcDbCircle
 10
200.22082
 20
-82.00000200000022
 30
0.0
 40
13.77916816666666
100
AcDbArc
 50
339.1359299999977
 51
20.86406699999505
  0
ARC
  5
2583
330
21CC
100
AcDbEntity
  8
0
100
AcDbCircle
 10
210.2163699999999
 20
-89.3612186666669
 30
0.0
 40
3.783614666666666
100
AcDbArc
 50
319.5701800000002
 51
40.42982500000397
  0
LINE
  5
2584
330
21CC
100
AcDbEntity
  8
0
100
AcDbLine
 10
213.09647
 20
-72.18503533333342
 30
0.0
 11
207.9999699999999
 21
-72.18503533333342
 31
0.0
  0
ARC
  5
2585
330
21CC
100
AcDbEntity
  8
0
100
AcDbCircle
 10
40.49999999999999
 20
-53.30001300000003
 30
0.0
 40
2.5
100
AcDbArc
 50
53.1301023541625
 51
90.0
  0
LINE
  5
2586
330
21CC
100
AcDbEntity
  8
0
100
AcDbLine
 10
209.4999699999998
 20
-50.79998999999998
 30
0.0
 11
242.5830138854645
 21
-50.79999999999995
 31
0.0
  0
ARC
  5
2587
330
21CC
100
AcDbEntity
  8
0
100
AcDbCircle
 10
209.4999699999998
 20
-53.29998999999998
 30
0.0
 40
2.5
100
AcDbArc
 50
90.0
 51
126.8698976458374
  0
LINE
  5
2588
330
21CC
100
AcDbEntity
  8
0
  6
CENTER
100
AcDbLine
 10
28.5
 20
-82.00000199999999
 30
0.0
 11
226.5000119999999
 21
-82.00000199999999
 31
0.0
  0
LINE
  5
2589
330
21CC
100
AcDbEntity
  8
0
100
AcDbLine
 10
33.0
 20
-77.00000199999999
 30
0.0
 11
35.99995333333322
 21
-77.00000199999999
 31
0.0
  0
LINE
  5
258A
330
21CC
100
AcDbEntity
  8
0
100
AcDbLine
 10
33.0
 20
-87.00000300000011
 30
0.0
 11
35.99995333333322
 21
-87.00000300000011
 31
0.0
  0
LINE
  5
258B
330
21CC
100
AcDbEntity
  8
0
100
AcDbLine
 10
222.0000119999999
 20
-77.00000199999999
 30
0.0
 11
222.0000119999999
 21
-87.00000300000011
 31
0.0
  0
LINE
  5
258C
330
21CC
100
AcDbEntity
  8
0
100
AcDbLine
 10
33.0
 20
-77.00000199999999
 30
0.0
 11
33.0
 21
-87.00000300000011
 31
0.0
  0
LINE
  5
258D
330
21CC
100
AcDbEntity
  8
0
100
AcDbLine
 10
33.0
 20
-78.00000199999999
 30
0.0
 11
35.99995333333322
 21
-78.00000199999999
 31
0.0
  0
LINE
  5
258E
330
21CC
100
AcDbEntity
  8
0
100
AcDbLine
 10
33.0
 20
-86.000002
 30
0.0
 11
35.99995333333322
 21
-86.000002
 31
0.0
  0
ARC
  5
258F
330
21CC
100
AcDbEntity
  8
0
100
AcDbCircle
 10
40.49999999999999
 20
-82.00000199999999
 30
0.0
 40
9.0
100
AcDbArc
 50
146.4426899999999
 51
213.55731
  0
ARC
  5
2590
330
21CC
100
AcDbEntity
  8
0
100
AcDbCircle
 10
214.5000119999999
 20
-82.00000199999999
 30
0.0
 40
9.0
100
AcDbArc
 50
326.4426899999999
 51
33.55731099999806
  0
LINE
  5
2591
330
21CC
100
AcDbEntity
  8
0
  6
CENTER
100
AcDbLine
 10
259.9999700000001
 20
0.0
 30
0.0
 11
-10.0
 21
0.0
 31
0.0
  0
LINE
  5
2592
330
21CC
100
AcDbEntity
  8
0
100
AcDbLine
 10
207.9999699999999
 20
-100.0
 30
0.0
 11
42.0
 21
-100.0
 31
0.0
  0
LINE
  5
2593
330
21CC
100
AcDbEntity
  8
0
100
AcDbLine
 10
213.9999866666665
 20
-78.00000199999999
 30
0.0
 11
222.0000119999999
 21
-78.00000199999999
 31
0.0
  0
LINE
  5
2594
330
21CC
100
AcDbEntity
  8
0
100
AcDbLine
 10
213.9999866666665
 20
-77.00000199999999
 30
0.0
 11
222.0000119999999
 21
-77.00000199999999
 31
0.0
  0
LINE
  5
2595
330
21CC
100
AcDbEntity
  8
0
100
AcDbLine
 10
213.9999866666665
 20
-86.000002
 30
0.0
 11
222.0000119999999
 21
-86.000002
 31
0.0
  0
LINE
  5
2596
330
21CC
100
AcDbEntity
  8
0
100
AcDbLine
 10
213.9999866666665
 20
-87.00000300000011
 30
0.0
 11
222.0000119999999
 21
-87.00000300000011
 31
0.0
  0
LINE
  5
2597
330
21CC
100
AcDbEntity
  8
0
100
AcDbLine
 10
249.9999699999999
 20
-59.5
 30
0.0
 11
247.7101360305677
 21
-59.5
 31
0.0
  0
LINE
  5
2598
330
21CC
100
AcDbEntity
  8
0
100
AcDbLine
 10
246.958381933939
 20
-58.97361611466067
 30
0.0
 11
244.4623991270364
 21
-52.11595971334872
 31
0.0
  0
LINE
  5
2599
330
21CC
100
AcDbEntity
  8
0
100
AcDbLine
 10
247.1499699999999
 20
56.57619559983686
 30
0.0
 11
247.1499699999999
 21
-56.57619559983686
 31
0.0
  0
LINE
  5
259A
330
21CC
100
AcDbEntity
  8
0
100
AcDbLine
 10
243.9834289618841
 20
-50.14691922216115
 30
0.0
 11
243.9834289618841
 21
50.14691922216115
 31
0.0
  0
ARC
  5
259B
330
21CC
100
AcDbEntity
  8
0
100
AcDbCircle
 10
242.5830138854645
 20
-52.79999999999995
 30
0.0
 40
2.0
100
AcDbArc
 50
20.00000000000371
 51
90.0
  0
ARC
  5
259C
330
21CC
100
AcDbEntity
  8
0
100
AcDbCircle
 10
247.7101360305677
 20
-58.70000000000004
 30
0.0
 40
0.8
100
AcDbArc
 50
200.0000000000037
 51
270.0
  0
LINE
  5
259D
330
21CC
100
AcDbEntity
  8
0
100
AcDbLine
 10
2.849999999999909
 20
56.57619559983686
 30
0.0
 11
2.849999999999909
 21
-56.57619559983686
 31
0.0
  0
LINE
  5
259E
330
21CC
100
AcDbEntity
  8
0
100
AcDbLine
 10
6.016541038115974
 20
-50.14691922216115
 30
0.0
 11
6.016541038115974
 21
50.14691922216115
 31
0.0
  0
LINE
  5
259F
330
21CC
100
AcDbEntity
  8
0
100
AcDbLine
 10
7.416956114535423
 20
-50.79999999999995
 30
0.0
 11
40.49999999999999
 21
-50.80001300000003
 31
0.0
  0
ARC
  5
25A0
330
21CC
100
AcDbEntity
  8
0
100
AcDbCircle
 10
2.289833969432265
 20
-58.70000000000004
 30
0.0
 40
0.8
100
AcDbArc
 50
270.0
 51
339.9999999999963
  0
LINE
  5
25A1
330
21CC
100
AcDbEntity
  8
0
100
AcDbLine
 10
0.0
 20
-59.5
 30
0.0
 11
2.289833969432265
 21
-59.5
 31
0.0
  0
LINE
  5
25A2
330
21CC
100
AcDbEntity
  8
0
100
AcDbLine
 10
3.041588066060967
 20
-58.97361611466067
 30
0.0
 11
5.537570872963442
 21
-52.11595971334872
 31
0.0
  0
ARC
  5
25A3
330
21CC
100
AcDbEntity
  8
0
100
AcDbCircle
 10
7.416956114535423
 20
-52.79999999999995
 30
0.0
 40
2.0
100
AcDbArc
 50
90.0
 51
159.9999999999962
  0
LINE
  5
25A4
330
21CC
100
AcDbEntity
  8
0
100
AcDbLine
 10
42.0
 20
100.0
 30
0.0
 11
42.0
 21
-100.0
 31
0.0
  0
LINE
  5
25A5
330
21CC
100
AcDbEntity
  8
0
100
AcDbLine
 10
0.0
 20
59.5
 30
0.0
 11
0.0
 21
-59.5
 31
0.0
  0
LINE
  5
25A6
330
21CC
100
AcDbEntity
  8
0
100
AcDbLine
 10
207.9999699999999
 20
100.0
 30
0.0
 11
207.9999699999999
 21
-100.0
 31
0.0
  0
LINE
  5
25A7
330
21CC
100
AcDbEntity
  8
0
100
AcDbLine
 10
249.9999699999999
 20
59.5
 30
0.0
 11
249.9999699999999
 21
-59.5
 31
0.0
  0
ARC
  5
25A8
330
21CC
100
AcDbEntity
  8
0
100
AcDbCircle
 10
39.78356999999994
 20
74.63878533333354
 30
0.0
 40
3.783614666666666
100
AcDbArc
 50
139.5701800000002
 51
220.4298199999997
  0
LINE
  5
25A9
330
21CC
100
AcDbEntity
  8
0
100
AcDbLine
 10
35.99995333333322
 20
89.3612186666669
 30
0.0
 11
35.99995333333322
 21
74.63878533333354
 31
0.0
  0
ARC
  5
25AA
330
21CC
100
AcDbEntity
  8
0
100
AcDbCircle
 10
39.78356999999994
 20
89.3612186666669
 30
0.0
 40
3.783614666666666
100
AcDbArc
 50
139.5701800000002
 51
220.4298199999997
  0
ARC
  5
25AB
330
21CC
100
AcDbEntity
  8
0
100
AcDbCircle
 10
49.77915333333328
 20
82.00000200000022
 30
0.0
 40
13.77916816666666
100
AcDbArc
 50
159.1359000000062
 51
200.8640999999937
  0
LINE
  5
25AC
330
21CC
100
AcDbEntity
  8
0
100
AcDbLine
 10
36.90346999999985
 20
86.90748533333318
 30
0.0
 11
41.99996999999996
 21
86.90748533333318
 31
0.0
  0
LINE
  5
25AD
330
21CC
100
AcDbEntity
  8
0
100
AcDbLine
 10
36.90346999999985
 20
91.81496866666657
 30
0.0
 11
41.99996999999996
 21
91.81496866666657
 31
0.0
  0
LINE
  5
25AE
330
21CC
100
AcDbEntity
  8
0
100
AcDbLine
 10
36.90346999999985
 20
77.09251866666682
 30
0.0
 11
41.99996999999996
 21
77.09251866666682
 31
0.0
  0
LINE
  5
25AF
330
21CC
100
AcDbEntity
  8
0
100
AcDbLine
 10
36.90346999999985
 20
72.18503533333342
 30
0.0
 11
41.99996999999996
 21
72.18503533333342
 31
0.0
  0
ARC
  5
25B0
330
21CC
100
AcDbEntity
  8
0
100
AcDbCircle
 10
210.2163699999999
 20
74.63878533333354
 30
0.0
 40
3.783614666666666
100
AcDbArc
 50
319.5701749999936
 51
40.42981999999977
  0
LINE
  5
25B1
330
21CC
100
AcDbEntity
  8
0
100
AcDbLine
 10
213.9999866666665
 20
89.3612186666669
 30
0.0
 11
213.9999866666665
 21
74.63878533333354
 31
0.0
  0
LINE
  5
25B2
330
21CC
100
AcDbEntity
  8
0
100
AcDbLine
 10
213.09647
 20
77.09251866666682
 30
0.0
 11
207.9999699999999
 21
77.09251866666682
 31
0.0
  0
LINE
  5
25B3
330
21CC
100
AcDbEntity
  8
0
100
AcDbLine
 10
213.09647
 20
86.90748533333318
 30
0.0
 11
207.9999699999999
 21
86.90748533333318
 31
0.0
  0
LINE
  5
25B4
330
21CC
100
AcDbEntity
  8
0
100
AcDbLine
 10
213.09647
 20
91.81496866666657
 30
0.0
 11
207.9999699999999
 21
91.81496866666657
 31
0.0
  0
ARC
  5
25B5
330
21CC
100
AcDbEntity
  8
0
100
AcDbCircle
 10
200.22082
 20
82.00000200000022
 30
0.0
 40
13.77916816666666
100
AcDbArc
 50
339.1359330000095
 51
20.86407000000222
  0
ARC
  5
25B6
330
21CC
100
AcDbEntity
  8
0
100
AcDbCircle
 10
210.2163699999999
 20
89.3612186666669
 30
0.0
 40
3.783614666666666
100
AcDbArc
 50
319.5701749999936
 51
40.42981999999977
  0
LINE
  5
25B7
330
21CC
100
AcDbEntity
  8
0
100
AcDbLine
 10
213.09647
 20
72.18503533333342
 30
0.0
 11
207.9999699999999
 21
72.18503533333342
 31
0.0
  0
ARC
  5
25B8
330
21CC
100
AcDbEntity
  8
0
100
AcDbCircle
 10
40.49999999999999
 20
53.30001300000003
 30
0.0
 40
2.5
100
AcDbArc
 50
270.0
 51
306.8698976458446
  0
LINE
  5
25B9
330
21CC
100
AcDbEntity
  8
0
100
AcDbLine
 10
209.4999699999998
 20
50.79998999999998
 30
0.0
 11
242.5830138854645
 21
50.79999999999995
 31
0.0
  0
ARC
  5
25BA
330
21CC
100
AcDbEntity
  8
0
100
AcDbCircle
 10
209.4999699999998
 20
53.29998999999998
 30
0.0
 40
2.5
100
AcDbArc
 50
233.1301023541553
 51
270.0
  0
LINE
  5
25BB
330
21CC
100
AcDbEntity
  8
0
  6
CENTER
100
AcDbLine
 10
28.5
 20
82.00000199999999
 30
0.0
 11
226.5000119999999
 21
82.00000199999999
 31
0.0
  0
LINE
  5
25BC
330
21CC
100
AcDbEntity
  8
0
100
AcDbLine
 10
33.0
 20
77.00000199999999
 30
0.0
 11
35.99995333333322
 21
77.00000199999999
 31
0.0
  0
LINE
  5
25BD
330
21CC
100
AcDbEntity
  8
0
100
AcDbLine
 10
33.0
 20
87.00000300000011
 30
0.0
 11
35.99995333333322
 21
87.00000300000011
 31
0.0
  0
LINE
  5
25BE
330
21CC
100
AcDbEntity
  8
0
100
AcDbLine
 10
222.0000119999999
 20
77.00000199999999
 30
0.0
 11
222.0000119999999
 21
87.00000300000011
 31
0.0
  0
LINE
  5
25BF
330
21CC
100
AcDbEntity
  8
0
100
AcDbLine
 10
33.0
 20
77.00000199999999
 30
0.0
 11
33.0
 21
87.00000300000011
 31
0.0
  0
LINE
  5
25C0
330
21CC
100
AcDbEntity
  8
0
100
AcDbLine
 10
33.0
 20
78.00000199999999
 30
0.0
 11
35.99995333333322
 21
78.00000199999999
 31
0.0
  0
LINE
  5
25C1
330
21CC
100
AcDbEntity
  8
0
100
AcDbLine
 10
33.0
 20
86.000002
 30
0.0
 11
35.99995333333322
 21
86.000002
 31
0.0
  0
ARC
  5
25C2
330
21CC
100
AcDbEntity
  8
0
100
AcDbCircle
 10
40.49999999999999
 20
82.00000199999999
 30
0.0
 40
9.0
100
AcDbArc
 50
146.4426899999999
 51
213.55731
  0
ARC
  5
25C3
330
21CC
100
AcDbEntity
  8
0
100
AcDbCircle
 10
214.5000119999999
 20
82.00000199999999
 30
0.0
 40
9.0
100
AcDbArc
 50
326.4426889999977
 51
33.55731000000002
  0
LINE
  5
25C4
330
21CC
100
AcDbEntity
  8
0
100
AcDbLine
 10
207.9999699999999
 20
100.0
 30
0.0
 11
42.0
 21
100.0
 31
0.0
  0
LINE
  5
25C5
330
21CC
100
AcDbEntity
  8
0
100
AcDbLine
 10
213.9999866666665
 20
78.00000199999999
 30
0.0
 11
222.0000119999999
 21
78.00000199999999
 31
0.0
  0
LINE
  5
25C6
330
21CC
100
AcDbEntity
  8
0
100
AcDbLine
 10
213.9999866666665
 20
77.00000199999999
 30
0.0
 11
222.0000119999999
 21
77.00000199999999
 31
0.0
  0
LINE
  5
25C7
330
21CC
100
AcDbEntity
  8
0
100
AcDbLine
 10
213.9999866666665
 20
86.000002
 30
0.0
 11
222.0000119999999
 21
86.000002
 31
0.0
  0
LINE
  5
25C8
330
21CC
100
AcDbEntity
  8
0
100
AcDbLine
 10
213.9999866666665
 20
87.00000300000011
 30
0.0
 11
222.0000119999999
 21
87.00000300000011
 31
0.0
  0
LINE
  5
25C9
330
21CC
100
AcDbEntity
  8
0
100
AcDbLine
 10
249.9999699999999
 20
59.5
 30
0.0
 11
247.7101360305677
 21
59.5
 31
0.0
  0
LINE
  5
25CA
330
21CC
100
AcDbEntity
  8
0
100
AcDbLine
 10
246.958381933939
 20
58.97361611466067
 30
0.0
 11
244.4623991270364
 21
52.11595971334872
 31
0.0
  0
ARC
  5
25CB
330
21CC
100
AcDbEntity
  8
0
100
AcDbCircle
 10
242.5830138854645
 20
52.79999999999995
 30
0.0
 40
2.0
100
AcDbArc
 50
270.0
 51
339.9999999999963
  0
ARC
  5
25CC
330
21CC
100
AcDbEntity
  8
0
100
AcDbCircle
 10
247.7101360305677
 20
58.70000000000004
 30
0.0
 40
0.8
100
AcDbArc
 50
90.0
 51
159.9999999999962
  0
LINE
  5
25CD
330
21CC
100
AcDbEntity
  8
0
100
AcDbLine
 10
7.416956114535423
 20
50.79999999999995
 30
0.0
 11
40.49999999999999
 21
50.80001300000003
 31
0.0
  0
ARC
  5
25CE
330
21CC
100
AcDbEntity
  8
0
100
AcDbCircle
 10
2.289833969432265
 20
58.70000000000004
 30
0.0
 40
0.8
100
AcDbArc
 50
20.00000000000371
 51
90.0
  0
LINE
  5
25CF
330
21CC
100
AcDbEntity
  8
0
100
AcDbLine
 10
0.0
 20
59.5
 30
0.0
 11
2.289833969432265
 21
59.5
 31
0.0
  0
LINE
  5
25D0
330
21CC
100
AcDbEntity
  8
0
100
AcDbLine
 10
3.041588066060967
 20
58.97361611466067
 30
0.0
 11
5.537570872963442
 21
52.11595971334872
 31
0.0
  0
ARC
  5
25D1
330
21CC
100
AcDbEntity
  8
0
100
AcDbCircle
 10
7.416956114535423
 20
52.79999999999995
 30
0.0
 40
2.0
100
AcDbArc
 50
200.0000000000037
 51
270.0
  0
ENDSEC
  0
SECTION
  2
OBJECTS
  0
DICTIONARY
  5
21BA
330
0
100
AcDbDictionary
281
     1
  3
ACAD_GROUP
350
21BB
  3
ACAD_LAYOUT
350
21C7
  3
ACAD_MLINESTYLE
350
21C4
  3
ACAD_PLOTSETTINGS
350
21C6
  3
ACAD_PLOTSTYLENAME
350
21BC
  3
AcDbVariableDictionary
350
2238
  0
DICTIONARY
  5
2244
330
21B0
100
AcDbDictionary
280
     1
281
     1
  3
ACAD_LAYERSTATES
360
2245
  0
DICTIONARY
  5
21F8
330
21CC
100
AcDbDictionary
280
     1
281
     1
  3
ACAD_LAYOUTSELFREF
360
2227
  0
DICTIONARY
  5
21FA
330
21C8
100
AcDbDictionary
280
     1
281
     1
  3
ACAD_LAYOUTSELFREF
360
2226
  0
DICTIONARY
  5
21BB
102
{ACAD_REACTORS
330
21BA
102
}
330
21BA
100
AcDbDictionary
281
     1
  0
DICTIONARY
  5
21C7
102
{ACAD_REACTORS
330
21BA
102
}
330
21BA
100
AcDbDictionary
281
     1
  3
Model
350
21CF
  3
ﾚｲｱｳﾄ1
350
21CB
  0
DICTIONARY
  5
21C4
102
{ACAD_REACTORS
330
21BA
102
}
330
21BA
100
AcDbDictionary
281
     1
  3
Standard
350
21C5
  0
DICTIONARY
  5
21C6
102
{ACAD_REACTORS
330
21BA
102
}
330
21BA
100
AcDbDictionary
281
     1
  0
ACDBDICTIONARYWDFLT
  5
21BC
102
{ACAD_REACTORS
330
21BA
102
}
330
21BA
100
AcDbDictionary
281
     1
  3
Normal
350
21BD
100
AcDbDictionaryWithDefault
340
21BD
  0
DICTIONARY
  5
2238
102
{ACAD_REACTORS
330
21BA
102
}
330
21BA
100
AcDbDictionary
281
     1
  3
DIMASSOC
350
2239
  0
DICTIONARY
  5
2245
102
{ACAD_REACTORS
330
2244
102
}
330
2244
100
AcDbDictionary
281
     1
  0
XRECORD
  5
2227
102
{ACAD_REACTORS
330
21F8
102
}
330
21F8
100
AcDbXrecord
280
     1
340
21CC
  0
XRECORD
  5
2226
102
{ACAD_REACTORS
330
21FA
102
}
330
21FA
100
AcDbXrecord
280
     1
340
21C8
  0
LAYOUT
  5
21CF
102
{ACAD_REACTORS
330
21C7
102
}
330
21C7
100
AcDbPlotSettings
  1

  2
SII LP-2150 (D-SCAN C2)
  4

  6

 40
0.0
 41
0.0
 42
0.0
 43
0.0
 44
0.0
 45
0.0
 46
0.0
 47
0.0
 48
0.0
 49
0.0
140
0.0
141
0.0
142
1.0
143
1.0
 70
  1712
 72
     0
 73
     0
 74
     0
  7

 75
     0
147
1.0
148
0.0
149
0.0
100
AcDbLayout
  1
Model
 70
     1
 71
     0
 10
0.0
 20
0.0
 11
12.0
 21
9.0
 12
0.0
 22
0.0
 32
0.0
 14
0.0
 24
0.0
 34
0.0
 15
0.0
 25
0.0
 35
0.0
146
0.0
 13
0.0
 23
0.0
 33
0.0
 16
1.0
 26
0.0
 36
0.0
 17
0.0
 27
1.0
 37
0.0
 76
     0
330
21CC
  0
LAYOUT
  5
21CB
102
{ACAD_REACTORS
330
21C7
102
}
330
21C7
100
AcDbPlotSettings
  1

  2
SII LP-2150 (D-SCAN C2)
  4

  6

 40
0.0
 41
0.0
 42
0.0
 43
0.0
 44
0.0
 45
0.0
 46
0.0
 47
0.0
 48
0.0
 49
0.0
140
0.0
141
0.0
142
1.0
143
1.0
 70
   688
 72
     0
 73
     0
 74
     5
  7

 75
    16
147
1.0
148
0.0
149
0.0
100
AcDbLayout
  1
ﾚｲｱｳﾄ1
 70
     1
 71
     1
 10
0.0
 20
0.0
 11
12.0
 21
9.0
 12
0.0
 22
0.0
 32
0.0
 14
1.000000000000000E+20
 24
1.000000000000000E+20
 34
1.000000000000000E+20
 15
-1.000000000000000E+20
 25
-1.000000000000000E+20
 35
-1.000000000000000E+20
146
0.0
 13
0.0
 23
0.0
 33
0.0
 16
1.0
 26
0.0
 36
0.0
 17
0.0
 27
1.0
 37
0.0
 76
     0
330
21C8
  0
MLINESTYLE
  5
21C5
102
{ACAD_REACTORS
330
21C4
102
}
330
21C4
100
AcDbMlineStyle
  2
STANDARD
 70
     0
  3

 62
   256
 51
90.0
 52
90.0
 71
     2
 49
0.5
 62
   256
  6
BYLAYER
 49
-0.5
 62
   256
  6
BYLAYER
  0
ACDBPLACEHOLDER
  5
21BD
102
{ACAD_REACTORS
330
21BC
102
}
330
21BC
  0
DICTIONARYVAR
  5
2239
102
{ACAD_REACTORS
330
2238
102
}
330
2238
100
DictionaryVariables
280
     0
  1
1
  0
ENDSEC
  0
EOF
