  0
SECTION
  2
HEADER
  9
$ACADVER
  1
AC1009
  9
$INSBASE
 10
0.0
 20
0.0
 30
0.0
  9
$EXTMIN
 10
8001.2882730739921
 20
1869.4375506640461
 30
0.0
  9
$EXTMAX
 10
10350.634085466199
 20
2562.7189481678101
 30
0.0
  9
$LIMMIN
 10
0.0
 20
0.0
  9
$LIMMAX
 10
420.0
 20
297.0
  9
$ORTHOMODE
 70
     0
  9
$REGENMODE
 70
     1
  9
$FILLMODE
 70
     1
  9
$QTEXTMODE
 70
     0
  9
$MIRRTEXT
 70
     1
  9
$DRAGMODE
 70
     2
  9
$LTSCALE
 40
1.0
  9
$OSMODE
 70
    37
  9
$ATTMODE
 70
     1
  9
$TEXTSIZE
 40
73.985717453579113
  9
$TRACEWID
 40
1.0
  9
$TEXTSTYLE
  7
STANDARD
  9
$CLAYER
  8
0
  9
$CELTYPE
  6
BYLAYER
  9
$CECOLOR
 62
   256
  9
$DIMSCALE
 40
1.0
  9
$DIMASZ
 40
3.0
  9
$DIMEXO
 40
1.0
  9
$DIMDLI
 40
10.0
  9
$DIMRND
 40
0.0
  9
$DIMDLE
 40
0.0
  9
$DIMEXE
 40
1.0
  9
$DIMTP
 40
0.1
  9
$DIMTM
 40
0.1
  9
$DIMTXT
 40
30.0
  9
$DIMCEN
 40
0.0
  9
$DIMTSZ
 40
0.0
  9
$DIMTOL
 70
     0
  9
$DIMLIM
 70
     0
  9
$DIMTIH
 70
     0
  9
$DIMTOH
 70
     0
  9
$DIMSE1
 70
     0
  9
$DIMSE2
 70
     0
  9
$DIMTAD
 70
     3
  9
$DIMZIN
 70
     8
  9
$DIMBLK
  1
OPEN
  9
$DIMASO
 70
     1
  9
$DIMSHO
 70
     1
  9
$DIMPOST
  1

  9
$DIMAPOST
  1
"
  9
$DIMALT
 70
     0
  9
$DIMALTD
 70
     2
  9
$DIMALTF
 40
0.0393701
  9
$DIMLFAC
 40
1.0
  9
$DIMTOFL
 70
     1
  9
$DIMTVP
 40
0.0
  9
$DIMTIX
 70
     0
  9
$DIMSOXD
 70
     0
  9
$DIMSAH
 70
     0
  9
$DIMBLK1
  1

  9
$DIMBLK2
  1

  9
$DIMSTYLE
  2
TSK
  9
$DIMCLRD
 70
   256
  9
$DIMCLRE
 70
   256
  9
$DIMCLRT
 70
     2
  9
$DIMTFAC
 40
0.71
  9
$DIMGAP
 40
1.5
  9
$LUNITS
 70
     2
  9
$LUPREC
 70
     8
  9
$SKETCHINC
 40
1.0
  9
$FILLETRAD
 40
0.0
  9
$AUNITS
 70
     0
  9
$AUPREC
 70
     8
  9
$MENU
  1
.
  9
$ELEVATION
 40
0.0
  9
$PELEVATION
 40
0.0
  9
$THICKNESS
 40
0.0
  9
$LIMCHECK
 70
     0
  9
$BLIPMODE
 70
     0
  9
$CHAMFERA
 40
2.5
  9
$CHAMFERB
 40
2.5
  9
$SKPOLY
 70
     0
  9
$TDCREATE
 40
2454739.7204081588
  9
$TDUPDATE
 40
2454748.5625073612
  9
$TDINDWG
 40
0.2616263657
  9
$TDUSRTIMER
 40
0.2616263657
  9
$USRTIMER
 70
     1
  9
$ANGBASE
 50
0.0
  9
$ANGDIR
 70
     1
  9
$PDMODE
 70
     0
  9
$PDSIZE
 40
0.0
  9
$PLINEWID
 40
0.0
  9
$COORDS
 70
     1
  9
$SPLFRAME
 70
     0
  9
$SPLINETYPE
 70
     6
  9
$SPLINESEGS
 70
     8
  9
$ATTDIA
 70
     0
  9
$ATTREQ
 70
     1
  9
$HANDLING
 70
 22529
  9
$HANDSEED
  5
6700
  9
$SURFTAB1
 70
     6
  9
$SURFTAB2
 70
     6
  9
$SURFTYPE
 70
     6
  9
$SURFU
 70
     6
  9
$SURFV
 70
     6
  9
$UCSNAME
  2

  9
$UCSORG
 10
0.0
 20
0.0
 30
0.0
  9
$UCSXDIR
 10
1.0
 20
0.0
 30
0.0
  9
$UCSYDIR
 10
0.0
 20
1.0
 30
0.0
  9
$PUCSNAME
  2

  9
$PUCSORG
 10
0.0
 20
0.0
 30
0.0
  9
$PUCSXDIR
 10
1.0
 20
0.0
 30
0.0
  9
$PUCSYDIR
 10
0.0
 20
1.0
 30
0.0
  9
$USERI1
 70
     0
  9
$USERI2
 70
     0
  9
$USERI3
 70
     0
  9
$USERI4
 70
     0
  9
$USERI5
 70
     0
  9
$USERR1
 40
0.0
  9
$USERR2
 40
0.0
  9
$USERR3
 40
0.0
  9
$USERR4
 40
0.0
  9
$USERR5
 40
0.0
  9
$WORLDVIEW
 70
     1
  9
$SHADEDGE
 70
     3
  9
$SHADEDIF
 70
    70
  9
$TILEMODE
 70
     1
  9
$MAXACTVP
 70
    48
  9
$PLIMCHECK
 70
     0
  9
$PEXTMIN
 10
1.0000000000000000E+020
 20
1.0000000000000000E+020
 30
1.0000000000000000E+020
  9
$PEXTMAX
 10
-1.0000000000000000E+020
 20
-1.0000000000000000E+020
 30
-1.0000000000000000E+020
  9
$PLIMMIN
 10
0.0
 20
0.0
  9
$PLIMMAX
 10
420.0
 20
297.0
  9
$UNITMODE
 70
     0
  9
$VISRETAIN
 70
     1
  9
$PLINEGEN
 70
     0
  9
$PSLTSCALE
 70
     1
  0
ENDSEC
  0
SECTION
  2
TABLES
  0
TABLE
  2
VPORT
 70
     2
  0
VPORT
  2
*ACTIVE
 70
     0
 10
0.0
 20
0.0
 11
1.0
 21
1.0
 12
9226.2521964849875
 22
2216.0549110392358
 13
0.0
 23
0.0
 14
2.5
 24
2.5
 15
10.0
 25
10.0
 16
0.0
 26
0.0
 36
1.0
 17
0.0
 27
0.0
 37
0.0
 40
1541.8963936836631
 41
1.596774193548387
 42
50.0
 43
0.0
 44
0.0
 50
0.0
 51
0.0
 71
     0
 72
   100
 73
     1
 74
     3
 75
     0
 76
     0
 77
     0
 78
     0
  0
ENDTAB
  0
TABLE
  2
LTYPE
 70
     2
  0
LTYPE
  2
CONTINUOUS
 70
     0
  3
Solid line
 72
    65
 73
     0
 40
0.0
  0
LTYPE
  2
CENTER
 70
     0
  3
__ . __
 72
    65
 73
     4
 40
7.0
 49
4.0
 49
-1.0
 49
1.0
 49
-1.0
  0
ENDTAB
  0
TABLE
  2
LAYER
 70
     2
  0
LAYER
  2
0
 70
     0
 62
     7
  6
CONTINUOUS
  0
LAYER
  2
AM_0_T3
 70
     0
 62
     7
  6
CONTINUOUS
  0
ENDTAB
  0
TABLE
  2
STYLE
 70
     2
  0
STYLE
  2
STANDARD
 70
     0
 40
0.0
 41
0.7
 50
0.0
 71
     0
 42
73.985717453579113
  3
romans.shx
  4
bigfont.shx
  0
STYLE
  2
TSKDIM
 70
     0
 40
0.0
 41
0.75
 50
0.0
 71
     0
 42
4.0
  3
romans.shx
  4
EXTFONT.SHX
  0
ENDTAB
  0
TABLE
  2
VIEW
 70
     0
  0
ENDTAB
  0
TABLE
  2
UCS
 70
     0
  0
ENDTAB
  0
TABLE
  2
APPID
 70
    41
  0
APPID
  2
ACAD
 70
     0
  0
APPID
  2
MCAD_NO_VIS
 70
     0
  0
APPID
  2
ACAD_TEMP_GRAPHIC
 70
     0
  0
APPID
  2
ACATTRIBSERVICES
 70
     0
  0
APPID
  2
AD_DRAW
 70
     0
  0
APPID
  2
DESIGNERASSEMBLIES
 70
     0
  0
APPID
  2
ASURF_PCURVE_APPNAME
 70
     0
  0
APPID
  2
ACADM_DIM_EDIT
 70
     0
  0
APPID
  2
GENIUS_GENDIM_13
 70
     0
  0
APPID
  2
GENIUS_GENDTOL_13
 70
     0
  0
APPID
  2
GENIUS_GE3DTOL_13
 70
     0
  0
APPID
  2
AMG_3D2D_5_0
 70
     0
  0
APPID
  2
AMDT_DM_ADJ
 70
     0
  0
APPID
  2
CK_MATE-SERIES
 70
     0
  0
APPID
  2
GEVID1042077799
 70
     0
  0
APPID
  2
GEVMK
 70
     0
  0
APPID
  2
GEVDC
 70
     0
  0
APPID
  2
GENIUS_GENBH_13
 70
     0
  0
APPID
  2
GENIUS_GENOLIS_13
 70
     0
  0
APPID
  2
GENIUS_GENOENT_13
 70
     0
  0
APPID
  2
GENIUS_GENODEF_13
 70
     0
  0
APPID
  2
GENIUS_GENOBJ-NBEHI-BHF_13
 70
     0
  0
APPID
  2
GENIUS_GENOREF_13
 70
     0
  0
APPID
  2
GENIUS_GENOBJ-NBEHI-BHB_13
 70
     0
  0
APPID
  2
GEVID1042183772
 70
     0
  0
APPID
  2
GEVID1042183773
 70
     0
  0
APPID
  2
GEVID1042183774
 70
     0
  0
APPID
  2
DCO15
 70
     0
  0
APPID
  2
ACAD_DSTYLE_DIMARC_LENGTH_
 70
     0
  0
APPID
  2
ACAD_DSTYLE_DIMJOGGED_JOGA
 70
     0
  0
APPID
  2
ACAD_MLEADERVER
 70
     0
  0
APPID
  2
ACAD_DSTYLE_DIMJAG
 70
     0
  0
APPID
  2
ACAD_DSTYLE_DIMTALN
 70
     0
  0
APPID
  2
ACAD_PSEXT
 70
     0
  0
APPID
  2
ACAD_EXEMPT_FROM_CAD_STANDARDS
 70
     0
  0
APPID
  2
ACAD_DSTYLE_DIMINSPECT
 70
     0
  0
APPID
  2
ACAD_DSTYLE_DIMANGULAR_EXT
 70
     0
  0
APPID
  2
GENIUS_GENOBJ-N-FIL_13
 70
     0
  0
APPID
  2
ACAD_DSTYLE_DIM_LINETYPE
 70
     0
  0
APPID
  2
ACAD_DSTYLE_DIM_EXT1_LINETYPE
 70
     0
  0
APPID
  2
ACAD_DSTYLE_DIM_EXT2_LINETYPE
 70
     0
  0
ENDTAB
  0
TABLE
  2
DIMSTYLE
 70
     1
  0
DIMSTYLE
  2
TSK
 70
     0
  3

  4
"
  5
OPEN
  6

  7

 40
1.0
 41
3.0
 42
1.0
 43
10.0
 44
1.0
 45
0.0
 46
0.0
 47
0.1
 48
0.1
140
30.0
141
0.0
142
0.0
143
0.0393701
144
1.0
145
0.0
146
0.71
147
1.5
 71
     0
 72
     0
 73
     0
 74
     0
 75
     0
 76
     0
 77
     3
 78
     8
170
     0
171
     2
172
     1
173
     0
174
     0
175
     0
176
   256
177
   256
178
     2
  0
ENDTAB
  0
ENDSEC
  0
SECTION
  2
BLOCKS
  0
BLOCK
  8
0
  2
$MODEL_SPACE
 70
     0
 10
0.0
 20
0.0
 30
0.0
  3
$MODEL_SPACE
  1

  0
ENDBLK
  5
21
  8
0
  0
BLOCK
 67
     1
  8
0
  2
$PAPER_SPACE
 70
     0
 10
0.0
 20
0.0
 30
0.0
  3
$PAPER_SPACE
  1

  0
ENDBLK
  5
1D
 67
     1
  8
0
  0
BLOCK
  8
0
  2
_OPEN
 70
     0
 10
0.0
 20
0.0
 30
0.0
  3
_OPEN
  1

  0
LINE
  5
15A
  8
0
  6
BYBLOCK
 62
     0
 10
-1.0
 20
0.1666666666666666
 30
0.0
 11
0.0
 21
0.0
 31
0.0
  0
LINE
  5
15B
  8
0
  6
BYBLOCK
 62
     0
 10
-1.0
 20
-0.1666666666666666
 30
0.0
 11
0.0
 21
0.0
 31
0.0
  0
LINE
  5
15C
  8
0
  6
BYBLOCK
 62
     0
 10
0.0
 20
0.0
 30
0.0
 11
-1.0
 21
0.0
 31
0.0
  0
ENDBLK
  5
15E
  8
0
  0
ENDSEC
  0
SECTION
  2
ENTITIES
  0
LINE
  5
1F36
  8
0
 10
9273.7686752964564
 20
1932.9375506640531
 30
0.0
 11
9339.7103700053904
 21
1932.9375506640531
 31
0.0
  0
LINE
  5
1F37
  8
0
 10
9270.0395226509245
 20
1939.396632515293
 30
0.0
 11
9273.7686752964564
 21
1932.9375506640531
 31
0.0
  0
LINE
  5
1F38
  8
0
 10
9343.4395226509223
 20
1942.687550664054
 30
0.0
 11
10299.98952265092
 21
1942.687550664054
 31
0.0
  0
LINE
  5
1F39
  8
0
 10
9276.7395226509252
 20
2015.937550664054
 30
0.0
 11
9276.7395226509252
 21
1932.9375506640531
 31
0.0
  0
LINE
  5
1F3A
  8
0
 10
9336.7395226509234
 20
2015.937550664054
 30
0.0
 11
9336.7395226509234
 21
1932.9375506640531
 31
0.0
  0
LINE
  5
1F3B
  8
0
 10
9326.9895226509234
 20
1932.9375506640531
 30
0.0
 11
9326.9895226509234
 21
2015.937550664054
 31
0.0
  0
LINE
  5
1F3C
  8
0
 10
9331.4895226509234
 20
1932.9375506640531
 30
0.0
 11
9331.4895226509234
 21
2015.937550664054
 31
0.0
  0
LINE
  5
1F3D
  8
0
 10
9317.9895226509252
 20
1932.9375506640531
 30
0.0
 11
9317.9895226509252
 21
2015.937550664054
 31
0.0
  0
LINE
  5
1F3E
  8
0
 10
9322.4895226509234
 20
1932.9375506640531
 30
0.0
 11
9322.4895226509234
 21
2015.937550664054
 31
0.0
  0
LINE
  5
1F3F
  8
0
 10
9290.9895226509234
 20
1932.9375506640531
 30
0.0
 11
9290.9895226509234
 21
2015.937550664054
 31
0.0
  0
LINE
  5
1F40
  8
0
 10
9286.4895226509234
 20
1932.9375506640531
 30
0.0
 11
9286.4895226509234
 21
2015.937550664054
 31
0.0
  0
LINE
  5
1F41
  8
0
 10
9281.9895226509252
 20
1932.9375506640531
 30
0.0
 11
9281.9895226509252
 21
2015.937550664054
 31
0.0
  0
LINE
  5
1F42
  8
0
 10
9295.4895226509252
 20
1932.9375506640531
 30
0.0
 11
9295.4895226509252
 21
2015.937550664054
 31
0.0
  0
LINE
  5
1F43
  8
0
 10
9299.9895226509252
 20
1932.9375506640531
 30
0.0
 11
9299.9895226509252
 21
2015.937550664054
 31
0.0
  0
LINE
  5
1F44
  8
0
 10
9304.4895226509252
 20
1932.9375506640531
 30
0.0
 11
9304.4895226509252
 21
2015.937550664054
 31
0.0
  0
LINE
  5
1F45
  8
0
 10
9308.9895226509252
 20
1932.9375506640531
 30
0.0
 11
9308.9895226509252
 21
2015.937550664054
 31
0.0
  0
LINE
  5
1F46
  8
0
 10
9313.4895226509252
 20
1932.9375506640531
 30
0.0
 11
9313.4895226509234
 21
2015.937550664054
 31
0.0
  0
LINE
  5
1F47
  8
0
 10
9270.0395226509245
 20
2009.4784688128141
 30
0.0
 11
9273.7686752964564
 21
2015.937550664054
 31
0.0
  0
LINE
  5
1F48
  8
0
 10
9270.0395226509245
 20
1939.396632515293
 30
0.0
 11
9270.0395226509245
 21
2009.4784688128141
 31
0.0
  0
LINE
  5
1F49
  8
0
 10
9273.7686752964564
 20
2015.937550664054
 30
0.0
 11
9339.7103700053904
 21
2015.937550664054
 31
0.0
  0
LINE
  5
1F4A
  8
0
 10
9343.4395226509223
 20
2006.1875506640531
 30
0.0
 11
10193.43952265092
 21
2006.1875506640511
 31
0.0
  0
LINE
  5
1F4B
  8
0
 10
10242.039522650921
 20
2006.1875506640499
 30
0.0
 11
10299.98952265092
 21
2006.1875506640499
 31
0.0
  0
LINE
  5
1F4C
  8
0
 10
9273.7686752964564
 20
1932.937550664054
 30
0.0
 11
9273.7686752964564
 21
2015.937550664054
 31
0.0
  0
LINE
  5
1F4D
  8
0
 10
9343.4395226509223
 20
1939.396632515293
 30
0.0
 11
9339.7103700053904
 21
1932.9375506640531
 31
0.0
  0
LINE
  5
1F4E
  8
0
 10
9343.4395226509223
 20
2009.4784688128141
 30
0.0
 11
9339.7103700053904
 21
2015.937550664054
 31
0.0
  0
LINE
  5
1F4F
  8
0
 10
9343.4395226509223
 20
1939.396632515293
 30
0.0
 11
9343.4395226509223
 21
2009.4784688128141
 31
0.0
  0
LINE
  5
1F50
  8
AM_0_T3
 10
9339.7103700053904
 20
2015.937550664054
 30
0.0
 11
9339.7103700053904
 21
1932.937550664052
 31
0.0
  0
LINE
  5
1F51
  8
0
 10
10328.739523650929
 20
1946.437550664052
 30
0.0
 11
10315.48952265092
 21
1946.437550664052
 31
0.0
  0
LINE
  5
1F52
  8
0
 10
10328.739523650929
 20
2002.437550664052
 30
0.0
 11
10315.48952265092
 21
2002.437550664052
 31
0.0
  0
LINE
  5
1F53
  8
0
 10
10328.739523650929
 20
1946.437550664052
 30
0.0
 11
10328.739523650929
 21
2002.437550664052
 31
0.0
  0
LINE
  5
1F97
  8
0
 10
10303.98674652776
 20
2034.9375506640499
 30
0.0
 11
10311.492300727759
 21
2034.9375506640499
 31
0.0
  0
LINE
  5
1F98
  8
0
 10
10311.492298527761
 20
2034.9375526640499
 30
0.0
 11
10315.245075627759
 21
2028.43755166405
 31
0.0
  0
LINE
  5
1F99
  8
0
 10
10315.245077927761
 20
2028.43755166405
 30
0.0
 11
10311.49230082776
 21
2021.93755166405
 31
0.0
  0
LINE
  5
1F9A
  8
0
 10
10311.492300727759
 20
2021.9375506640499
 30
0.0
 11
10303.98674652776
 21
2021.9375506640499
 31
0.0
  0
LINE
  5
1F9B
  8
0
 10
10300.233968327761
 20
2028.43755166405
 30
0.0
 11
10303.986745427759
 21
2021.93755166405
 31
0.0
  0
LINE
  5
1F9C
  8
0
 10
10303.986744427761
 20
2034.93755366405
 30
0.0
 11
10300.23396732776
 21
2028.43755366405
 31
0.0
  0
LINE
  5
1F9D
  8
0
 10
10311.492299727761
 20
1913.9375506640499
 30
0.0
 11
10303.98674552776
 21
1913.9375506640499
 31
0.0
  0
LINE
  5
1F9E
  8
0
 10
10303.98674772776
 20
1913.9375486640499
 30
0.0
 11
10300.23397062776
 21
1920.43754966405
 31
0.0
  0
LINE
  5
1F9F
  8
0
 10
10300.233968327761
 20
1920.43754966405
 30
0.0
 11
10303.986745427759
 21
1926.93754966405
 31
0.0
  0
LINE
  5
1FA0
  8
0
 10
10315.245077927761
 20
1920.43754966405
 30
0.0
 11
10311.49230082776
 21
1926.93754966405
 31
0.0
  0
LINE
  5
1FA1
  8
0
 10
10311.49230182776
 20
1913.93754766405
 30
0.0
 11
10315.245078927759
 21
1920.43754766405
 31
0.0
  0
LINE
  5
1FA2
  8
0
 10
10303.98674552776
 20
1926.9375506640499
 30
0.0
 11
10311.492299727761
 21
1926.9375506640499
 31
0.0
  0
LINE
  5
1FA3
  8
0
  6
CENTER
 10
10297.739523127761
 20
1920.4375506640499
 30
0.0
 11
10317.739523127761
 21
1920.4375506640499
 31
0.0
  0
LINE
  5
1FA4
  8
0
  6
CENTER
 10
10307.73952360459
 20
1910.4375506640499
 30
0.0
 11
10307.73952360459
 21
1930.4375506640499
 31
0.0
  0
LINE
  5
1FA5
  8
0
  6
CENTER
 10
10297.73952212776
 20
2028.4375506640511
 30
0.0
 11
10317.73952212776
 21
2028.4375506640511
 31
0.0
  0
LINE
  5
1FA6
  8
0
  6
CENTER
 10
10307.73952265092
 20
2018.4375506640499
 30
0.0
 11
10307.73952265092
 21
2038.4375506640499
 31
0.0
  0
LINE
  5
1FA7
  8
0
 10
10315.48952265092
 20
1936.806944769379
 30
0.0
 11
10315.48952265092
 21
2012.0681565587199
 31
0.0
  0
LINE
  5
1FA8
  8
0
 10
10299.98952265092
 20
1936.806944769379
 30
0.0
 11
10299.98952265092
 21
2012.0681565587199
 31
0.0
  0
LINE
  5
1FAB
  8
0
 10
10302.901284525051
 20
1925.4963501102991
 30
0.0
 11
10302.901284525051
 21
2023.378751217801
 31
0.0
  0
ARC
  5
1FAC
  8
0
 10
10307.73952265092
 20
2028.4375506640511
 30
0.0
 40
7.0
 50
313.72333522199511
 51
351.78676740868042
  0
ARC
  5
1FAD
  8
0
 10
10307.73952265092
 20
2028.4375506640511
 30
0.0
 40
7.0
 50
8.2132124140896625
 51
51.786784583414793
  0
ARC
  5
1FAE
  8
0
 10
10307.73952265092
 20
2028.4375506640511
 30
0.0
 40
7.0
 50
68.213210701727746
 51
111.7867892982722
  0
ARC
  5
1FAF
  8
0
 10
10307.73952265092
 20
2028.4375506640511
 30
0.0
 40
7.0
 50
128.2132729511824
 51
171.78672241756391
  0
ARC
  5
1FB0
  8
0
 10
10307.73952265092
 20
2028.4375506640511
 30
0.0
 40
7.0
 50
188.21321437744379
 51
226.27665892236089
  0
LINE
  5
1FB1
  8
0
 10
10312.577770501461
 20
1925.496340809603
 30
0.0
 11
10312.577760259779
 21
2023.3787507233319
 31
0.0
  0
LINE
  5
1FB2
  8
0
 10
10302.901284525051
 20
2017.658639266722
 30
0.0
 11
10312.57776085829
 21
2017.658639266722
 31
0.0
  0
LINE
  5
1FB3
  8
0
 10
10299.98952265092
 20
2012.0681565587199
 30
0.0
 11
10302.901284525051
 21
2020.08908404465
 31
0.0
  0
LINE
  5
1FB4
  8
0
 10
10315.48952265092
 20
2012.0681565587199
 30
0.0
 11
10312.57776077679
 21
2020.08908404465
 31
0.0
  0
ARC
  5
1FB5
  8
0
 10
10307.73952265092
 20
1920.4375506640499
 30
0.0
 40
7.0
 50
133.72334107763891
 51
171.78678562255601
  0
ARC
  5
1FB6
  8
0
 10
10307.73952265092
 20
1920.4375506640499
 30
0.0
 40
7.0
 50
188.21319420024821
 51
231.78680279724739
  0
ARC
  5
1FB7
  8
0
 10
10307.73952265092
 20
1920.4375506640499
 30
0.0
 40
7.0
 50
248.21321070172769
 51
291.7867892982722
  0
ARC
  5
1FB8
  8
0
 10
10307.73952265092
 20
1920.4375506640499
 30
0.0
 40
7.0
 50
308.21329116506979
 51
351.7867042036342
  0
ARC
  5
1FB9
  8
0
 10
10307.73952265092
 20
1920.4375506640499
 30
0.0
 40
7.0
 50
8.2132325913194997
 51
46.276548780998432
  0
LINE
  5
1FBA
  8
0
 10
10302.901284525051
 20
1931.216462061378
 30
0.0
 11
10312.57776085829
 21
1931.216462061378
 31
0.0
  0
LINE
  5
1FBB
  8
0
 10
10299.98952265092
 20
1936.806944769379
 30
0.0
 11
10302.901284525051
 21
1928.7860172834501
 31
0.0
  0
LINE
  5
1FBC
  8
0
 10
10315.48952265092
 20
1936.806944769379
 30
0.0
 11
10312.57776077679
 21
1928.7860172834501
 31
0.0
  0
LINE
  5
1FBD
  8
0
 10
9270.0395226509245
 20
1942.687550664054
 30
0.0
 11
8420.0395226509245
 21
1942.687550664054
 31
0.0
  0
LINE
  5
1FBE
  8
0
 10
8371.4395226509223
 20
1942.687550664054
 30
0.0
 11
8313.4895226509234
 21
1942.687550664054
 31
0.0
  0
LINE
  5
1FBF
  8
0
 10
9270.0395226509245
 20
2006.1875506640531
 30
0.0
 11
8313.4895226509234
 21
2006.1875506640499
 31
0.0
  0
LINE
  5
1FC0
  8
0
  6
CENTER
 10
10333.493639575499
 20
1974.4375506640561
 30
0.0
 11
8279.9854057263474
 21
1974.4375506640499
 31
0.0
  0
LINE
  5
1FC1
  8
0
 10
8284.739521650914
 20
1946.437550664052
 30
0.0
 11
8297.9895226509234
 21
1946.437550664052
 31
0.0
  0
LINE
  5
1FC2
  8
0
 10
8284.739521650914
 20
2002.437550664052
 30
0.0
 11
8297.9895226509234
 21
2002.437550664052
 31
0.0
  0
LINE
  5
1FC3
  8
0
 10
8284.739521650914
 20
1946.437550664052
 30
0.0
 11
8284.739521650914
 21
2002.437550664052
 31
0.0
  0
LINE
  5
1FC4
  8
0
 10
8309.4922987740865
 20
2034.9375506640499
 30
0.0
 11
8301.9867445740856
 21
2034.9375506640499
 31
0.0
  0
LINE
  5
1FC5
  8
0
 10
8301.9867467740878
 20
2034.9375526640499
 30
0.0
 11
8298.2339696740837
 21
2028.43755166405
 31
0.0
  0
LINE
  5
1FC6
  8
0
 10
8298.2339673740862
 20
2028.43755166405
 30
0.0
 11
8301.9867444740867
 21
2021.93755166405
 31
0.0
  0
LINE
  5
1FC7
  8
0
 10
8301.9867445740856
 20
2021.9375506640499
 30
0.0
 11
8309.4922987740865
 21
2021.9375506640499
 31
0.0
  0
LINE
  5
1FC8
  8
0
 10
8313.2450769740863
 20
2028.43755166405
 30
0.0
 11
8309.4922998740858
 21
2021.93755166405
 31
0.0
  0
LINE
  5
1FC9
  8
0
 10
8309.4923008740861
 20
2034.93755366405
 30
0.0
 11
8313.2450779740866
 21
2028.43755366405
 31
0.0
  0
LINE
  5
1FCA
  8
0
 10
8301.9867455740878
 20
1913.9375506640499
 30
0.0
 11
8309.4922997740869
 21
1913.9375506640499
 31
0.0
  0
LINE
  5
1FCB
  8
0
 10
8309.4922975740865
 20
1913.9375486640499
 30
0.0
 11
8313.2450746740869
 21
1920.43754966405
 31
0.0
  0
LINE
  5
1FCC
  8
0
 10
8313.2450769740863
 20
1920.43754966405
 30
0.0
 11
8309.4922998740858
 21
1926.93754966405
 31
0.0
  0
LINE
  5
1FCD
  8
0
 10
8298.2339673740862
 20
1920.43754966405
 30
0.0
 11
8301.9867444740867
 21
1926.93754966405
 31
0.0
  0
LINE
  5
1FCE
  8
0
 10
8301.9867434740863
 20
1913.93754766405
 30
0.0
 11
8298.2339663740859
 21
1920.43754766405
 31
0.0
  0
LINE
  5
1FCF
  8
0
 10
8309.4922997740869
 20
1926.9375506640499
 30
0.0
 11
8301.9867455740878
 21
1926.9375506640499
 31
0.0
  0
LINE
  5
1FD0
  8
0
  6
CENTER
 10
8315.7395221740862
 20
1920.4375506640499
 30
0.0
 11
8295.7395221740862
 21
1920.4375506640499
 31
0.0
  0
LINE
  5
1FD1
  8
0
  6
CENTER
 10
8305.7395216972491
 20
1910.4375506640499
 30
0.0
 11
8305.7395216972491
 21
1930.4375506640499
 31
0.0
  0
LINE
  5
1FD2
  8
0
  6
CENTER
 10
8315.7395231740866
 20
2028.4375506640511
 30
0.0
 11
8295.7395231740866
 21
2028.4375506640511
 31
0.0
  0
LINE
  5
1FD3
  8
0
  6
CENTER
 10
8305.7395226509216
 20
2018.4375506640499
 30
0.0
 11
8305.7395226509216
 21
2038.4375506640499
 31
0.0
  0
LINE
  5
1FD4
  8
0
 10
8297.9895226509234
 20
1936.806944769379
 30
0.0
 11
8297.9895226509234
 21
2012.0681565587199
 31
0.0
  0
LINE
  5
1FD5
  8
0
 10
8313.4895226509234
 20
1936.806944769379
 30
0.0
 11
8313.4895226509234
 21
2012.0681565587199
 31
0.0
  0
LINE
  5
1FD6
  8
0
 10
8310.5777607767941
 20
1925.4963501102991
 30
0.0
 11
8310.5777607767941
 21
2023.378751217801
 31
0.0
  0
ARC
  5
1FD7
  8
0
 10
8305.7395226509216
 20
2028.4375506640511
 30
0.0
 40
7.0
 50
188.21323259131989
 51
226.2766647779743
  0
ARC
  5
1FD8
  8
0
 10
8305.7395226509216
 20
2028.4375506640511
 30
0.0
 40
7.0
 50
128.21321541658489
 51
171.78678758591141
  0
ARC
  5
1FD9
  8
0
 10
8305.7395226509216
 20
2028.4375506640511
 30
0.0
 40
7.0
 50
68.213210701755671
 51
111.7867892982443
  0
ARC
  5
1FDA
  8
0
 10
8305.7395226509216
 20
2028.4375506640511
 30
0.0
 40
7.0
 50
8.2132775824348272
 51
51.786727048847908
  0
ARC
  5
1FDB
  8
0
 10
8305.7395226509216
 20
2028.4375506640511
 30
0.0
 40
7.0
 50
313.72334107763879
 51
351.786785622553
  0
LINE
  5
1FDC
  8
0
 10
8300.9012748003843
 20
1925.496340809603
 30
0.0
 11
8300.9012850420622
 21
2023.3787507233319
 31
0.0
  0
LINE
  5
1FDD
  8
0
 10
8310.5777607767941
 20
2017.658639266722
 30
0.0
 11
8300.9012844435529
 21
2017.658639266722
 31
0.0
  0
LINE
  5
1FDE
  8
0
 10
8313.4895226509234
 20
2012.0681565587199
 30
0.0
 11
8310.5777607767941
 21
2020.08908404465
 31
0.0
  0
LINE
  5
1FDF
  8
0
 10
8297.9895226509234
 20
2012.0681565587199
 30
0.0
 11
8300.9012845250527
 21
2020.08908404465
 31
0.0
  0
ARC
  5
1FE0
  8
0
 10
8305.7395226509216
 20
1920.4375506640499
 30
0.0
 40
7.0
 50
8.2132143774469508
 51
46.2766589223612
  0
ARC
  5
1FE1
  8
0
 10
8305.7395226509216
 20
1920.4375506640499
 30
0.0
 40
7.0
 50
308.21319720275181
 51
351.78680579975151
  0
ARC
  5
1FE2
  8
0
 10
8305.7395226509216
 20
1920.4375506640499
 30
0.0
 40
7.0
 50
248.2132107017556
 51
291.78678929824429
  0
ARC
  5
1FE3
  8
0
 10
8305.7395226509216
 20
1920.4375506640499
 30
0.0
 40
7.0
 50
188.2132957963652
 51
231.78670883493029
  0
ARC
  5
1FE4
  8
0
 10
8305.7395226509216
 20
1920.4375506640499
 30
0.0
 40
7.0
 50
133.7234512190023
 51
171.78676740867999
  0
LINE
  5
1FE5
  8
0
 10
8310.5777607767941
 20
1931.216462061378
 30
0.0
 11
8300.9012844435529
 21
1931.216462061378
 31
0.0
  0
LINE
  5
1FE6
  8
0
 10
8313.4895226509234
 20
1936.806944769379
 30
0.0
 11
8310.5777607767941
 21
1928.7860172834501
 31
0.0
  0
LINE
  5
1FE7
  8
0
 10
8297.9895226509234
 20
1936.806944769379
 30
0.0
 11
8300.9012845250527
 21
1928.7860172834501
 31
0.0
  0
LINE
  5
1FE8
  8
0
 10
9273.7686752964564
 20
2344.6090302133712
 30
0.0
 11
9339.7103700053904
 21
2344.6090302133712
 31
0.0
  0
LINE
  5
1FE9
  8
0
 10
9270.0395226509245
 20
2351.0681120646109
 30
0.0
 11
9273.7686752964564
 21
2344.6090302133712
 31
0.0
  0
LINE
  5
1FEA
  8
0
 10
9343.4395226509223
 20
2354.3590302133721
 30
0.0
 11
10155.35412772551
 21
2354.3590302133721
 31
0.0
  0
LINE
  5
1FEB
  8
0
 10
10280.12491757633
 20
2354.3590302133721
 30
0.0
 11
10299.98952265092
 21
2354.3590302133721
 31
0.0
  0
LINE
  5
1FEC
  8
0
 10
9276.7395226509252
 20
2427.6090302133721
 30
0.0
 11
9276.7395226509252
 21
2344.6090302133712
 31
0.0
  0
LINE
  5
1FED
  8
0
 10
9336.7395226509234
 20
2427.6090302133721
 30
0.0
 11
9336.7395226509234
 21
2344.6090302133712
 31
0.0
  0
LINE
  5
1FEE
  8
0
 10
9326.9895226509234
 20
2344.6090302133712
 30
0.0
 11
9326.9895226509234
 21
2427.6090302133712
 31
0.0
  0
LINE
  5
1FEF
  8
0
 10
9331.4895226509234
 20
2344.6090302133712
 30
0.0
 11
9331.4895226509234
 21
2427.6090302133721
 31
0.0
  0
LINE
  5
1FF0
  8
0
 10
9317.9895226509252
 20
2344.6090302133712
 30
0.0
 11
9317.9895226509252
 21
2427.6090302133712
 31
0.0
  0
LINE
  5
1FF1
  8
0
 10
9322.4895226509234
 20
2344.6090302133712
 30
0.0
 11
9322.4895226509234
 21
2427.6090302133721
 31
0.0
  0
LINE
  5
1FF2
  8
0
 10
9290.9895226509234
 20
2344.6090302133712
 30
0.0
 11
9290.9895226509234
 21
2427.6090302133712
 31
0.0
  0
LINE
  5
1FF3
  8
0
 10
9286.4895226509234
 20
2344.6090302133712
 30
0.0
 11
9286.4895226509234
 21
2427.6090302133712
 31
0.0
  0
LINE
  5
1FF4
  8
0
 10
9281.9895226509252
 20
2344.6090302133712
 30
0.0
 11
9281.9895226509252
 21
2427.6090302133712
 31
0.0
  0
LINE
  5
1FF5
  8
0
 10
9295.4895226509252
 20
2344.6090302133712
 30
0.0
 11
9295.4895226509252
 21
2427.6090302133721
 31
0.0
  0
LINE
  5
1FF6
  8
0
 10
9299.9895226509252
 20
2344.6090302133712
 30
0.0
 11
9299.9895226509252
 21
2427.6090302133712
 31
0.0
  0
LINE
  5
1FF7
  8
0
 10
9304.4895226509252
 20
2344.6090302133712
 30
0.0
 11
9304.4895226509252
 21
2427.6090302133721
 31
0.0
  0
LINE
  5
1FF8
  8
0
 10
9308.9895226509252
 20
2344.6090302133712
 30
0.0
 11
9308.9895226509252
 21
2427.6090302133712
 31
0.0
  0
LINE
  5
1FF9
  8
0
 10
9313.4895226509252
 20
2344.6090302133712
 30
0.0
 11
9313.4895226509234
 21
2427.6090302133721
 31
0.0
  0
LINE
  5
1FFA
  8
0
 10
9270.0395226509245
 20
2421.1499483621319
 30
0.0
 11
9273.7686752964564
 21
2427.6090302133721
 31
0.0
  0
LINE
  5
1FFB
  8
0
 10
9270.0395226509245
 20
2351.0681120646109
 30
0.0
 11
9270.0395226509245
 21
2421.1499483621319
 31
0.0
  0
LINE
  5
1FFC
  8
0
 10
9273.7686752964564
 20
2427.6090302133721
 30
0.0
 11
9339.7103700053904
 21
2427.6090302133721
 31
0.0
  0
LINE
  5
1FFD
  8
0
 10
9343.4395226509223
 20
2417.8590302133712
 30
0.0
 11
10155.354127725501
 21
2417.8590302133689
 31
0.0
  0
LINE
  5
1FFE
  8
0
 10
10280.124917576341
 20
2417.8590302133689
 30
0.0
 11
10299.98952265092
 21
2417.8590302133689
 31
0.0
  0
LINE
  5
1FFF
  8
0
 10
9273.7686752964564
 20
2344.6090302133721
 30
0.0
 11
9273.7686752964564
 21
2427.6090302133721
 31
0.0
  0
LINE
  5
2000
  8
0
 10
9343.4395226509223
 20
2351.0681120646109
 30
0.0
 11
9339.7103700053904
 21
2344.6090302133712
 31
0.0
  0
LINE
  5
2001
  8
0
 10
9343.4395226509223
 20
2421.1499483621319
 30
0.0
 11
9339.7103700053904
 21
2427.6090302133721
 31
0.0
  0
LINE
  5
2002
  8
0
 10
9343.4395226509223
 20
2351.0681120646109
 30
0.0
 11
9343.4395226509223
 21
2421.1499483621319
 31
0.0
  0
LINE
  5
2003
  8
AM_0_T3
 10
9339.7103700053904
 20
2427.6090302133721
 30
0.0
 11
9339.7103700053904
 21
2344.6090302133712
 31
0.0
  0
LINE
  5
2004
  8
0
 10
10328.739523650929
 20
2358.1090302133698
 30
0.0
 11
10315.48952265092
 21
2358.1090302133698
 31
0.0
  0
LINE
  5
2005
  8
0
 10
10328.739523650929
 20
2414.1090302133698
 30
0.0
 11
10315.48952265092
 21
2414.1090302133712
 31
0.0
  0
LINE
  5
2006
  8
0
 10
10328.739523650929
 20
2358.1090302133698
 30
0.0
 11
10328.739523650929
 21
2414.1090302133698
 31
0.0
  0
LINE
  5
2007
  8
0
 10
10315.48952265092
 20
2348.3590302133612
 30
0.0
 11
10315.48952265092
 21
2423.8590302133762
 31
0.0
  0
LINE
  5
2008
  8
0
 10
10299.98952265092
 20
2348.3590302133612
 30
0.0
 11
10299.98952265092
 21
2423.8590302133762
 31
0.0
  0
LINE
  5
2009
  8
0
 10
10302.901284525051
 20
2340.3590302133621
 30
0.0
 11
10302.901284525051
 21
2365.7757605349011
 31
0.0
  0
LINE
  5
200A
  8
0
 10
10302.901284525051
 20
2409.6090302133748
 30
0.0
 11
10302.901284525051
 21
2431.8590302133762
 31
0.0
  0
LINE
  5
200B
  8
0
 10
10312.577770167551
 20
2340.3590302133621
 30
0.0
 11
10312.577767508141
 21
2365.7757621860701
 31
0.0
  0
LINE
  5
200C
  8
0
 10
10312.577762921759
 20
2409.6090302133748
 30
0.0
 11
10312.57776059368
 21
2431.8590302133762
 31
0.0
  0
LINE
  5
200D
  8
0
 10
9270.0395226509245
 20
2354.3590302133721
 30
0.0
 11
8313.4895226509234
 21
2354.3590302133721
 31
0.0
  0
LINE
  5
200E
  8
0
 10
9270.0395226509245
 20
2417.8590302133712
 30
0.0
 11
8313.4895226509234
 21
2417.8590302133689
 31
0.0
  0
LINE
  5
200F
  8
0
  6
CENTER
 10
10349.126826983131
 20
2386.1090302133748
 30
0.0
 11
8264.3522183187069
 21
2386.109030213368
 31
0.0
  0
LINE
  5
2010
  8
0
 10
8284.739521650914
 20
2358.1090302133698
 30
0.0
 11
8297.9895226509234
 21
2358.1090302133698
 31
0.0
  0
LINE
  5
2011
  8
0
 10
8284.739521650914
 20
2414.1090302133698
 30
0.0
 11
8297.9895226509234
 21
2414.1090302133712
 31
0.0
  0
LINE
  5
2012
  8
0
 10
8284.739521650914
 20
2358.1090302133698
 30
0.0
 11
8284.739521650914
 21
2414.1090302133698
 31
0.0
  0
LINE
  5
2013
  8
AM_0_T3
 10
10299.98952265092
 20
2423.8590302133762
 30
0.0
 11
10302.901284525051
 21
2431.8590302133762
 31
0.0
  0
LINE
  5
2014
  8
AM_0_T3
 10
10315.48952265092
 20
2423.8590302133762
 30
0.0
 11
10312.57776059368
 21
2431.8590302133762
 31
0.0
  0
LINE
  5
2015
  8
AM_0_T3
 10
10302.901284525051
 20
2431.8590302133762
 30
0.0
 11
10312.57776059368
 21
2431.8590302133762
 31
0.0
  0
LINE
  5
2016
  8
AM_0_T3
 10
10299.98952265092
 20
2348.3590302133612
 30
0.0
 11
10302.901284525051
 21
2340.3590302133621
 31
0.0
  0
LINE
  5
2017
  8
AM_0_T3
 10
10315.48952265092
 20
2348.3590302133612
 30
0.0
 11
10312.57776059368
 21
2340.3590302133621
 31
0.0
  0
LINE
  5
2018
  8
AM_0_T3
 10
10302.901284525051
 20
2340.3590302133621
 30
0.0
 11
10312.577770167551
 21
2340.3590302133621
 31
0.0
  0
LINE
  5
2019
  8
0
 10
10314.73952212776
 20
2371.1090302133748
 30
0.0
 11
10314.73952212776
 21
2383.1090302133748
 31
0.0
  0
LINE
  5
201A
  8
0
 10
10314.73952212776
 20
2383.1090302133748
 30
0.0
 11
10300.73952212776
 21
2383.1090302133748
 31
0.0
  0
LINE
  5
201B
  8
0
 10
10314.73952212776
 20
2401.1090302133748
 30
0.0
 11
10314.73952212776
 21
2389.1090302133748
 31
0.0
  0
LINE
  5
201C
  8
0
 10
10314.73952212776
 20
2389.1090302133748
 30
0.0
 11
10300.73952212776
 21
2389.1090302133748
 31
0.0
  0
LINE
  5
201D
  8
0
 10
10311.73952212776
 20
2389.1090302133748
 30
0.0
 11
10311.73952212776
 21
2383.1090302133748
 31
0.0
  0
LINE
  5
201E
  8
0
 10
10303.73952212776
 20
2389.1090302133748
 30
0.0
 11
10303.73952212776
 21
2383.1090302133748
 31
0.0
  0
LINE
  5
201F
  8
0
 10
10314.73952212776
 20
2401.1090302133748
 30
0.0
 11
10300.73952212776
 21
2401.1090302133762
 31
0.0
  0
LINE
  5
2020
  8
0
 10
10303.73952212776
 20
2415.1090302133748
 30
0.0
 11
10303.73952212776
 21
2409.6090302133748
 31
0.0
  0
LINE
  5
2021
  8
0
 10
10302.73952212776
 20
2409.6090302133748
 30
0.0
 11
10312.73952212776
 21
2409.6090302133748
 31
0.0
  0
LINE
  5
2022
  8
0
 10
10303.73952212776
 20
2415.1090302133748
 30
0.0
 11
10311.73952212776
 21
2415.1090302133748
 31
0.0
  0
LINE
  5
2023
  8
0
 10
10301.73952212776
 20
2408.6090302133748
 30
0.0
 11
10301.73952212776
 21
2407.6090302133748
 31
0.0
  0
LINE
  5
2024
  8
0
 10
10313.73952212776
 20
2408.6090302133748
 30
0.0
 11
10313.73952212776
 21
2407.6090302133748
 31
0.0
  0
LINE
  5
2025
  8
0
 10
10314.23952212776
 20
2407.6090302133748
 30
0.0
 11
10301.23952212776
 21
2407.6090302133748
 31
0.0
  0
LINE
  5
2026
  8
0
 10
10314.23952212776
 20
2407.6090302133748
 30
0.0
 11
10314.23952212776
 21
2401.1090302133748
 31
0.0
  0
LINE
  5
2027
  8
0
 10
10301.23952212776
 20
2407.6090302133748
 30
0.0
 11
10301.23952212776
 21
2401.1090302133748
 31
0.0
  0
LINE
  5
2028
  8
0
 10
10311.73952212776
 20
2415.1090302133748
 30
0.0
 11
10311.73952212776
 21
2409.6090302133748
 31
0.0
  0
LINE
  5
2029
  8
0
  6
CENTER
 10
10307.73952212776
 20
2416.7603652133748
 30
0.0
 11
10307.73952212776
 21
2359.7205152133752
 31
0.0
  0
LINE
  5
202A
  8
0
 10
10304.48952212776
 20
2365.6090302133748
 30
0.0
 11
10310.98952212776
 21
2365.6090302133748
 31
0.0
  0
LINE
  5
202B
  8
0
 10
10301.23952212776
 20
2366.3339242133752
 30
0.0
 11
10301.23952212776
 21
2371.1090302133748
 31
0.0
  0
LINE
  5
202C
  8
0
 10
10314.23952212776
 20
2366.3339242133752
 30
0.0
 11
10314.23952212776
 21
2371.1090302133748
 31
0.0
  0
LINE
  5
202D
  8
0
 10
10300.73952212776
 20
2371.1090302133748
 30
0.0
 11
10314.73952212776
 21
2371.1090302133748
 31
0.0
  0
ARC
  5
202E
  8
0
 10
10302.73952212776
 20
2408.6090302133748
 30
0.0
 40
1.0
 50
89.999989999998988
 51
179.99999599996829
  0
ARC
  5
202F
  8
0
 10
10312.73952212776
 20
2408.6090302133748
 30
0.0
 40
1.0
 50
0.0
 51
90.000005008937407
  0
ARC
  5
2030
  8
0
 10
10310.98952212776
 20
2399.961035213375
 30
0.0
 40
7.647994999999999
 50
64.852630000040932
 51
115.14737500001119
  0
ARC
  5
2031
  8
0
 10
10304.48952212776
 20
2399.961035213375
 30
0.0
 40
7.647994999999999
 50
64.852630000040932
 51
115.1473679999844
  0
ARC
  5
2032
  8
0
 10
10310.98952212776
 20
2408.7570252133751
 30
0.0
 40
7.647994999999999
 50
244.8526300000409
 51
295.1473699999591
  0
ARC
  5
2033
  8
0
 10
10304.48952212776
 20
2408.7570252133751
 30
0.0
 40
7.647994999999999
 50
244.8526300000409
 51
295.1473699999591
  0
ARC
  5
2034
  8
0
 10
10304.48952212776
 20
2373.2570252133751
 30
0.0
 40
7.6479945000000011
 50
244.8526300000409
 51
295.1473699999591
  0
ARC
  5
2035
  8
0
 10
10310.98952212776
 20
2373.2570252133751
 30
0.0
 40
7.6479945000000011
 50
244.8526300000409
 51
295.1473699999591
  0
LINE
  5
2036
  8
0
 10
10300.73952212776
 20
2371.1090302133748
 30
0.0
 11
10300.73952212776
 21
2383.1090302133748
 31
0.0
  0
LINE
  5
2037
  8
0
 10
10300.73952212776
 20
2401.1090302133762
 30
0.0
 11
10300.73952212776
 21
2389.1090302133748
 31
0.0
  0
LINE
  5
2056
  8
0
  6
CENTER
 10
10217.73952265092
 20
2288.1090302133739
 30
0.0
 11
10217.73952265092
 21
2484.1090302133748
 31
0.0
  0
LINE
  5
2057
  8
0
  6
CENTER
 10
10241.07404643008
 20
2362.774506434218
 30
0.0
 11
10268.651210896351
 21
2335.197341967943
 31
0.0
  0
LINE
  5
2058
  8
0
  6
CENTER
 10
10241.07404643008
 20
2409.4435539925298
 30
0.0
 11
10268.651210896351
 21
2437.0207184588062
 31
0.0
  0
LINE
  5
2059
  8
0
  6
CENTER
 10
10194.40499887176
 20
2362.774506434218
 30
0.0
 11
10166.827834405491
 21
2335.197341967943
 31
0.0
  0
LINE
  5
205A
  8
0
  6
CENTER
 10
10194.40499887176
 20
2409.4435539925298
 30
0.0
 11
10166.827834405491
 21
2437.0207184588062
 31
0.0
  0
LINE
  5
205B
  8
0
 10
8420.0395226509245
 20
1895.4375506640461
 30
0.0
 11
8420.0395226509245
 21
1942.6875506640561
 31
0.0
  0
ARC
  5
205C
  8
AM_0_T3
 10
8395.7395226509252
 20
1922.2529598925339
 30
0.0
 40
31.749999999993499
 50
40.061474850820282
 51
139.9385251491797
  0
LINE
  5
205D
  8
0
 10
8325.7395226509252
 20
1895.4375506640461
 30
0.0
 11
8465.7395226509252
 21
1895.4375506640461
 31
0.0
  0
LINE
  5
205E
  8
0
 10
8465.7395226509252
 20
1879.4375506640461
 30
0.0
 11
8325.7395226509252
 21
1879.4375506640461
 31
0.0
  0
LINE
  5
205F
  8
0
 10
8465.7395226509252
 20
1895.4375506640461
 30
0.0
 11
8465.7395226509252
 21
1879.4375506640461
 31
0.0
  0
LINE
  5
2060
  8
0
  6
CENTER
 10
8448.2395226509252
 20
1871.4375506640461
 30
0.0
 11
8448.2395226509252
 21
1905.4375506640461
 31
0.0
  0
LINE
  5
2061
  8
0
  6
CENTER
 10
8395.7395226509252
 20
1869.4375506640461
 30
0.0
 11
8395.7395226509252
 21
1974.4375506640511
 31
0.0
  0
LINE
  5
2062
  8
0
 10
8371.4395226509223
 20
1895.4375506640461
 30
0.0
 11
8371.4395226509223
 21
1942.6875506640561
 31
0.0
  0
LINE
  5
2063
  8
0
  6
CENTER
 10
8343.2395226509252
 20
1871.4375506640461
 30
0.0
 11
8343.2395226509252
 21
1905.4375506640461
 31
0.0
  0
LINE
  5
2064
  8
0
 10
8325.7395226509252
 20
1879.4375506640461
 30
0.0
 11
8325.7395226509252
 21
1895.4375506640461
 31
0.0
  0
LINE
  5
206D
  8
0
 10
10193.43952265092
 20
2053.4375506640599
 30
0.0
 11
10193.43952265092
 21
2006.1875506640499
 31
0.0
  0
ARC
  5
206E
  8
AM_0_T3
 10
10217.73952265092
 20
2026.622141435573
 30
0.0
 40
31.749999999993499
 50
220.0614748508219
 51
319.9385251491783
  0
LINE
  5
206F
  8
0
 10
10287.73952265092
 20
2053.4375506640608
 30
0.0
 11
10147.73952265092
 21
2053.4375506640608
 31
0.0
  0
LINE
  5
2070
  8
0
 10
10147.73952265092
 20
2069.4375506640608
 30
0.0
 11
10287.73952265092
 21
2069.4375506640608
 31
0.0
  0
LINE
  5
2071
  8
0
 10
10147.73952265092
 20
2053.4375506640608
 30
0.0
 11
10147.73952265092
 21
2069.4375506640608
 31
0.0
  0
LINE
  5
2072
  8
0
  6
CENTER
 10
10165.23952265092
 20
2077.4375506640608
 30
0.0
 11
10165.23952265092
 21
2043.4375506640611
 31
0.0
  0
LINE
  5
2073
  8
0
  6
CENTER
 10
10217.73952265092
 20
2079.4375506640608
 30
0.0
 11
10217.73952265092
 21
1974.4375506640561
 31
0.0
  0
LINE
  5
2074
  8
0
 10
10242.039522650921
 20
2053.4375506640599
 30
0.0
 11
10242.039522650921
 21
2006.1875506640499
 31
0.0
  0
LINE
  5
2075
  8
0
  6
CENTER
 10
10270.23952265092
 20
2077.4375506640608
 30
0.0
 11
10270.23952265092
 21
2043.4375506640611
 31
0.0
  0
LINE
  5
2076
  8
0
 10
10287.73952265092
 20
2069.4375506640608
 30
0.0
 11
10287.73952265092
 21
2053.4375506640608
 31
0.0
  0
LINE
  5
2089
  8
0
  6
CENTER
 10
8395.7395226509234
 20
2288.1090302133739
 30
0.0
 11
8395.7395226509234
 21
2484.1090302133748
 31
0.0
  0
LINE
  5
208A
  8
0
  6
CENTER
 10
8372.404998871767
 20
2362.774506434218
 30
0.0
 11
8344.8278344054925
 21
2335.197341967943
 31
0.0
  0
LINE
  5
208B
  8
0
  6
CENTER
 10
8372.404998871767
 20
2409.4435539925298
 30
0.0
 11
8344.8278344054925
 21
2437.0207184588062
 31
0.0
  0
LINE
  5
208C
  8
0
  6
CENTER
 10
8419.0740464300816
 20
2362.774506434218
 30
0.0
 11
8446.6512108963525
 21
2335.197341967943
 31
0.0
  0
LINE
  5
208D
  8
0
  6
CENTER
 10
8419.0740464300816
 20
2409.4435539925298
 30
0.0
 11
8446.6512108963525
 21
2437.0207184588062
 31
0.0
  0
ARC
  5
208E
  8
0
 10
8395.7395226509234
 20
2386.1090302133748
 30
0.0
 40
70.0
 50
26.973055041587958
 51
153.026944958412
  0
ARC
  5
208F
  8
0
 10
8395.7395226509234
 20
2386.1090302133748
 30
0.0
 40
70.0
 50
206.97305504159269
 51
333.02694495840723
  0
ARC
  5
2090
  8
0
 10
8358.6164166386297
 20
2423.232136225668
 30
0.0
 40
9.5
 50
325.55672059893141
 51
214.44327940106851
  0
ARC
  5
2091
  8
0
 10
8358.6164166386297
 20
2348.9859242010812
 30
0.0
 40
9.5
 50
145.55672059898399
 51
34.443279401015971
  0
ARC
  5
2092
  8
0
  6
CENTER
 10
8395.7395226509234
 20
2386.1090302133748
 30
0.0
 40
52.5
 50
37.211710668482283
 51
142.78828933151769
  0
ARC
  5
2093
  8
0
  6
CENTER
 10
8395.7395226509234
 20
2386.1090302133748
 30
0.0
 40
52.5
 50
217.2117106685125
 51
322.78828933148731
  0
ARC
  5
2094
  8
0
 10
8432.862628663217
 20
2348.9859242010812
 30
0.0
 40
9.5
 50
145.55672059898399
 51
34.443279401015971
  0
ARC
  5
2095
  8
0
 10
8432.862628663217
 20
2423.232136225668
 30
0.0
 40
9.5
 50
325.55672059893141
 51
214.44327940106851
  0
TEXT
  5
2096
  8
0
 10
8888.8823797937803
 20
2512.7189481678101
 30
0.0
 40
50.0
  1
2.5SX2000L-40AX15A
 72
     4
 11
9306.7395226509234
 21
2537.7189481678101
 31
0.0
  0
LINE
  5
22CB
  8
0
 10
8297.9895226509234
 20
2348.3590302133612
 30
0.0
 11
8297.9895226509234
 21
2423.8590302133762
 31
0.0
  0
LINE
  5
22CC
  8
0
 10
8313.4895226509234
 20
2348.3590302133612
 30
0.0
 11
8313.4895226509234
 21
2423.8590302133762
 31
0.0
  0
LINE
  5
22CD
  8
0
 10
8310.5777607767941
 20
2340.3590302133621
 30
0.0
 11
8310.5777607767941
 21
2365.7757605349011
 31
0.0
  0
LINE
  5
22CE
  8
0
 10
8310.5777607767941
 20
2409.6090302133748
 30
0.0
 11
8310.5777607767941
 21
2431.8590302133762
 31
0.0
  0
LINE
  5
22CF
  8
0
 10
8300.9012751342907
 20
2340.3590302133621
 30
0.0
 11
8300.9012777937041
 21
2365.7757621860701
 31
0.0
  0
LINE
  5
22D0
  8
0
 10
8300.9012823800858
 20
2409.6090302133748
 30
0.0
 11
8300.9012847081576
 21
2431.8590302133762
 31
0.0
  0
LINE
  5
22D1
  8
AM_0_T3
 10
8313.4895226509234
 20
2423.8590302133762
 30
0.0
 11
8310.5777607767941
 21
2431.8590302133762
 31
0.0
  0
LINE
  5
22D2
  8
AM_0_T3
 10
8297.9895226509234
 20
2423.8590302133762
 30
0.0
 11
8300.9012847081576
 21
2431.8590302133762
 31
0.0
  0
LINE
  5
22D3
  8
AM_0_T3
 10
8310.5777607767941
 20
2431.8590302133762
 30
0.0
 11
8300.9012847081576
 21
2431.8590302133762
 31
0.0
  0
LINE
  5
22D4
  8
AM_0_T3
 10
8313.4895226509234
 20
2348.3590302133612
 30
0.0
 11
8310.5777607767941
 21
2340.3590302133621
 31
0.0
  0
LINE
  5
22D5
  8
AM_0_T3
 10
8297.9895226509234
 20
2348.3590302133612
 30
0.0
 11
8300.9012847081576
 21
2340.3590302133621
 31
0.0
  0
LINE
  5
22D6
  8
AM_0_T3
 10
8310.5777607767941
 20
2340.3590302133621
 30
0.0
 11
8300.9012751342907
 21
2340.3590302133621
 31
0.0
  0
LINE
  5
22D7
  8
0
 10
8298.7395231740866
 20
2371.1090302133748
 30
0.0
 11
8298.7395231740866
 21
2383.1090302133748
 31
0.0
  0
LINE
  5
22D8
  8
0
 10
8298.7395231740866
 20
2383.1090302133748
 30
0.0
 11
8312.7395231740848
 21
2383.1090302133748
 31
0.0
  0
LINE
  5
22D9
  8
0
 10
8298.7395231740866
 20
2401.1090302133748
 30
0.0
 11
8298.7395231740866
 21
2389.1090302133748
 31
0.0
  0
LINE
  5
22DA
  8
0
 10
8298.7395231740866
 20
2389.1090302133748
 30
0.0
 11
8312.7395231740848
 21
2389.1090302133748
 31
0.0
  0
LINE
  5
22DB
  8
0
 10
8301.7395231740866
 20
2389.1090302133748
 30
0.0
 11
8301.7395231740866
 21
2383.1090302133748
 31
0.0
  0
LINE
  5
22DC
  8
0
 10
8309.7395231740848
 20
2389.1090302133748
 30
0.0
 11
8309.7395231740848
 21
2383.1090302133748
 31
0.0
  0
LINE
  5
22DD
  8
0
 10
8298.7395231740866
 20
2401.1090302133748
 30
0.0
 11
8312.7395231740848
 21
2401.1090302133762
 31
0.0
  0
LINE
  5
22DE
  8
0
 10
8309.7395231740848
 20
2415.1090302133748
 30
0.0
 11
8309.7395231740848
 21
2409.6090302133748
 31
0.0
  0
LINE
  5
22DF
  8
0
 10
8310.7395231740866
 20
2409.6090302133748
 30
0.0
 11
8300.7395231740866
 21
2409.6090302133748
 31
0.0
  0
LINE
  5
22E0
  8
0
 10
8309.7395231740848
 20
2415.1090302133748
 30
0.0
 11
8301.7395231740866
 21
2415.1090302133748
 31
0.0
  0
LINE
  5
22E1
  8
0
 10
8311.7395231740884
 20
2408.6090302133748
 30
0.0
 11
8311.7395231740884
 21
2407.6090302133748
 31
0.0
  0
LINE
  5
22E2
  8
0
 10
8299.7395231740866
 20
2408.6090302133748
 30
0.0
 11
8299.7395231740866
 21
2407.6090302133748
 31
0.0
  0
LINE
  5
22E3
  8
0
 10
8299.2395231740866
 20
2407.6090302133748
 30
0.0
 11
8312.2395231740866
 21
2407.6090302133748
 31
0.0
  0
LINE
  5
22E4
  8
0
 10
8299.2395231740866
 20
2407.6090302133748
 30
0.0
 11
8299.2395231740866
 21
2401.1090302133748
 31
0.0
  0
LINE
  5
22E5
  8
0
 10
8312.2395231740866
 20
2407.6090302133748
 30
0.0
 11
8312.2395231740866
 21
2401.1090302133748
 31
0.0
  0
LINE
  5
22E6
  8
0
 10
8301.7395231740866
 20
2415.1090302133748
 30
0.0
 11
8301.7395231740866
 21
2409.6090302133748
 31
0.0
  0
LINE
  5
22E7
  8
0
  6
CENTER
 10
8305.7395231740884
 20
2416.7603652133748
 30
0.0
 11
8305.7395231740884
 21
2359.7205152133752
 31
0.0
  0
LINE
  5
22E8
  8
0
 10
8308.9895231740866
 20
2365.6090302133748
 30
0.0
 11
8302.4895231740866
 21
2365.6090302133748
 31
0.0
  0
LINE
  5
22E9
  8
0
 10
8312.2395231740866
 20
2366.3339242133752
 30
0.0
 11
8312.2395231740866
 21
2371.1090302133748
 31
0.0
  0
LINE
  5
22EA
  8
0
 10
8299.2395231740866
 20
2366.3339242133752
 30
0.0
 11
8299.2395231740866
 21
2371.1090302133748
 31
0.0
  0
LINE
  5
22EB
  8
0
 10
8312.7395231740848
 20
2371.1090302133748
 30
0.0
 11
8298.7395231740866
 21
2371.1090302133748
 31
0.0
  0
ARC
  5
22EC
  8
0
 10
8310.7395231740866
 20
2408.6090302133748
 30
0.0
 40
1.0
 50
0.0000040000316757
 51
90.000010000001026
  0
ARC
  5
22ED
  8
0
 10
8300.7395231740866
 20
2408.6090302133748
 30
0.0
 40
1.0
 50
89.999994991062593
 51
180.0
  0
ARC
  5
22EE
  8
0
 10
8302.4895231740866
 20
2399.961035213375
 30
0.0
 40
7.647994999999999
 50
64.852624999988592
 51
115.1473699999589
  0
ARC
  5
22EF
  8
0
 10
8308.9895231740866
 20
2399.961035213375
 30
0.0
 40
7.647994999999999
 50
64.852632000015902
 51
115.1473699999589
  0
ARC
  5
22F0
  8
0
 10
8302.4895231740866
 20
2408.7570252133751
 30
0.0
 40
7.647994999999999
 50
244.85263000004099
 51
295.14736999995893
  0
ARC
  5
22F1
  8
0
 10
8308.9895231740866
 20
2408.7570252133751
 30
0.0
 40
7.647994999999999
 50
244.85263000004099
 51
295.14736999995893
  0
ARC
  5
22F2
  8
0
 10
8308.9895231740866
 20
2373.2570252133751
 30
0.0
 40
7.6479945000000011
 50
244.85263000004099
 51
295.14736999995893
  0
ARC
  5
22F3
  8
0
 10
8302.4895231740866
 20
2373.2570252133751
 30
0.0
 40
7.6479945000000011
 50
244.85263000004099
 51
295.14736999995893
  0
LINE
  5
22F4
  8
0
 10
8312.7395231740848
 20
2371.1090302133748
 30
0.0
 11
8312.7395231740848
 21
2383.1090302133748
 31
0.0
  0
LINE
  5
22F5
  8
0
 10
8312.7395231740848
 20
2401.1090302133762
 30
0.0
 11
8312.7395231740848
 21
2389.1090302133748
 31
0.0
  0
LINE
  5
241D
  8
0
 10
8265.7395226509252
 20
1977.63755066405
 30
0.0
 11
8265.7395226509252
 21
1943.63755066405
 31
0.0
  0
LINE
  5
241E
  8
0
 10
8268.5895226509256
 20
1976.8583241515889
 30
0.0
 11
8268.5895226509256
 21
1944.4167771765119
 31
0.0
  0
LINE
  5
241F
  8
0
  6
CENTER
 10
8262.8449598356492
 20
1960.63755066405
 30
0.0
 11
8285.3974156111617
 21
1960.63755066405
 31
0.0
  0
LINE
  5
2420
  8
0
 10
8268.0293566203563
 20
1977.63755066405
 30
0.0
 11
8265.7395226509252
 21
1977.63755066405
 31
0.0
  0
LINE
  5
2421
  8
0
 10
8272.228354668081
 20
1971.4875506640501
 30
0.0
 11
8284.739521650914
 21
1971.4875506640501
 31
0.0
  0
LINE
  5
2422
  8
0
 10
8270.8280175047148
 20
1949.7875919829521
 30
0.0
 11
8270.8280175047148
 21
1971.4875093451481
 31
0.0
  0
LINE
  5
2424
  8
0
 10
8268.7811107169837
 20
1977.1111667787111
 30
0.0
 11
8270.3489694265099
 21
1972.8035103773991
 31
0.0
  0
ARC
  5
2425
  8
0
 10
8268.0293566203563
 20
1976.83755066405
 30
0.0
 40
0.8
 50
20.000000000040458
 51
90.0
1001
GENIUS_GENODEF_13
1002
{
1000
HIER
1070
     0
1002
}
1002
{
1000
MANEDIT
1070
     0
1002
}
1002
{
1000
NOSEL
1070
     0
1002
}
1002
{
1000
BEHIND
1070
     0
1002
}
1002
{
1000
OTHER
1070
     0
1002
}
1002
{
1000
REACTOR
1002
}
1001
GENIUS_GENOBJ-N-FIL_13
1002
{
1000
OWNER
1000
GEN
1002
}
  0
ARC
  5
2426
  8
0
 10
8272.228354668081
 20
1973.4875506640501
 30
0.0
 40
2.0
 50
200.00000000004039
 51
270.0
1001
GENIUS_GENODEF_13
1002
{
1000
HIER
1070
     0
1002
}
1002
{
1000
MANEDIT
1070
     0
1002
}
1002
{
1000
NOSEL
1070
     0
1002
}
1002
{
1000
BEHIND
1070
     0
1002
}
1002
{
1000
OTHER
1070
     0
1002
}
1002
{
1000
REACTOR
1002
}
1001
GENIUS_GENOBJ-N-FIL_13
1002
{
1000
OWNER
1000
GEN
1002
}
  0
LINE
  5
2427
  8
0
 10
8268.0293566203563
 20
1943.63755066405
 30
0.0
 11
8265.7395226509252
 21
1943.63755066405
 31
0.0
  0
LINE
  5
2428
  8
0
 10
8272.228354668081
 20
1949.7875506640501
 30
0.0
 11
8284.739521650914
 21
1949.7875506640501
 31
0.0
  0
LINE
  5
2429
  8
0
 10
8268.7811107169837
 20
1944.16393454939
 30
0.0
 11
8270.3489694265099
 21
1948.471590950702
 31
0.0
  0
ARC
  5
242A
  8
0
 10
8268.0293566203563
 20
1944.4375506640499
 30
0.0
 40
0.8
 50
270.0
 51
339.99999999995953
1001
GENIUS_GENODEF_13
1002
{
1000
HIER
1070
     0
1002
}
1002
{
1000
MANEDIT
1070
     0
1002
}
1002
{
1000
NOSEL
1070
     0
1002
}
1002
{
1000
BEHIND
1070
     0
1002
}
1002
{
1000
OTHER
1070
     0
1002
}
1002
{
1000
REACTOR
1002
}
1001
GENIUS_GENOBJ-N-FIL_13
1002
{
1000
OWNER
1000
GEN
1002
}
  0
ARC
  5
242B
  8
0
 10
8272.228354668081
 20
1947.7875506640501
 30
0.0
 40
2.0
 50
90.0
 51
159.9999999999595
1001
GENIUS_GENODEF_13
1002
{
1000
HIER
1070
     0
1002
}
1002
{
1000
MANEDIT
1070
     0
1002
}
1002
{
1000
NOSEL
1070
     0
1002
}
1002
{
1000
BEHIND
1070
     0
1002
}
1002
{
1000
OTHER
1070
     0
1002
}
1002
{
1000
REACTOR
1002
}
1001
GENIUS_GENOBJ-N-FIL_13
1002
{
1000
OWNER
1000
GEN
1002
}
  0
LINE
  5
25E8
  8
0
 10
10347.73952265092
 20
1971.237550664056
 30
0.0
 11
10347.73952265092
 21
2005.2375506640569
 31
0.0
  0
LINE
  5
25E9
  8
0
 10
10344.889522650919
 20
1972.016777176518
 30
0.0
 11
10344.889522650919
 21
2004.458324151595
 31
0.0
  0
LINE
  5
25EA
  8
0
  6
CENTER
 10
10350.634085466199
 20
1988.2375506640569
 30
0.0
 11
10328.081629690691
 21
1988.2375506640569
 31
0.0
  0
LINE
  5
25EB
  8
0
 10
10345.44968868149
 20
1971.237550664056
 30
0.0
 11
10347.73952265092
 21
1971.237550664056
 31
0.0
  0
LINE
  5
25EC
  8
0
 10
10341.25069063376
 20
1977.387550664057
 30
0.0
 11
10328.739523650929
 21
1977.387550664057
 31
0.0
  0
LINE
  5
25ED
  8
0
 10
10342.65102779713
 20
1999.087509345155
 30
0.0
 11
10342.65102779713
 21
1977.3875919829579
 31
0.0
  0
LINE
  5
25EE
  8
0
 10
10344.697934584859
 20
1971.763934549396
 30
0.0
 11
10343.13007587534
 21
1976.071590950708
 31
0.0
  0
ARC
  5
25EF
  8
0
 10
10345.44968868149
 20
1972.037550664056
 30
0.0
 40
0.8
 50
200.000000000017
 51
270.0
1001
GENIUS_GENODEF_13
1002
{
1000
HIER
1070
     0
1002
}
1002
{
1000
MANEDIT
1070
     0
1002
}
1002
{
1000
NOSEL
1070
     0
1002
}
1002
{
1000
BEHIND
1070
     0
1002
}
1002
{
1000
OTHER
1070
     0
1002
}
1002
{
1000
REACTOR
1002
}
1001
GENIUS_GENOBJ-N-FIL_13
1002
{
1000
OWNER
1000
GEN
1002
}
  0
ARC
  5
25F0
  8
0
 10
10341.25069063376
 20
1975.387550664057
 30
0.0
 40
2.0
 50
20.00000000001706
 51
90.0
1001
GENIUS_GENODEF_13
1002
{
1000
HIER
1070
     0
1002
}
1002
{
1000
MANEDIT
1070
     0
1002
}
1002
{
1000
NOSEL
1070
     0
1002
}
1002
{
1000
BEHIND
1070
     0
1002
}
1002
{
1000
OTHER
1070
     0
1002
}
1002
{
1000
REACTOR
1002
}
1001
GENIUS_GENOBJ-N-FIL_13
1002
{
1000
OWNER
1000
GEN
1002
}
  0
LINE
  5
25F1
  8
0
 10
10345.44968868149
 20
2005.2375506640569
 30
0.0
 11
10347.73952265092
 21
2005.2375506640569
 31
0.0
  0
LINE
  5
25F2
  8
0
 10
10341.25069063376
 20
1999.0875506640571
 30
0.0
 11
10328.739523650929
 21
1999.0875506640571
 31
0.0
  0
LINE
  5
25F3
  8
0
 10
10344.697934584859
 20
2004.7111667787169
 30
0.0
 11
10343.13007587534
 21
2000.4035103774061
 31
0.0
  0
ARC
  5
25F4
  8
0
 10
10345.44968868149
 20
2004.437550664057
 30
0.0
 40
0.8
 50
90.0
 51
159.99999999998289
1001
GENIUS_GENODEF_13
1002
{
1000
HIER
1070
     0
1002
}
1002
{
1000
MANEDIT
1070
     0
1002
}
1002
{
1000
NOSEL
1070
     0
1002
}
1002
{
1000
BEHIND
1070
     0
1002
}
1002
{
1000
OTHER
1070
     0
1002
}
1002
{
1000
REACTOR
1002
}
1001
GENIUS_GENOBJ-N-FIL_13
1002
{
1000
OWNER
1000
GEN
1002
}
  0
ARC
  5
25F5
  8
0
 10
10341.25069063376
 20
2001.0875506640571
 30
0.0
 40
2.0
 50
270.0
 51
339.99999999998289
1001
GENIUS_GENODEF_13
1002
{
1000
HIER
1070
     0
1002
}
1002
{
1000
MANEDIT
1070
     0
1002
}
1002
{
1000
NOSEL
1070
     0
1002
}
1002
{
1000
BEHIND
1070
     0
1002
}
1002
{
1000
OTHER
1070
     0
1002
}
1002
{
1000
REACTOR
1002
}
1001
GENIUS_GENOBJ-N-FIL_13
1002
{
1000
OWNER
1000
GEN
1002
}
  0
LINE
  5
25F6
  8
0
 10
10347.73952265092
 20
2369.1090302133748
 30
0.0
 11
10347.73952265092
 21
2403.1090302133748
 31
0.0
  0
LINE
  5
25F7
  8
0
 10
10344.889522650919
 20
2369.888256725837
 30
0.0
 11
10344.889522650919
 21
2402.3298037009131
 31
0.0
  0
LINE
  5
25F9
  8
0
 10
10345.44968868149
 20
2369.1090302133748
 30
0.0
 11
10347.73952265092
 21
2369.1090302133748
 31
0.0
  0
LINE
  5
25FA
  8
0
 10
10341.25069063376
 20
2375.2590302133749
 30
0.0
 11
10328.739523650929
 21
2375.2590302133758
 31
0.0
  0
LINE
  5
25FB
  8
0
 10
10342.65102779713
 20
2396.9589888944738
 30
0.0
 11
10342.65102779713
 21
2375.2590715322758
 31
0.0
  0
LINE
  5
25FC
  8
0
 10
10344.697934584859
 20
2369.635414098715
 30
0.0
 11
10343.13007587534
 21
2373.9430705000268
 31
0.0
  0
ARC
  5
25FD
  8
0
 10
10345.44968868149
 20
2369.909030213375
 30
0.0
 40
0.8
 50
200.00000000001731
 51
270.0
1001
GENIUS_GENODEF_13
1002
{
1000
HIER
1070
     0
1002
}
1002
{
1000
MANEDIT
1070
     0
1002
}
1002
{
1000
NOSEL
1070
     0
1002
}
1002
{
1000
BEHIND
1070
     0
1002
}
1002
{
1000
OTHER
1070
     0
1002
}
1002
{
1000
REACTOR
1002
}
1001
GENIUS_GENOBJ-N-FIL_13
1002
{
1000
OWNER
1000
GEN
1002
}
  0
ARC
  5
25FE
  8
0
 10
10341.25069063376
 20
2373.2590302133749
 30
0.0
 40
2.0
 50
20.00000000001733
 51
90.0
1001
GENIUS_GENODEF_13
1002
{
1000
HIER
1070
     0
1002
}
1002
{
1000
MANEDIT
1070
     0
1002
}
1002
{
1000
NOSEL
1070
     0
1002
}
1002
{
1000
BEHIND
1070
     0
1002
}
1002
{
1000
OTHER
1070
     0
1002
}
1002
{
1000
REACTOR
1002
}
1001
GENIUS_GENOBJ-N-FIL_13
1002
{
1000
OWNER
1000
GEN
1002
}
  0
LINE
  5
25FF
  8
0
 10
10345.44968868149
 20
2403.1090302133748
 30
0.0
 11
10347.73952265092
 21
2403.1090302133748
 31
0.0
  0
LINE
  5
2600
  8
0
 10
10341.25069063376
 20
2396.9590302133752
 30
0.0
 11
10328.739523650929
 21
2396.9590302133752
 31
0.0
  0
LINE
  5
2601
  8
0
 10
10344.697934584859
 20
2402.5826463280359
 30
0.0
 11
10343.13007587534
 21
2398.2749899267228
 31
0.0
  0
ARC
  5
2602
  8
0
 10
10345.44968868149
 20
2402.3090302133751
 30
0.0
 40
0.8
 50
90.0
 51
159.99999999998261
1001
GENIUS_GENODEF_13
1002
{
1000
HIER
1070
     0
1002
}
1002
{
1000
MANEDIT
1070
     0
1002
}
1002
{
1000
NOSEL
1070
     0
1002
}
1002
{
1000
BEHIND
1070
     0
1002
}
1002
{
1000
OTHER
1070
     0
1002
}
1002
{
1000
REACTOR
1002
}
1001
GENIUS_GENOBJ-N-FIL_13
1002
{
1000
OWNER
1000
GEN
1002
}
  0
ARC
  5
2603
  8
0
 10
10341.25069063376
 20
2398.9590302133752
 30
0.0
 40
2.0
 50
270.0
 51
339.99999999998261
1001
GENIUS_GENODEF_13
1002
{
1000
HIER
1070
     0
1002
}
1002
{
1000
MANEDIT
1070
     0
1002
}
1002
{
1000
NOSEL
1070
     0
1002
}
1002
{
1000
BEHIND
1070
     0
1002
}
1002
{
1000
OTHER
1070
     0
1002
}
1002
{
1000
REACTOR
1002
}
1001
GENIUS_GENOBJ-N-FIL_13
1002
{
1000
OWNER
1000
GEN
1002
}
  0
LINE
  5
2604
  8
0
 10
8265.7395226509252
 20
2403.1090302133712
 30
0.0
 11
8265.7395226509252
 21
2369.1090302133698
 31
0.0
  0
LINE
  5
2605
  8
0
 10
8268.5895226509256
 20
2402.329803700909
 30
0.0
 11
8268.5895226509256
 21
2369.888256725832
 31
0.0
  0
LINE
  5
2606
  8
0
 10
8268.0293566203563
 20
2403.1090302133712
 30
0.0
 11
8265.7395226509252
 21
2403.1090302133712
 31
0.0
  0
LINE
  5
2607
  8
0
 10
8272.228354668081
 20
2396.9590302133702
 30
0.0
 11
8284.739521650914
 21
2396.9590302133702
 31
0.0
  0
LINE
  5
2608
  8
0
 10
8270.8280175047148
 20
2375.2590715322722
 30
0.0
 11
8270.8280175047148
 21
2396.9589888944688
 31
0.0
  0
LINE
  5
2609
  8
0
 10
8268.7811107169837
 20
2402.5826463280309
 30
0.0
 11
8270.3489694265099
 21
2398.2749899267192
 31
0.0
  0
ARC
  5
260A
  8
0
 10
8268.0293566203563
 20
2402.3090302133701
 30
0.0
 40
0.8
 50
20.000000000041489
 51
90.0
1001
GENIUS_GENODEF_13
1002
{
1000
HIER
1070
     0
1002
}
1002
{
1000
MANEDIT
1070
     0
1002
}
1002
{
1000
NOSEL
1070
     0
1002
}
1002
{
1000
BEHIND
1070
     0
1002
}
1002
{
1000
OTHER
1070
     0
1002
}
1002
{
1000
REACTOR
1002
}
1001
GENIUS_GENOBJ-N-FIL_13
1002
{
1000
OWNER
1000
GEN
1002
}
  0
ARC
  5
260B
  8
0
 10
8272.228354668081
 20
2398.9590302133702
 30
0.0
 40
2.0
 50
200.00000000004141
 51
270.0
1001
GENIUS_GENODEF_13
1002
{
1000
HIER
1070
     0
1002
}
1002
{
1000
MANEDIT
1070
     0
1002
}
1002
{
1000
NOSEL
1070
     0
1002
}
1002
{
1000
BEHIND
1070
     0
1002
}
1002
{
1000
OTHER
1070
     0
1002
}
1002
{
1000
REACTOR
1002
}
1001
GENIUS_GENOBJ-N-FIL_13
1002
{
1000
OWNER
1000
GEN
1002
}
  0
LINE
  5
260C
  8
0
 10
8268.0293566203563
 20
2369.1090302133698
 30
0.0
 11
8265.7395226509252
 21
2369.1090302133698
 31
0.0
  0
LINE
  5
260D
  8
0
 10
8272.228354668081
 20
2375.2590302133699
 30
0.0
 11
8284.739521650914
 21
2375.2590302133699
 31
0.0
  0
LINE
  5
260E
  8
0
 10
8268.7811107169837
 20
2369.63541409871
 30
0.0
 11
8270.3489694265099
 21
2373.9430705000218
 31
0.0
  0
ARC
  5
260F
  8
0
 10
8268.0293566203563
 20
2369.90903021337
 30
0.0
 40
0.8
 50
270.0
 51
339.9999999999585
1001
GENIUS_GENODEF_13
1002
{
1000
HIER
1070
     0
1002
}
1002
{
1000
MANEDIT
1070
     0
1002
}
1002
{
1000
NOSEL
1070
     0
1002
}
1002
{
1000
BEHIND
1070
     0
1002
}
1002
{
1000
OTHER
1070
     0
1002
}
1002
{
1000
REACTOR
1002
}
1001
GENIUS_GENOBJ-N-FIL_13
1002
{
1000
OWNER
1000
GEN
1002
}
  0
ARC
  5
2610
  8
0
 10
8272.228354668081
 20
2373.2590302133699
 30
0.0
 40
2.0
 50
90.0
 51
159.9999999999585
1001
GENIUS_GENODEF_13
1002
{
1000
HIER
1070
     0
1002
}
1002
{
1000
MANEDIT
1070
     0
1002
}
1002
{
1000
NOSEL
1070
     0
1002
}
1002
{
1000
BEHIND
1070
     0
1002
}
1002
{
1000
OTHER
1070
     0
1002
}
1002
{
1000
REACTOR
1002
}
1001
GENIUS_GENOBJ-N-FIL_13
1002
{
1000
OWNER
1000
GEN
1002
}
  0
CIRCLE
  5
6395
  8
0
 10
10217.73952265092
 20
2386.1090302133748
 30
0.0
 40
70.0
  0
CIRCLE
  5
6396
  8
0
 10
10254.86262866321
 20
2423.232136225668
 30
0.0
 40
9.5
  0
CIRCLE
  5
6397
  8
0
 10
10254.86262866321
 20
2348.9859242010812
 30
0.0
 40
9.5
  0
CIRCLE
  5
6398
  8
0
  6
CENTER
 10
10217.73952265092
 20
2386.1090302133748
 30
0.0
 40
52.5
  0
CIRCLE
  5
6399
  8
0
 10
10180.61641663863
 20
2348.9859242010812
 30
0.0
 40
9.5
  0
CIRCLE
  5
639A
  8
0
 10
10180.61641663863
 20
2423.232136225668
 30
0.0
 40
9.5
  0
CIRCLE
  5
639B
  8
AM_0_T3
 10
10217.73952265092
 20
2386.1090302133748
 30
0.0
 40
24.299999999999731
  0
LINE
  5
6631
  8
0
 10
8074.2882730739911
 20
1913.4375506640561
 30
0.0
 11
8074.2882730739911
 21
1938.813645664057
 31
0.0
  0
LINE
  5
6632
  8
0
 10
8086.2882730739911
 20
1913.4375506640561
 30
0.0
 11
8086.2882730739911
 21
1931.2164626640561
 31
0.0
  0
LINE
  5
6633
  8
0
 10
8086.2882730739911
 20
1913.4375506640561
 30
0.0
 11
8074.2882730739911
 21
1913.4375506640561
 31
0.0
  0
LINE
  5
6634
  8
0
 10
8056.2882730739921
 20
1913.4375506640561
 30
0.0
 11
8056.2882730739921
 21
1931.2164626640561
 31
0.0
  0
LINE
  5
6635
  8
0
 10
8056.2882730739921
 20
1913.4375506640561
 30
0.0
 11
8068.2882730739921
 21
1913.4375506640561
 31
0.0
  0
LINE
  5
6636
  8
0
 10
8068.2882730739921
 20
1913.4375506640561
 30
0.0
 11
8068.2882730739921
 21
1938.813645664057
 31
0.0
  0
LINE
  5
6637
  8
0
 10
8068.2882730739921
 20
1916.437550664057
 30
0.0
 11
8074.2882730739911
 21
1916.437550664057
 31
0.0
  0
LINE
  5
6638
  8
0
 10
8068.2882730739921
 20
1924.4375506640561
 30
0.0
 11
8074.2882730739911
 21
1924.4375506640561
 31
0.0
  0
LINE
  5
6639
  8
0
 10
8086.2882730739911
 20
2035.4375506640561
 30
0.0
 11
8074.2882730739911
 21
2035.4375506640561
 31
0.0
  0
LINE
  5
663A
  8
0
 10
8074.2882730739911
 20
2035.4375506640561
 30
0.0
 11
8074.2882730739911
 21
2010.0614556640569
 31
0.0
  0
LINE
  5
663B
  8
0
 10
8056.2882730739921
 20
2035.4375506640561
 30
0.0
 11
8068.2882730739921
 21
2035.4375506640561
 31
0.0
  0
LINE
  5
663C
  8
0
 10
8068.2882730739921
 20
2035.4375506640561
 30
0.0
 11
8068.2882730739921
 21
2010.0614556640569
 31
0.0
  0
LINE
  5
663D
  8
0
 10
8068.2882730739921
 20
2032.437550664057
 30
0.0
 11
8074.2882730739911
 21
2032.437550664057
 31
0.0
  0
LINE
  5
663E
  8
0
 10
8068.2882730739921
 20
2024.4375506640561
 30
0.0
 11
8074.2882730739911
 21
2024.4375506640561
 31
0.0
  0
LINE
  5
663F
  8
0
 10
8056.2882730739921
 20
2035.4375506640561
 30
0.0
 11
8056.2882730739921
 21
2017.658638664057
 31
0.0
  0
LINE
  5
6640
  8
0
 10
8042.2882730739911
 20
2024.4375506640561
 30
0.0
 11
8047.7882730739902
 21
2024.4375506640561
 31
0.0
  0
LINE
  5
6641
  8
0
 10
8047.7882730739902
 20
2023.437550664057
 30
0.0
 11
8047.7882730739902
 21
2033.437550664057
 31
0.0
  0
LINE
  5
6642
  8
0
 10
8042.2882730739911
 20
2024.4375506640561
 30
0.0
 11
8042.2882730739911
 21
2032.437550664057
 31
0.0
  0
LINE
  5
6643
  8
0
 10
8048.7882730739911
 20
2022.437550664057
 30
0.0
 11
8049.7882730739911
 21
2022.437550664057
 31
0.0
  0
LINE
  5
6644
  8
0
 10
8048.7882730739911
 20
2034.437550664057
 30
0.0
 11
8049.7882730739911
 21
2034.437550664057
 31
0.0
  0
LINE
  5
6645
  8
0
 10
8049.7882730739911
 20
2034.937550664057
 30
0.0
 11
8049.7882730739911
 21
2021.937550664057
 31
0.0
  0
LINE
  5
6646
  8
0
 10
8049.7882730739911
 20
2034.937550664057
 30
0.0
 11
8056.2882730739921
 21
2034.937550664057
 31
0.0
  0
LINE
  5
6647
  8
0
 10
8049.7882730739911
 20
2021.937550664057
 30
0.0
 11
8056.2882730739921
 21
2021.937550664057
 31
0.0
  0
LINE
  5
6648
  8
0
 10
8042.2882730739911
 20
2032.437550664057
 30
0.0
 11
8047.7882730739902
 21
2032.437550664057
 31
0.0
  0
LINE
  5
6649
  8
0
  6
CENTER
 10
8040.6369380739907
 20
2028.4375506640561
 30
0.0
 11
8097.676788073989
 21
2028.4375506640561
 31
0.0
  0
LINE
  5
664A
  8
0
 10
8091.7882730739921
 20
1923.6875506640561
 30
0.0
 11
8091.7882730739921
 21
1917.187550664057
 31
0.0
  0
LINE
  5
664B
  8
0
 10
8091.0633790739912
 20
1926.937550664057
 30
0.0
 11
8086.2882730739911
 21
1926.937550664057
 31
0.0
  0
LINE
  5
664C
  8
0
 10
8091.0633790739912
 20
1913.937550664057
 30
0.0
 11
8086.2882730739911
 21
1913.937550664057
 31
0.0
  0
LINE
  5
664D
  8
0
 10
8042.2882730739911
 20
1924.4375506640561
 30
0.0
 11
8047.7882730739902
 21
1924.4375506640561
 31
0.0
  0
LINE
  5
664E
  8
0
 10
8047.7882730739902
 20
1925.437550664057
 30
0.0
 11
8047.7882730739902
 21
1915.437550664057
 31
0.0
  0
LINE
  5
664F
  8
0
 10
8042.2882730739911
 20
1924.4375506640561
 30
0.0
 11
8042.2882730739911
 21
1916.437550664057
 31
0.0
  0
LINE
  5
6650
  8
0
 10
8048.7882730739911
 20
1926.4375506640561
 30
0.0
 11
8049.7882730739911
 21
1926.4375506640561
 31
0.0
  0
LINE
  5
6651
  8
0
 10
8048.7882730739911
 20
1914.437550664057
 30
0.0
 11
8049.7882730739911
 21
1914.437550664057
 31
0.0
  0
LINE
  5
6652
  8
0
 10
8049.7882730739911
 20
1913.937550664057
 30
0.0
 11
8049.7882730739911
 21
1926.937550664057
 31
0.0
  0
LINE
  5
6653
  8
0
 10
8049.7882730739911
 20
1913.937550664057
 30
0.0
 11
8056.2882730739921
 21
1913.937550664057
 31
0.0
  0
LINE
  5
6654
  8
0
 10
8049.7882730739911
 20
1926.937550664057
 30
0.0
 11
8056.2882730739921
 21
1926.937550664057
 31
0.0
  0
LINE
  5
6655
  8
0
 10
8042.2882730739911
 20
1916.437550664057
 30
0.0
 11
8047.7882730739902
 21
1916.437550664057
 31
0.0
  0
LINE
  5
6656
  8
0
  6
CENTER
 10
8040.6369380739907
 20
1920.437550664057
 30
0.0
 11
8098.2995260739917
 21
1920.437550664057
 31
0.0
  0
LINE
  5
6657
  8
0
 10
8091.7882730739921
 20
2025.1875506640561
 30
0.0
 11
8091.7882730739921
 21
2031.687550664057
 31
0.0
  0
LINE
  5
6658
  8
0
 10
8091.0633790739912
 20
2021.937550664057
 30
0.0
 11
8086.2882730739911
 21
2021.937550664057
 31
0.0
  0
LINE
  5
6659
  8
0
 10
8091.0633790739912
 20
2034.937550664057
 30
0.0
 11
8086.2882730739911
 21
2034.937550664057
 31
0.0
  0
LINE
  5
665A
  8
0
 10
8086.2882730739911
 20
2017.658638664057
 30
0.0
 11
8086.2882730739911
 21
2035.4375506640561
 31
0.0
  0
ARC
  5
665B
  8
0
 10
8071.2882730739902
 20
1974.4375506640561
 30
0.0
 40
45.75
 50
273.7597999999735
 51
90.000000000000028
  0
ARC
  5
665C
  8
0
 10
8071.2882730739902
 20
1974.4375506640561
 30
0.0
 40
35.75
 50
274.81369799986129
 51
85.186299999973144
  0
ARC
  5
665D
  8
0
 10
8071.2882730739902
 20
1974.4375506640561
 30
0.0
 40
37.75
 50
274.81369799986129
 51
90.000000000000028
  0
ARC
  5
665E
  8
0
 10
8071.2882730739902
 20
1974.4375506640561
 30
0.0
 40
35.75
 50
94.81370000002687
 51
265.18630400009488
  0
ARC
  5
665F
  8
0
 10
8071.2882730739902
 20
1974.4375506640561
 30
0.0
 40
37.75
 50
94.81370000002687
 51
265.18630400009488
  0
ARC
  5
6660
  8
0
 10
8071.2882730739902
 20
1974.4375506640561
 30
0.0
 40
45.75
 50
93.759799999973637
 51
266.240201999943
  0
ARC
  5
6661
  8
0
 10
8048.7882730739911
 20
2023.437550664057
 30
0.0
 40
1.0
 50
179.99998999999889
 51
269.99999600002042
  0
ARC
  5
6662
  8
0
 10
8048.7882730739911
 20
2033.437550664057
 30
0.0
 40
1.0
 50
90.000000000000028
 51
180.00000500893739
  0
ARC
  5
6663
  8
0
 10
8057.4362680739896
 20
2031.687550664057
 30
0.0
 40
7.647994999999999
 50
154.85263000001481
 51
205.1473750000408
  0
ARC
  5
6664
  8
0
 10
8057.4362680739896
 20
2025.1875506640561
 30
0.0
 40
7.647994999999999
 50
154.85263000001481
 51
205.14736800003951
  0
ARC
  5
6665
  8
0
 10
8048.6402780739918
 20
2031.687550664057
 30
0.0
 40
7.647994999999999
 50
334.85263000001481
 51
25.147369999985109
  0
ARC
  5
6666
  8
0
 10
8048.6402780739918
 20
2025.1875506640561
 30
0.0
 40
7.647994999999999
 50
334.85263000001481
 51
25.147369999985109
  0
ARC
  5
6667
  8
0
 10
8084.1402780739927
 20
1923.6875506640561
 30
0.0
 40
7.6479945000000011
 50
334.85263000001481
 51
25.147369999985109
  0
ARC
  5
6668
  8
0
 10
8084.1402780739927
 20
1917.187550664057
 30
0.0
 40
7.6479945000000011
 50
334.85263000001481
 51
25.147369999985109
  0
ARC
  5
6669
  8
0
 10
8048.7882730739911
 20
1925.437550664057
 30
0.0
 40
1.0
 50
90.000000000000028
 51
180.00000500893739
  0
ARC
  5
666A
  8
0
 10
8048.7882730739911
 20
1915.437550664057
 30
0.0
 40
1.0
 50
179.99998999999889
 51
269.99999600002042
  0
ARC
  5
666B
  8
0
 10
8057.4362680739896
 20
1917.187550664057
 30
0.0
 40
7.647994999999999
 50
154.8526199999948
 51
205.14737199996119
  0
ARC
  5
666C
  8
0
 10
8057.4362680739896
 20
1923.6875506640561
 30
0.0
 40
7.647994999999999
 50
154.85263000001481
 51
205.14737199996119
  0
ARC
  5
666D
  8
0
 10
8048.6402780739918
 20
1917.187550664057
 30
0.0
 40
7.647994999999999
 50
334.85263000001481
 51
25.147369999985109
  0
ARC
  5
666E
  8
0
 10
8048.6402780739918
 20
1923.6875506640561
 30
0.0
 40
7.647994999999999
 50
334.85263000001481
 51
25.147369999985109
  0
ARC
  5
666F
  8
0
 10
8084.1402780739927
 20
2025.1875506640561
 30
0.0
 40
7.6479945000000011
 50
334.85263000001481
 51
25.147369999985109
  0
ARC
  5
6670
  8
0
 10
8084.1402780739927
 20
2031.687550664057
 30
0.0
 40
7.6479945000000011
 50
334.85263000001481
 51
25.147369999985109
  0
LINE
  5
6671
  8
0
  6
CENTER
 10
8071.2882730739902
 20
1871.437550664052
 30
0.0
 11
8071.2882730739902
 21
2077.4375506640608
 31
0.0
  0
LINE
  5
6672
  8
0
  6
CENTER
 10
8010.2521123688466
 20
1974.4375506640561
 30
0.0
 11
8132.3244337791348
 21
1974.4375506640561
 31
0.0
  0
ARC
  5
6673
  8
AM_0_T3
 10
8071.2882730739902
 20
1974.4375506640561
 30
0.0
 40
27.999999999995229
 50
297.50673843884482
 51
242.49326156115509
  0
LINE
  5
6674
  8
0
 10
8095.5882730739913
 20
1895.437550664052
 30
0.0
 11
8095.5882730739922
 21
1935.6745205967361
 31
0.0
  0
LINE
  5
6675
  8
0
 10
8001.2882730739921
 20
1895.437550664052
 30
0.0
 11
8141.2882730739911
 21
1895.437550664052
 31
0.0
  0
LINE
  5
6676
  8
0
 10
8141.2882730739911
 20
1879.437550664052
 30
0.0
 11
8001.2882730739921
 21
1879.437550664052
 31
0.0
  0
LINE
  5
6677
  8
0
 10
8141.2882730739911
 20
1895.437550664052
 30
0.0
 11
8141.2882730739911
 21
1879.437550664052
 31
0.0
  0
LINE
  5
6678
  8
0
  6
CENTER
 10
8123.7882730739911
 20
1871.437550664052
 30
0.0
 11
8123.7882730739911
 21
1905.437550664052
 31
0.0
  0
LINE
  5
6679
  8
0
 10
8046.9882730739919
 20
1895.437550664052
 30
0.0
 11
8046.9882730739919
 21
1916.437550664057
 31
0.0
  0
LINE
  5
667A
  8
0
 10
8046.9882730739919
 20
1924.437550664057
 30
0.0
 11
8046.9882730739919
 21
1935.6745205967361
 31
0.0
  0
LINE
  5
667B
  8
0
  6
CENTER
 10
8018.7882730739921
 20
1871.437550664052
 30
0.0
 11
8018.7882730739921
 21
1905.437550664052
 31
0.0
  0
LINE
  5
667C
  8
0
 10
8001.2882730739921
 20
1879.437550664052
 30
0.0
 11
8001.2882730739921
 21
1895.437550664052
 31
0.0
  0
LINE
  5
667D
  8
0
 10
8095.5882730739913
 20
2053.4375506640608
 30
0.0
 11
8095.5882730739922
 21
2013.2005807313769
 31
0.0
  0
LINE
  5
667E
  8
0
 10
8001.2882730739921
 20
2053.4375506640622
 30
0.0
 11
8141.2882730739911
 21
2053.4375506640622
 31
0.0
  0
LINE
  5
667F
  8
0
 10
8141.2882730739911
 20
2069.4375506640622
 30
0.0
 11
8001.2882730739921
 21
2069.4375506640622
 31
0.0
  0
LINE
  5
6680
  8
0
 10
8141.2882730739911
 20
2053.4375506640622
 30
0.0
 11
8141.2882730739911
 21
2069.4375506640622
 31
0.0
  0
LINE
  5
6681
  8
0
  6
CENTER
 10
8123.7882730739911
 20
2077.4375506640608
 30
0.0
 11
8123.7882730739911
 21
2043.4375506640611
 31
0.0
  0
LINE
  5
6682
  8
0
 10
8046.9882730739919
 20
2053.4375506640608
 30
0.0
 11
8046.9882730739919
 21
2032.437550664057
 31
0.0
  0
LINE
  5
6683
  8
0
 10
8046.9882730739919
 20
2024.4375506640561
 30
0.0
 11
8046.9882730739919
 21
2013.2005807313769
 31
0.0
  0
LINE
  5
6684
  8
0
  6
CENTER
 10
8018.7882730739921
 20
2077.4375506640608
 30
0.0
 11
8018.7882730739921
 21
2043.4375506640611
 31
0.0
  0
LINE
  5
6685
  8
0
 10
8001.2882730739921
 20
2069.4375506640622
 30
0.0
 11
8001.2882730739921
 21
2053.4375506640622
 31
0.0
  0
LINE
  5
6686
  8
0
  6
CENTER
 10
8049.4787424738142
 20
1960.637550664057
 30
0.0
 11
8093.0978036741672
 21
1960.637550664057
 31
0.0
  0
CIRCLE
  5
6687
  8
AM_0_T3
 10
8071.2882730739902
 20
1960.637550664057
 30
0.0
 40
17.0
  0
CIRCLE
  5
6688
  8
AM_0_T3
 10
8071.2882730739902
 20
1960.637550664057
 30
0.0
 40
10.85000000000036
  0
ENDSEC
  0
EOF
