  0
SECTION
  2
HEADER
  9
$ACADVER
  1
AC1009
  9
$INSBASE
 10
0.0
 20
0.0
 30
0.0
  9
$EXTMIN
 10
-70.000000000000909
 20
-104.9999999999972
 30
0.0
  9
$EXTMAX
 10
2282.5999922979909
 20
588.28139750376715
 30
0.0
  9
$LIMMIN
 10
0.0
 20
0.0
  9
$LIMMAX
 10
420.0
 20
297.0
  9
$ORTHOMODE
 70
     0
  9
$REGENMODE
 70
     1
  9
$FILLMODE
 70
     1
  9
$QTEXTMODE
 70
     0
  9
$MIRRTEXT
 70
     1
  9
$DRAGMODE
 70
     2
  9
$LTSCALE
 40
1.0
  9
$OSMODE
 70
    37
  9
$ATTMODE
 70
     1
  9
$TEXTSIZE
 40
73.985717453579113
  9
$TRACEWID
 40
1.0
  9
$TEXTSTYLE
  7
STANDARD
  9
$CLAYER
  8
0
  9
$CELTYPE
  6
BYLAYER
  9
$CECOLOR
 62
   256
  9
$DIMSCALE
 40
1.0
  9
$DIMASZ
 40
3.0
  9
$DIMEXO
 40
1.0
  9
$DIMDLI
 40
10.0
  9
$DIMRND
 40
0.0
  9
$DIMDLE
 40
0.0
  9
$DIMEXE
 40
1.0
  9
$DIMTP
 40
0.1
  9
$DIMTM
 40
0.1
  9
$DIMTXT
 40
30.0
  9
$DIMCEN
 40
0.0
  9
$DIMTSZ
 40
0.0
  9
$DIMTOL
 70
     0
  9
$DIMLIM
 70
     0
  9
$DIMTIH
 70
     0
  9
$DIMTOH
 70
     0
  9
$DIMSE1
 70
     0
  9
$DIMSE2
 70
     0
  9
$DIMTAD
 70
     3
  9
$DIMZIN
 70
     8
  9
$DIMBLK
  1
OPEN
  9
$DIMASO
 70
     1
  9
$DIMSHO
 70
     1
  9
$DIMPOST
  1

  9
$DIMAPOST
  1
"
  9
$DIMALT
 70
     0
  9
$DIMALTD
 70
     2
  9
$DIMALTF
 40
0.0393701
  9
$DIMLFAC
 40
1.0
  9
$DIMTOFL
 70
     1
  9
$DIMTVP
 40
0.0
  9
$DIMTIX
 70
     0
  9
$DIMSOXD
 70
     0
  9
$DIMSAH
 70
     0
  9
$DIMBLK1
  1

  9
$DIMBLK2
  1

  9
$DIMSTYLE
  2
TSK
  9
$DIMCLRD
 70
   256
  9
$DIMCLRE
 70
   256
  9
$DIMCLRT
 70
     2
  9
$DIMTFAC
 40
0.71
  9
$DIMGAP
 40
1.5
  9
$LUNITS
 70
     2
  9
$LUPREC
 70
     8
  9
$SKETCHINC
 40
1.0
  9
$FILLETRAD
 40
0.0
  9
$AUNITS
 70
     0
  9
$AUPREC
 70
     8
  9
$MENU
  1
.
  9
$ELEVATION
 40
0.0
  9
$PELEVATION
 40
0.0
  9
$THICKNESS
 40
0.0
  9
$LIMCHECK
 70
     0
  9
$BLIPMODE
 70
     0
  9
$CHAMFERA
 40
2.5
  9
$CHAMFERB
 40
2.5
  9
$SKPOLY
 70
     0
  9
$TDCREATE
 40
2454739.7204081588
  9
$TDUPDATE
 40
2454748.5623525572
  9
$TDINDWG
 40
0.2615444444
  9
$TDUSRTIMER
 40
0.2615444444
  9
$USRTIMER
 70
     1
  9
$ANGBASE
 50
0.0
  9
$ANGDIR
 70
     1
  9
$PDMODE
 70
     0
  9
$PDSIZE
 40
0.0
  9
$PLINEWID
 40
0.0
  9
$COORDS
 70
     1
  9
$SPLFRAME
 70
     0
  9
$SPLINETYPE
 70
     6
  9
$SPLINESEGS
 70
     8
  9
$ATTDIA
 70
     0
  9
$ATTREQ
 70
     1
  9
$HANDLING
 70
 22529
  9
$HANDSEED
  5
6700
  9
$SURFTAB1
 70
     6
  9
$SURFTAB2
 70
     6
  9
$SURFTYPE
 70
     6
  9
$SURFU
 70
     6
  9
$SURFV
 70
     6
  9
$UCSNAME
  2

  9
$UCSORG
 10
0.0
 20
0.0
 30
0.0
  9
$UCSXDIR
 10
1.0
 20
0.0
 30
0.0
  9
$UCSYDIR
 10
0.0
 20
1.0
 30
0.0
  9
$PUCSNAME
  2

  9
$PUCSORG
 10
0.0
 20
0.0
 30
0.0
  9
$PUCSXDIR
 10
1.0
 20
0.0
 30
0.0
  9
$PUCSYDIR
 10
0.0
 20
1.0
 30
0.0
  9
$USERI1
 70
     0
  9
$USERI2
 70
     0
  9
$USERI3
 70
     0
  9
$USERI4
 70
     0
  9
$USERI5
 70
     0
  9
$USERR1
 40
0.0
  9
$USERR2
 40
0.0
  9
$USERR3
 40
0.0
  9
$USERR4
 40
0.0
  9
$USERR5
 40
0.0
  9
$WORLDVIEW
 70
     1
  9
$SHADEDGE
 70
     3
  9
$SHADEDIF
 70
    70
  9
$TILEMODE
 70
     1
  9
$MAXACTVP
 70
    48
  9
$PLIMCHECK
 70
     0
  9
$PEXTMIN
 10
1.0000000000000000E+020
 20
1.0000000000000000E+020
 30
1.0000000000000000E+020
  9
$PEXTMAX
 10
-1.0000000000000000E+020
 20
-1.0000000000000000E+020
 30
-1.0000000000000000E+020
  9
$PLIMMIN
 10
0.0
 20
0.0
  9
$PLIMMAX
 10
420.0
 20
297.0
  9
$UNITMODE
 70
     0
  9
$VISRETAIN
 70
     1
  9
$PLINEGEN
 70
     0
  9
$PSLTSCALE
 70
     1
  0
ENDSEC
  0
SECTION
  2
TABLES
  0
TABLE
  2
VPORT
 70
     2
  0
VPORT
  2
*ACTIVE
 70
     0
 10
0.0
 20
0.0
 11
1.0
 21
1.0
 12
1156.4135154437499
 22
241.637489245007
 13
0.0
 23
0.0
 14
2.5
 24
2.5
 15
10.0
 25
10.0
 16
0.0
 26
0.0
 36
1.0
 17
0.0
 27
0.0
 37
0.0
 40
1543.6336921516449
 41
1.596774193548387
 42
50.0
 43
0.0
 44
0.0
 50
0.0
 51
0.0
 71
     0
 72
   100
 73
     1
 74
     3
 75
     0
 76
     0
 77
     0
 78
     0
  0
ENDTAB
  0
TABLE
  2
LTYPE
 70
     2
  0
LTYPE
  2
CONTINUOUS
 70
     0
  3
Solid line
 72
    65
 73
     0
 40
0.0
  0
LTYPE
  2
CENTER
 70
     0
  3
__ . __
 72
    65
 73
     4
 40
7.0
 49
4.0
 49
-1.0
 49
1.0
 49
-1.0
  0
ENDTAB
  0
TABLE
  2
LAYER
 70
     2
  0
LAYER
  2
0
 70
     0
 62
     7
  6
CONTINUOUS
  0
LAYER
  2
AM_0_T3
 70
     0
 62
     7
  6
CONTINUOUS
  0
ENDTAB
  0
TABLE
  2
STYLE
 70
     2
  0
STYLE
  2
STANDARD
 70
     0
 40
0.0
 41
0.7
 50
0.0
 71
     0
 42
73.985717453579113
  3
romans.shx
  4
bigfont.shx
  0
STYLE
  2
TSKDIM
 70
     0
 40
0.0
 41
0.75
 50
0.0
 71
     0
 42
4.0
  3
romans.shx
  4
EXTFONT.SHX
  0
ENDTAB
  0
TABLE
  2
VIEW
 70
     0
  0
ENDTAB
  0
TABLE
  2
UCS
 70
     0
  0
ENDTAB
  0
TABLE
  2
APPID
 70
    41
  0
APPID
  2
ACAD
 70
     0
  0
APPID
  2
MCAD_NO_VIS
 70
     0
  0
APPID
  2
ACAD_TEMP_GRAPHIC
 70
     0
  0
APPID
  2
ACATTRIBSERVICES
 70
     0
  0
APPID
  2
AD_DRAW
 70
     0
  0
APPID
  2
DESIGNERASSEMBLIES
 70
     0
  0
APPID
  2
ASURF_PCURVE_APPNAME
 70
     0
  0
APPID
  2
ACADM_DIM_EDIT
 70
     0
  0
APPID
  2
GENIUS_GENDIM_13
 70
     0
  0
APPID
  2
GENIUS_GENDTOL_13
 70
     0
  0
APPID
  2
GENIUS_GE3DTOL_13
 70
     0
  0
APPID
  2
AMG_3D2D_5_0
 70
     0
  0
APPID
  2
AMDT_DM_ADJ
 70
     0
  0
APPID
  2
CK_MATE-SERIES
 70
     0
  0
APPID
  2
GEVID1042077799
 70
     0
  0
APPID
  2
GEVMK
 70
     0
  0
APPID
  2
GEVDC
 70
     0
  0
APPID
  2
GENIUS_GENBH_13
 70
     0
  0
APPID
  2
GENIUS_GENOLIS_13
 70
     0
  0
APPID
  2
GENIUS_GENOENT_13
 70
     0
  0
APPID
  2
GENIUS_GENODEF_13
 70
     0
  0
APPID
  2
GENIUS_GENOBJ-NBEHI-BHF_13
 70
     0
  0
APPID
  2
GENIUS_GENOREF_13
 70
     0
  0
APPID
  2
GENIUS_GENOBJ-NBEHI-BHB_13
 70
     0
  0
APPID
  2
GEVID1042183772
 70
     0
  0
APPID
  2
GEVID1042183773
 70
     0
  0
APPID
  2
GEVID1042183774
 70
     0
  0
APPID
  2
DCO15
 70
     0
  0
APPID
  2
ACAD_DSTYLE_DIMARC_LENGTH_
 70
     0
  0
APPID
  2
ACAD_DSTYLE_DIMJOGGED_JOGA
 70
     0
  0
APPID
  2
ACAD_MLEADERVER
 70
     0
  0
APPID
  2
ACAD_DSTYLE_DIMJAG
 70
     0
  0
APPID
  2
ACAD_DSTYLE_DIMTALN
 70
     0
  0
APPID
  2
ACAD_PSEXT
 70
     0
  0
APPID
  2
ACAD_EXEMPT_FROM_CAD_STANDARDS
 70
     0
  0
APPID
  2
ACAD_DSTYLE_DIMINSPECT
 70
     0
  0
APPID
  2
ACAD_DSTYLE_DIMANGULAR_EXT
 70
     0
  0
APPID
  2
GENIUS_GENOBJ-N-FIL_13
 70
     0
  0
APPID
  2
ACAD_DSTYLE_DIM_LINETYPE
 70
     0
  0
APPID
  2
ACAD_DSTYLE_DIM_EXT1_LINETYPE
 70
     0
  0
APPID
  2
ACAD_DSTYLE_DIM_EXT2_LINETYPE
 70
     0
  0
ENDTAB
  0
TABLE
  2
DIMSTYLE
 70
     1
  0
DIMSTYLE
  2
TSK
 70
     0
  3

  4
"
  5
OPEN
  6

  7

 40
1.0
 41
3.0
 42
1.0
 43
10.0
 44
1.0
 45
0.0
 46
0.0
 47
0.1
 48
0.1
140
30.0
141
0.0
142
0.0
143
0.0393701
144
1.0
145
0.0
146
0.71
147
1.5
 71
     0
 72
     0
 73
     0
 74
     0
 75
     0
 76
     0
 77
     3
 78
     8
170
     0
171
     2
172
     1
173
     0
174
     0
175
     0
176
   256
177
   256
178
     2
  0
ENDTAB
  0
ENDSEC
  0
SECTION
  2
BLOCKS
  0
BLOCK
  8
0
  2
$MODEL_SPACE
 70
     0
 10
0.0
 20
0.0
 30
0.0
  3
$MODEL_SPACE
  1

  0
ENDBLK
  5
21
  8
0
  0
BLOCK
 67
     1
  8
0
  2
$PAPER_SPACE
 70
     0
 10
0.0
 20
0.0
 30
0.0
  3
$PAPER_SPACE
  1

  0
ENDBLK
  5
1D
 67
     1
  8
0
  0
BLOCK
  8
0
  2
_OPEN
 70
     0
 10
0.0
 20
0.0
 30
0.0
  3
_OPEN
  1

  0
LINE
  5
15A
  8
0
  6
BYBLOCK
 62
     0
 10
-1.0
 20
0.1666666666666666
 30
0.0
 11
0.0
 21
0.0
 31
0.0
  0
LINE
  5
15B
  8
0
  6
BYBLOCK
 62
     0
 10
-1.0
 20
-0.1666666666666666
 30
0.0
 11
0.0
 21
0.0
 31
0.0
  0
LINE
  5
15C
  8
0
  6
BYBLOCK
 62
     0
 10
0.0
 20
0.0
 30
0.0
 11
-1.0
 21
0.0
 31
0.0
  0
ENDBLK
  5
15E
  8
0
  0
ENDSEC
  0
SECTION
  2
ENTITIES
  0
LINE
  5
913
  8
0
 10
1202.480402222466
 20
-41.499999999989988
 30
0.0
 11
1268.4220969314019
 21
-41.499999999989988
 31
0.0
  0
LINE
  5
914
  8
0
 10
1198.751249576934
 20
-35.040918148749817
 30
0.0
 11
1202.480402222466
 21
-41.499999999989988
 31
0.0
  0
LINE
  5
917
  8
0
 10
1272.1512495769341
 20
-31.749999999989541
 30
0.0
 11
2228.701249576935
 21
-31.749999999989541
 31
0.0
  0
LINE
  5
91A
  8
0
 10
1255.7012495769361
 20
-41.499999999989988
 30
0.0
 11
1255.7012495769361
 21
41.500000000010232
 31
0.0
  0
LINE
  5
91B
  8
0
 10
1260.201249576935
 20
-41.499999999989768
 30
0.0
 11
1260.201249576935
 21
41.500000000010452
 31
0.0
  0
LINE
  5
91C
  8
0
 10
1246.701249576935
 20
-41.499999999989988
 30
0.0
 11
1246.7012495769361
 21
41.500000000010232
 31
0.0
  0
LINE
  5
91D
  8
0
 10
1251.2012495769361
 20
-41.499999999989768
 30
0.0
 11
1251.2012495769361
 21
41.500000000010452
 31
0.0
  0
LINE
  5
91E
  8
0
 10
1219.701249576935
 20
-41.499999999989988
 30
0.0
 11
1219.701249576935
 21
41.500000000010232
 31
0.0
  0
LINE
  5
91F
  8
0
 10
1224.201249576935
 20
-41.499999999989768
 30
0.0
 11
1224.201249576935
 21
41.500000000010452
 31
0.0
  0
LINE
  5
920
  8
0
 10
1228.7012495769361
 20
-41.499999999989988
 30
0.0
 11
1228.7012495769361
 21
41.500000000010232
 31
0.0
  0
LINE
  5
921
  8
0
 10
1233.201249576935
 20
-41.499999999989768
 30
0.0
 11
1233.201249576935
 21
41.500000000010452
 31
0.0
  0
LINE
  5
922
  8
0
 10
1237.701249576935
 20
-41.499999999989988
 30
0.0
 11
1237.701249576935
 21
41.500000000010232
 31
0.0
  0
LINE
  5
923
  8
0
 10
1242.201249576935
 20
-41.499999999989768
 30
0.0
 11
1242.2012495769341
 21
41.500000000010452
 31
0.0
  0
LINE
  5
92F
  8
0
 10
1198.751249576934
 20
35.040918148770281
 30
0.0
 11
1202.480402222466
 21
41.500000000010452
 31
0.0
  0
LINE
  5
933
  8
0
 10
1198.751249576934
 20
-35.040918148749817
 30
0.0
 11
1198.751249576934
 21
35.040918148770281
 31
0.0
  0
LINE
  5
935
  8
0
 10
1202.480402222466
 20
41.500000000010452
 30
0.0
 11
1268.4220969314019
 21
41.500000000010452
 31
0.0
  0
LINE
  5
939
  8
0
 10
1272.1512495769341
 20
31.750000000010001
 30
0.0
 11
2122.151249576933
 21
31.7500000000075
 31
0.0
  0
LINE
  5
95D
  8
0
 10
1202.480402222466
 20
-41.499999999989079
 30
0.0
 11
1202.480402222466
 21
41.500000000010452
 31
0.0
  0
LINE
  5
BAF
  8
0
 10
1272.1512495769341
 20
-35.040918148749817
 30
0.0
 11
1268.4220969314019
 21
-41.499999999989988
 31
0.0
  0
LINE
  5
BB0
  8
0
 10
1272.1512495769341
 20
35.040918148770281
 30
0.0
 11
1268.4220969314019
 21
41.500000000010452
 31
0.0
  0
LINE
  5
BB1
  8
0
 10
1272.1512495769341
 20
-35.040918148749817
 30
0.0
 11
1272.1512495769341
 21
35.040918148770281
 31
0.0
  0
LINE
  5
BDF
  8
AM_0_T3
 10
1268.4220969314019
 20
41.500000000010452
 30
0.0
 11
1268.4220969314019
 21
-41.499999999990671
 31
0.0
  0
LINE
  5
E53
  8
0
 10
1215.201249576935
 20
-41.499999999989988
 30
0.0
 11
1215.201249576935
 21
41.500000000010232
 31
0.0
  0
LINE
  5
E54
  8
0
 10
1210.7012495769361
 20
-41.499999999989988
 30
0.0
 11
1210.7012495769361
 21
41.500000000010232
 31
0.0
  0
LINE
  5
F78
  8
0
 10
1265.4512495769341
 20
41.500000000010452
 30
0.0
 11
1265.4512495769341
 21
-41.499999999989988
 31
0.0
  0
LINE
  5
F79
  8
0
 10
1205.451249576935
 20
41.500000000010452
 30
0.0
 11
1205.451249576935
 21
-41.499999999989988
 31
0.0
  0
LINE
  5
101D
  8
0
 10
2257.4512505769449
 20
-27.999999999991129
 30
0.0
 11
2244.201249576935
 21
-27.99999999999136
 31
0.0
  0
LINE
  5
101E
  8
0
 10
2257.4512505769449
 20
28.00000000000864
 30
0.0
 11
2244.201249576935
 21
28.000000000008871
 31
0.0
  0
LINE
  5
101F
  8
0
 10
2257.4512505769449
 20
-27.999999999991129
 30
0.0
 11
2257.4512505769449
 21
28.00000000000864
 31
0.0
  0
LINE
  5
10DF
  8
0
 10
2232.6984734537718
 20
60.500000000007049
 30
0.0
 11
2240.2040276537718
 21
60.500000000007049
 31
0.0
  0
LINE
  5
10E0
  8
0
 10
2240.2040254537719
 20
60.500002000006809
 30
0.0
 11
2243.9568025537719
 21
54.000001000006932
 31
0.0
  0
LINE
  5
10E1
  8
0
 10
2243.9568048537722
 20
54.000001000006932
 30
0.0
 11
2240.2040277537722
 21
47.500001000006932
 31
0.0
  0
LINE
  5
10E2
  8
0
 10
2240.2040276537718
 20
47.500000000007049
 30
0.0
 11
2232.6984734537718
 21
47.500000000007049
 31
0.0
  0
LINE
  5
10E3
  8
0
 10
2228.9456952537721
 20
54.000001000006932
 30
0.0
 11
2232.6984723537721
 21
47.500001000006932
 31
0.0
  0
LINE
  5
10E4
  8
0
 10
2232.6984713537722
 20
60.500003000007148
 30
0.0
 11
2228.9456942537722
 21
54.000003000007162
 31
0.0
  0
LINE
  5
10E5
  8
0
 10
2240.204026653772
 20
-60.499999999992951
 30
0.0
 11
2232.698472453772
 21
-60.499999999992951
 31
0.0
  0
LINE
  5
10E6
  8
0
 10
2232.6984746537719
 20
-60.500001999992953
 30
0.0
 11
2228.9456975537719
 21
-54.000000999993063
 31
0.0
  0
LINE
  5
10E7
  8
0
 10
2228.9456952537721
 20
-54.000000999993063
 30
0.0
 11
2232.6984723537721
 21
-47.500000999992828
 31
0.0
  0
LINE
  5
10E8
  8
0
 10
2243.9568048537722
 20
-54.000000999993063
 30
0.0
 11
2240.2040277537722
 21
-47.500000999992828
 31
0.0
  0
LINE
  5
10E9
  8
0
 10
2240.204028753772
 20
-60.500002999993058
 30
0.0
 11
2243.956805853772
 21
-54.00000299999305
 31
0.0
  0
LINE
  5
10EA
  8
0
 10
2232.698472453772
 20
-47.499999999992951
 30
0.0
 11
2240.204026653772
 21
-47.499999999992951
 31
0.0
  0
LINE
  5
10EB
  8
0
  6
CENTER
 10
2226.4512500537721
 20
-53.999999999992951
 30
0.0
 11
2246.4512500537721
 21
-53.999999999992951
 31
0.0
  0
LINE
  5
10EC
  8
0
  6
CENTER
 10
2236.4512505306088
 20
-63.999999999992951
 30
0.0
 11
2236.4512505306088
 21
-43.999999999992951
 31
0.0
  0
LINE
  5
10ED
  8
0
  6
CENTER
 10
2226.4512490537718
 20
54.000000000007049
 30
0.0
 11
2246.4512490537718
 21
54.000000000007049
 31
0.0
  0
LINE
  5
10EF
  8
0
  6
CENTER
 10
2236.451249576935
 20
44.000000000007041
 30
0.0
 11
2236.451249576935
 21
64.000000000007049
 31
0.0
  0
LINE
  5
10F0
  8
0
 10
2244.201249576935
 20
-37.630605894663631
 30
0.0
 11
2244.201249576935
 21
37.630605894677267
 31
0.0
  0
LINE
  5
10F1
  8
0
 10
2228.701249576935
 20
-37.630605894663631
 30
0.0
 11
2228.701249576935
 21
37.630605894677267
 31
0.0
  0
LINE
  5
10F4
  8
0
 10
2231.6130114510638
 20
-48.941200553743549
 30
0.0
 11
2231.6130114510638
 21
48.941200553757653
 31
0.0
  0
ARC
  5
10F5
  8
0
 10
2236.451249576935
 20
54.000000000007049
 30
0.0
 40
7.0
 50
313.72333522200591
 51
351.78676740868173
  0
ARC
  5
10F6
  8
0
 10
2236.451249576935
 20
54.000000000007049
 30
0.0
 40
7.0
 50
8.2132124140934302
 51
51.786784583412171
  0
ARC
  5
10F7
  8
0
 10
2236.451249576935
 20
54.000000000007049
 30
0.0
 40
7.0
 50
68.213210701727036
 51
111.78678929827289
  0
ARC
  5
10F8
  8
0
 10
2236.451249576935
 20
54.000000000007049
 30
0.0
 40
7.0
 50
128.21327295117129
 51
171.78672241755919
  0
ARC
  5
10F9
  8
0
 10
2236.451249576935
 20
54.000000000007049
 30
0.0
 40
7.0
 50
188.2132143774453
 51
226.2766589223601
  0
LINE
  5
10FA
  8
0
 10
2241.2894974274741
 20
-48.941209854439649
 30
0.0
 11
2241.2894871857952
 21
48.941200059289031
 31
0.0
  0
LINE
  5
10FB
  8
0
 10
2231.6130114510638
 20
43.221088602678947
 30
0.0
 11
2241.289487784305
 21
43.221088602678947
 31
0.0
  0
LINE
  5
10FC
  8
0
 10
2228.701249576935
 20
37.630605894677267
 30
0.0
 11
2231.6130114510638
 21
45.651533380606672
 31
0.0
  0
LINE
  5
10FD
  8
0
 10
2244.201249576935
 20
37.630605894677267
 30
0.0
 11
2241.2894877028052
 21
45.651533380606672
 31
0.0
  0
ARC
  5
10FE
  8
0
 10
2236.451249576935
 20
-53.999999999992951
 30
0.0
 40
7.0
 50
133.7233410776397
 51
171.78678562255459
  0
ARC
  5
10FF
  8
0
 10
2236.451249576935
 20
-53.999999999992951
 30
0.0
 40
7.0
 50
188.2131942002481
 51
231.7868027972487
  0
ARC
  5
1100
  8
0
 10
2236.451249576935
 20
-53.999999999992951
 30
0.0
 40
7.0
 50
248.21321070172701
 51
291.78678929827288
  0
ARC
  5
1101
  8
0
 10
2236.451249576935
 20
-53.999999999992951
 30
0.0
 40
7.0
 50
308.21329116507093
 51
351.78670420363278
  0
ARC
  5
1102
  8
0
 10
2236.451249576935
 20
-53.999999999992951
 30
0.0
 40
7.0
 50
8.2132325913182846
 51
46.276548781003392
  0
LINE
  5
1103
  8
0
 10
2231.6130114510638
 20
-43.221088602664842
 30
0.0
 11
2241.289487784305
 21
-43.221088602664842
 31
0.0
  0
LINE
  5
1104
  8
0
 10
2228.701249576935
 20
-37.630605894663631
 30
0.0
 11
2231.6130114510638
 21
-45.651533380592582
 31
0.0
  0
LINE
  5
1105
  8
0
 10
2244.201249576935
 20
-37.630605894663631
 30
0.0
 11
2241.2894877028052
 21
-45.651533380592582
 31
0.0
  0
LINE
  5
110B
  8
0
 10
1198.751249576934
 20
-31.749999999989541
 30
0.0
 11
348.751249576936
 21
-31.749999999989541
 31
0.0
  0
LINE
  5
110C
  8
0
 10
1198.751249576934
 20
31.750000000010001
 30
0.0
 11
242.201249576934
 21
31.750000000007049
 31
0.0
  0
LINE
  5
110D
  8
0
  6
CENTER
 10
2266.9419317621669
 20
0.0000000000131877
 30
0.0
 11
203.96056739170211
 21
0.0000000000068212
 31
0.0
  0
LINE
  5
110E
  8
0
 10
213.45124857692409
 20
-27.999999999991129
 30
0.0
 11
226.701249576934
 21
-27.99999999999136
 31
0.0
  0
LINE
  5
110F
  8
0
 10
213.45124857692409
 20
28.00000000000864
 30
0.0
 11
226.70124957693361
 21
28.000000000008871
 31
0.0
  0
LINE
  5
1110
  8
0
 10
213.45124857692409
 20
-27.999999999991129
 30
0.0
 11
213.45124857692409
 21
28.00000000000864
 31
0.0
  0
LINE
  5
1111
  8
0
 10
238.20402570009671
 20
60.500000000007049
 30
0.0
 11
230.6984715000967
 21
60.500000000007049
 31
0.0
  0
LINE
  5
1112
  8
0
 10
230.6984737000966
 20
60.500002000006809
 30
0.0
 11
226.9456966000966
 21
54.000001000006932
 31
0.0
  0
LINE
  5
1113
  8
0
 10
226.94569430009679
 20
54.000001000006932
 30
0.0
 11
230.69847140009679
 21
47.500001000006932
 31
0.0
  0
LINE
  5
1114
  8
0
 10
230.6984715000967
 20
47.500000000007049
 30
0.0
 11
238.20402570009671
 21
47.500000000007049
 31
0.0
  0
LINE
  5
1115
  8
0
 10
241.9568039000969
 20
54.000001000006932
 30
0.0
 11
238.2040268000969
 21
47.500001000006932
 31
0.0
  0
LINE
  5
1116
  8
0
 10
238.2040278000967
 20
60.500003000007148
 30
0.0
 11
241.95680490009681
 21
54.000003000007162
 31
0.0
  0
LINE
  5
1117
  8
0
 10
230.69847250009661
 20
-60.499999999992951
 30
0.0
 11
238.20402670009659
 21
-60.499999999992951
 31
0.0
  0
LINE
  5
1118
  8
0
 10
238.20402450009669
 20
-60.500001999992953
 30
0.0
 11
241.9568016000967
 21
-54.000000999993063
 31
0.0
  0
LINE
  5
1119
  8
0
 10
241.9568039000969
 20
-54.000000999993063
 30
0.0
 11
238.2040268000969
 21
-47.500000999992828
 31
0.0
  0
LINE
  5
111A
  8
0
 10
226.94569430009679
 20
-54.000000999993063
 30
0.0
 11
230.69847140009679
 21
-47.500000999992828
 31
0.0
  0
LINE
  5
111B
  8
0
 10
230.69847040009651
 20
-60.500002999993058
 30
0.0
 11
226.94569330009651
 21
-54.00000299999305
 31
0.0
  0
LINE
  5
111C
  8
0
 10
238.20402670009659
 20
-47.499999999992951
 30
0.0
 11
230.69847250009661
 21
-47.499999999992951
 31
0.0
  0
LINE
  5
111D
  8
0
  6
CENTER
 10
244.4512491000969
 20
-53.999999999992951
 30
0.0
 11
224.4512491000969
 21
-53.999999999992951
 31
0.0
  0
LINE
  5
111E
  8
0
  6
CENTER
 10
234.45124862325969
 20
-63.999999999992951
 30
0.0
 11
234.45124862325969
 21
-43.999999999992951
 31
0.0
  0
LINE
  5
111F
  8
0
  6
CENTER
 10
244.4512501000967
 20
54.000000000007049
 30
0.0
 11
224.45125010009679
 21
54.000000000007049
 31
0.0
  0
LINE
  5
1121
  8
0
  6
CENTER
 10
234.451249576934
 20
44.000000000007041
 30
0.0
 11
234.451249576934
 21
64.000000000007049
 31
0.0
  0
LINE
  5
1122
  8
0
 10
226.701249576934
 20
-37.630605894663631
 30
0.0
 11
226.701249576934
 21
37.630605894677267
 31
0.0
  0
LINE
  5
1123
  8
0
 10
242.201249576934
 20
-37.630605894663631
 30
0.0
 11
242.201249576934
 21
37.630605894677267
 31
0.0
  0
LINE
  5
1124
  8
0
 10
239.28948770280471
 20
-48.941200553743549
 30
0.0
 11
239.28948770280471
 21
48.941200553757653
 31
0.0
  0
ARC
  5
1125
  8
0
 10
234.451249576934
 20
54.000000000007049
 30
0.0
 40
7.0
 50
188.21323259131819
 51
226.27666477798499
  0
ARC
  5
1126
  8
0
 10
234.451249576934
 20
54.000000000007049
 30
0.0
 40
7.0
 50
128.21321541658779
 51
171.7867875859065
  0
ARC
  5
1127
  8
0
 10
234.451249576934
 20
54.000000000007049
 30
0.0
 40
7.0
 50
68.213210701756054
 51
111.7867892982439
  0
ARC
  5
1128
  8
0
 10
234.451249576934
 20
54.000000000007049
 30
0.0
 40
7.0
 50
8.2132775824407336
 51
51.786727048836681
  0
ARC
  5
1129
  8
0
 10
234.451249576934
 20
54.000000000007049
 30
0.0
 40
7.0
 50
313.7233410776397
 51
351.78678562255459
  0
LINE
  5
112A
  8
0
 10
229.6130017263944
 20
-48.941209854439649
 30
0.0
 11
229.61301196807369
 21
48.941200059289031
 31
0.0
  0
LINE
  5
112B
  8
0
 10
239.28948770280471
 20
43.221088602678947
 30
0.0
 11
229.61301136956439
 21
43.221088602678947
 31
0.0
  0
LINE
  5
112C
  8
0
 10
242.201249576934
 20
37.630605894677267
 30
0.0
 11
239.28948770280471
 21
45.651533380606672
 31
0.0
  0
LINE
  5
112D
  8
0
 10
226.701249576934
 20
37.630605894677267
 30
0.0
 11
229.61301145106381
 21
45.651533380606672
 31
0.0
  0
ARC
  5
112E
  8
0
 10
234.451249576934
 20
-53.999999999992951
 30
0.0
 40
7.0
 50
8.2132143774453592
 51
46.27665892236022
  0
ARC
  5
112F
  8
0
 10
234.451249576934
 20
-53.999999999992951
 30
0.0
 40
7.0
 50
308.21319720275119
 51
351.78680579975179
  0
ARC
  5
1130
  8
0
 10
234.451249576934
 20
-53.999999999992951
 30
0.0
 40
7.0
 50
248.213210701756
 51
291.78678929824389
  0
ARC
  5
1131
  8
0
 10
234.451249576934
 20
-53.999999999992951
 30
0.0
 40
7.0
 50
188.21329579636711
 51
231.78670883492899
  0
ARC
  5
1132
  8
0
 10
234.451249576934
 20
-53.999999999992951
 30
0.0
 40
7.0
 50
133.72345121900551
 51
171.7867674086817
  0
LINE
  5
1133
  8
0
 10
239.28948770280471
 20
-43.221088602664842
 30
0.0
 11
229.61301136956439
 21
-43.221088602664842
 31
0.0
  0
LINE
  5
1134
  8
0
 10
242.201249576934
 20
-37.630605894663631
 30
0.0
 11
239.28948770280471
 21
-45.651533380592582
 31
0.0
  0
LINE
  5
1135
  8
0
 10
226.701249576934
 20
-37.630605894663631
 30
0.0
 11
229.61301145106381
 21
-45.651533380592582
 31
0.0
  0
LINE
  5
1139
  8
0
 10
1202.480402222466
 20
370.17147954932801
 30
0.0
 11
1268.4220969314019
 21
370.17147954932801
 31
0.0
  0
LINE
  5
113A
  8
0
 10
1198.751249576934
 20
376.63056140056818
 30
0.0
 11
1202.480402222466
 21
370.17147954932801
 31
0.0
  0
LINE
  5
113B
  8
0
 10
1272.1512495769341
 20
379.92147954932852
 30
0.0
 11
2084.065854651521
 21
379.92147954932852
 31
0.0
  0
LINE
  5
113C
  8
0
 10
1205.451249576935
 20
453.17147954932852
 30
0.0
 11
1205.451249576935
 21
370.17147954932801
 31
0.0
  0
LINE
  5
113D
  8
0
 10
1265.4512495769341
 20
453.17147954932852
 30
0.0
 11
1265.4512495769341
 21
370.17147954932801
 31
0.0
  0
LINE
  5
113E
  8
0
 10
1255.7012495769361
 20
370.17147954932801
 30
0.0
 11
1255.7012495769361
 21
453.17147954932813
 31
0.0
  0
LINE
  5
113F
  8
0
 10
1260.201249576935
 20
370.17147954932801
 30
0.0
 11
1260.201249576935
 21
453.17147954932852
 31
0.0
  0
LINE
  5
1140
  8
0
 10
1246.701249576935
 20
370.17147954932801
 30
0.0
 11
1246.7012495769361
 21
453.17147954932813
 31
0.0
  0
LINE
  5
1141
  8
0
 10
1251.2012495769361
 20
370.17147954932801
 30
0.0
 11
1251.2012495769361
 21
453.17147954932852
 31
0.0
  0
LINE
  5
1142
  8
0
 10
1219.701249576935
 20
370.17147954932801
 30
0.0
 11
1219.701249576935
 21
453.17147954932813
 31
0.0
  0
LINE
  5
1143
  8
0
 10
1215.201249576935
 20
370.17147954932801
 30
0.0
 11
1215.201249576935
 21
453.17147954932813
 31
0.0
  0
LINE
  5
1144
  8
0
 10
1210.7012495769361
 20
370.17147954932801
 30
0.0
 11
1210.7012495769361
 21
453.17147954932813
 31
0.0
  0
LINE
  5
1145
  8
0
 10
1224.201249576935
 20
370.17147954932801
 30
0.0
 11
1224.201249576935
 21
453.17147954932852
 31
0.0
  0
LINE
  5
1146
  8
0
 10
1228.7012495769361
 20
370.17147954932801
 30
0.0
 11
1228.7012495769361
 21
453.17147954932813
 31
0.0
  0
LINE
  5
1147
  8
0
 10
1233.201249576935
 20
370.17147954932801
 30
0.0
 11
1233.201249576935
 21
453.17147954932852
 31
0.0
  0
LINE
  5
1148
  8
0
 10
1237.701249576935
 20
370.17147954932801
 30
0.0
 11
1237.701249576935
 21
453.17147954932813
 31
0.0
  0
LINE
  5
1149
  8
0
 10
1242.201249576935
 20
370.17147954932801
 30
0.0
 11
1242.2012495769341
 21
453.17147954932852
 31
0.0
  0
LINE
  5
114A
  8
0
 10
1198.751249576934
 20
446.7123976980883
 30
0.0
 11
1202.480402222466
 21
453.17147954932852
 31
0.0
  0
LINE
  5
114B
  8
0
 10
1198.751249576934
 20
376.63056140056818
 30
0.0
 11
1198.751249576934
 21
446.7123976980883
 31
0.0
  0
LINE
  5
114C
  8
0
 10
1202.480402222466
 20
453.17147954932852
 30
0.0
 11
1268.4220969314019
 21
453.17147954932852
 31
0.0
  0
LINE
  5
114D
  8
0
 10
1272.1512495769341
 20
443.42147954932801
 30
0.0
 11
2084.0658546515169
 21
443.42147954932568
 31
0.0
  0
LINE
  5
114E
  8
0
 10
1202.480402222466
 20
370.17147954932892
 30
0.0
 11
1202.480402222466
 21
453.17147954932852
 31
0.0
  0
LINE
  5
114F
  8
0
 10
1272.1512495769341
 20
376.63056140056818
 30
0.0
 11
1268.4220969314019
 21
370.17147954932801
 31
0.0
  0
LINE
  5
1150
  8
0
 10
1272.1512495769341
 20
446.7123976980883
 30
0.0
 11
1268.4220969314019
 21
453.17147954932852
 31
0.0
  0
LINE
  5
1151
  8
0
 10
1272.1512495769341
 20
376.63056140056818
 30
0.0
 11
1272.1512495769341
 21
446.7123976980883
 31
0.0
  0
LINE
  5
1152
  8
AM_0_T3
 10
1268.4220969314019
 20
453.17147954932852
 30
0.0
 11
1268.4220969314019
 21
370.1714795493271
 31
0.0
  0
LINE
  5
1153
  8
0
 10
2257.4512505769449
 20
383.6714795493271
 30
0.0
 11
2244.201249576935
 21
383.67147954932659
 31
0.0
  0
LINE
  5
1154
  8
0
 10
2257.4512505769449
 20
439.6714795493267
 30
0.0
 11
2244.201249576935
 21
439.6714795493271
 31
0.0
  0
LINE
  5
1155
  8
0
 10
2257.4512505769449
 20
383.6714795493271
 30
0.0
 11
2257.4512505769449
 21
439.6714795493267
 31
0.0
  0
LINE
  5
1167
  8
0
 10
2244.201249576935
 20
373.92147954931801
 30
0.0
 11
2244.201249576935
 21
449.4214795493321
 31
0.0
  0
LINE
  5
1168
  8
0
 10
2228.701249576935
 20
373.92147954931761
 30
0.0
 11
2228.701249576935
 21
449.4214795493321
 31
0.0
  0
LINE
  5
1169
  8
0
 10
2231.6130114510638
 20
365.92147954931852
 30
0.0
 11
2231.6130114510638
 21
391.33820987085841
 31
0.0
  0
LINE
  5
116F
  8
0
 10
2241.2894970935699
 20
365.92147954931852
 30
0.0
 11
2241.2894944341551
 21
391.338211522027
 31
0.0
  0
LINE
  5
117B
  8
0
 10
1198.751249576934
 20
379.92147954932852
 30
0.0
 11
242.201249576934
 21
379.92147954932852
 31
0.0
  0
LINE
  5
117C
  8
0
 10
1198.751249576934
 20
443.42147954932801
 30
0.0
 11
242.201249576934
 21
443.42147954932528
 31
0.0
  0
LINE
  5
117D
  8
0
  6
CENTER
 10
2282.5999922979909
 20
411.6714795493271
 30
0.0
 11
188.30250685587899
 21
411.6714795493271
 31
0.0
  0
LINE
  5
117E
  8
0
 10
213.45124857692409
 20
383.6714795493271
 30
0.0
 11
226.701249576934
 21
383.67147954932659
 31
0.0
  0
LINE
  5
117F
  8
0
 10
213.45124857692409
 20
439.6714795493267
 30
0.0
 11
226.70124957693361
 21
439.6714795493271
 31
0.0
  0
LINE
  5
1180
  8
0
 10
213.45124857692409
 20
383.6714795493271
 30
0.0
 11
213.45124857692409
 21
439.6714795493267
 31
0.0
  0
LINE
  5
11F5
  8
AM_0_T3
 10
2228.701249576935
 20
449.4214795493321
 30
0.0
 11
2231.6130114510638
 21
457.4214795493321
 31
0.0
  0
LINE
  5
11F6
  8
AM_0_T3
 10
2244.201249576935
 20
449.4214795493321
 30
0.0
 11
2241.289487519698
 21
457.4214795493321
 31
0.0
  0
LINE
  5
1242
  8
AM_0_T3
 10
2231.6130114510638
 20
457.4214795493321
 30
0.0
 11
2241.289487519698
 21
457.4214795493321
 31
0.0
  0
LINE
  5
1246
  8
AM_0_T3
 10
2228.701249576935
 20
373.92147954931761
 30
0.0
 11
2231.6130114510638
 21
365.92147954931852
 31
0.0
  0
LINE
  5
1247
  8
AM_0_T3
 10
2244.201249576935
 20
373.92147954931801
 30
0.0
 11
2241.289487519698
 21
365.92147954931852
 31
0.0
  0
LINE
  5
1248
  8
AM_0_T3
 10
2231.6130114510638
 20
365.92147954931852
 30
0.0
 11
2241.2894970935699
 21
365.92147954931852
 31
0.0
  0
LINE
  5
1264
  8
0
 10
2243.4512490537718
 20
396.67147954933171
 30
0.0
 11
2243.4512490537718
 21
408.67147954933171
 31
0.0
  0
LINE
  5
1265
  8
0
 10
2243.4512490537718
 20
408.67147954933171
 30
0.0
 11
2229.4512490537709
 21
408.67147954933171
 31
0.0
  0
LINE
  5
1266
  8
0
 10
2243.4512490537718
 20
426.67147954933159
 30
0.0
 11
2243.4512490537718
 21
414.67147954933159
 31
0.0
  0
LINE
  5
1267
  8
0
 10
2243.4512490537718
 20
414.67147954933159
 30
0.0
 11
2229.4512490537718
 21
414.67147954933159
 31
0.0
  0
LINE
  5
1268
  8
0
 10
2240.4512490537718
 20
414.67147954933159
 30
0.0
 11
2240.4512490537718
 21
408.67147954933171
 31
0.0
  0
LINE
  5
1269
  8
0
 10
2232.4512490537718
 20
414.67147954933159
 30
0.0
 11
2232.4512490537718
 21
408.67147954933171
 31
0.0
  0
LINE
  5
126A
  8
0
 10
2243.4512490537718
 20
426.67147954933159
 30
0.0
 11
2229.4512490537718
 21
426.6714795493321
 31
0.0
  0
LINE
  5
126B
  8
0
 10
2232.4512490537718
 20
440.67147954933171
 30
0.0
 11
2232.4512490537718
 21
435.17147954933159
 31
0.0
  0
LINE
  5
126C
  8
0
 10
2231.4512490537718
 20
435.17147954933159
 30
0.0
 11
2241.4512490537718
 21
435.17147954933159
 31
0.0
  0
LINE
  5
126D
  8
0
 10
2232.4512490537718
 20
440.67147954933171
 30
0.0
 11
2240.4512490537718
 21
440.67147954933171
 31
0.0
  0
LINE
  5
126E
  8
0
 10
2230.4512490537718
 20
434.17147954933171
 30
0.0
 11
2230.4512490537718
 21
433.17147954933171
 31
0.0
  0
LINE
  5
126F
  8
0
 10
2242.4512490537718
 20
434.17147954933171
 30
0.0
 11
2242.4512490537718
 21
433.17147954933171
 31
0.0
  0
LINE
  5
1271
  8
0
 10
2242.9512490537718
 20
433.17147954933171
 30
0.0
 11
2229.9512490537718
 21
433.17147954933171
 31
0.0
  0
LINE
  5
1272
  8
0
 10
2242.9512490537718
 20
433.17147954933171
 30
0.0
 11
2242.9512490537718
 21
426.67147954933159
 31
0.0
  0
LINE
  5
1273
  8
0
 10
2229.9512490537718
 20
433.17147954933171
 30
0.0
 11
2229.9512490537718
 21
426.67147954933159
 31
0.0
  0
LINE
  5
1274
  8
0
 10
2240.4512490537718
 20
440.67147954933171
 30
0.0
 11
2240.4512490537718
 21
435.17147954933159
 31
0.0
  0
LINE
  5
1275
  8
0
  6
CENTER
 10
2236.4512490537718
 20
442.32281454933172
 30
0.0
 11
2236.4512490537718
 21
385.28296454933201
 31
0.0
  0
LINE
  5
1277
  8
0
 10
2233.2012490537718
 20
391.17147954933171
 30
0.0
 11
2239.7012490537718
 21
391.17147954933171
 31
0.0
  0
LINE
  5
1278
  8
0
 10
2229.9512490537718
 20
391.8963735493316
 30
0.0
 11
2229.9512490537718
 21
396.67147954933171
 31
0.0
  0
LINE
  5
1279
  8
0
 10
2242.9512490537718
 20
391.8963735493316
 30
0.0
 11
2242.9512490537718
 21
396.67147954933171
 31
0.0
  0
LINE
  5
127A
  8
0
 10
2229.4512490537718
 20
396.67147954933171
 30
0.0
 11
2243.4512490537718
 21
396.67147954933171
 31
0.0
  0
ARC
  5
127B
  8
0
 10
2231.4512490537718
 20
434.17147954933171
 30
0.0
 40
1.0
 50
89.999989999998988
 51
179.99999599996829
  0
ARC
  5
127C
  8
0
 10
2241.4512490537718
 20
434.17147954933171
 30
0.0
 40
1.0
 50
0.0
 51
90.000005008937407
  0
ARC
  5
127D
  8
0
 10
2239.7012490537718
 20
425.52348454933178
 30
0.0
 40
7.647994999999999
 50
64.852630000041799
 51
115.1473750000129
  0
ARC
  5
127E
  8
0
 10
2233.2012490537718
 20
425.52348454933178
 30
0.0
 40
7.647994999999999
 50
64.852630000041799
 51
115.147367999998
  0
ARC
  5
127F
  8
0
 10
2239.7012490537718
 20
434.31947454933191
 30
0.0
 40
7.647994999999999
 50
244.85263000004181
 51
295.14736999995807
  0
ARC
  5
1280
  8
0
 10
2233.2012490537718
 20
434.31947454933191
 30
0.0
 40
7.647994999999999
 50
244.85263000004181
 51
295.14736999995807
  0
ARC
  5
1281
  8
0
 10
2233.2012490537718
 20
398.81947454933203
 30
0.0
 40
7.6479945000000011
 50
244.85263000004181
 51
295.14736999995807
  0
ARC
  5
1282
  8
0
 10
2239.7012490537718
 20
398.81947454933203
 30
0.0
 40
7.6479945000000011
 50
244.85263000004181
 51
295.14736999995807
  0
LINE
  5
1283
  8
0
 10
2229.4512490537718
 20
396.67147954933171
 30
0.0
 11
2229.4512490537709
 21
408.67147954933171
 31
0.0
  0
LINE
  5
1284
  8
0
 10
2229.4512490537718
 20
426.6714795493321
 30
0.0
 11
2229.4512490537718
 21
414.67147954933159
 31
0.0
  0
LINE
  5
1287
  8
0
 10
2241.2894898477712
 20
435.1714795493312
 30
0.0
 11
2241.289487519698
 21
457.4214795493321
 31
0.0
  0
LINE
  5
1288
  8
0
 10
2231.6130114510638
 20
435.1714795493312
 30
0.0
 11
2231.6130114510638
 21
457.4214795493321
 31
0.0
  0
LINE
  5
1396
  8
0
  6
CENTER
 10
2146.4512495769341
 20
313.6714795493312
 30
0.0
 11
2146.451249576935
 21
509.6714795493312
 31
0.0
  0
LINE
  5
1399
  8
0
  6
CENTER
 10
2169.78577335609
 20
388.33695577017528
 30
0.0
 11
2197.3629378223659
 21
360.75979130389982
 31
0.0
  0
LINE
  5
139A
  8
0
  6
CENTER
 10
2169.78577335609
 20
435.00600332848711
 30
0.0
 11
2197.3629378223659
 21
462.58316779476257
 31
0.0
  0
LINE
  5
139E
  8
0
  6
CENTER
 10
2123.1167257977791
 20
388.33695577017528
 30
0.0
 11
2095.5395613315031
 21
360.75979130389982
 31
0.0
  0
LINE
  5
13A1
  8
0
  6
CENTER
 10
2123.1167257977791
 20
435.00600332848711
 30
0.0
 11
2095.5395613315031
 21
462.58316779476257
 31
0.0
  0
LINE
  5
13B4
  8
0
 10
348.75124957693509
 20
-78.999999999996817
 30
0.0
 11
348.751249576936
 21
-31.749999999986809
 31
0.0
  0
ARC
  5
13B7
  8
AM_0_T3
 10
324.45124957693582
 20
-52.184590771508958
 30
0.0
 40
31.749999999993499
 50
40.061474850804892
 51
139.9385251491951
  0
LINE
  5
13B9
  8
0
 10
2170.7512495769338
 20
31.750000000007269
 30
0.0
 11
2228.701249576935
 21
31.750000000007049
 31
0.0
  0
LINE
  5
13BA
  8
0
 10
254.4512495769354
 20
-78.999999999997272
 30
0.0
 11
394.45124957693542
 21
-78.999999999997272
 31
0.0
  0
LINE
  5
13BB
  8
0
 10
394.45124957693491
 20
-94.999999999997286
 30
0.0
 11
254.45124957693491
 21
-94.999999999997286
 31
0.0
  0
LINE
  5
13BC
  8
0
 10
394.45124957693542
 20
-78.999999999997272
 30
0.0
 11
394.45124957693491
 21
-94.999999999997286
 31
0.0
  0
LINE
  5
13BF
  8
0
  6
CENTER
 10
376.95124957693542
 20
-102.9999999999972
 30
0.0
 11
376.95124957693542
 21
-68.999999999997272
 31
0.0
  0
LINE
  5
13C0
  8
0
  6
CENTER
 10
324.45124957693542
 20
-104.9999999999972
 30
0.0
 11
324.45124957693542
 21
0.0000000000075033
 31
0.0
  0
LINE
  5
13C2
  8
0
 10
300.15124957693519
 20
-78.999999999996817
 30
0.0
 11
300.15124957693519
 21
-31.749999999986809
 31
0.0
  0
LINE
  5
13C3
  8
0
  6
CENTER
 10
271.95124957693542
 20
-102.9999999999972
 30
0.0
 11
271.95124957693542
 21
-68.999999999997272
 31
0.0
  0
LINE
  5
13C4
  8
0
 10
254.45124957693491
 20
-94.999999999997286
 30
0.0
 11
254.4512495769354
 21
-78.999999999997272
 31
0.0
  0
LINE
  5
13D0
  8
0
 10
2122.1512495769339
 20
79.00000000001728
 30
0.0
 11
2122.151249576933
 21
31.750000000007269
 31
0.0
  0
ARC
  5
13D1
  8
AM_0_T3
 10
2146.4512495769332
 20
52.184590771529422
 30
0.0
 40
31.749999999993499
 50
220.0614748508232
 51
319.93852514917671
  0
LINE
  5
13D2
  8
0
 10
2216.4512495769332
 20
79.000000000017735
 30
0.0
 11
2076.4512495769341
 21
79.000000000017735
 31
0.0
  0
LINE
  5
13D3
  8
0
 10
2076.4512495769341
 20
95.000000000017735
 30
0.0
 11
2216.4512495769341
 21
95.000000000017735
 31
0.0
  0
LINE
  5
13D4
  8
0
 10
2076.4512495769341
 20
79.000000000017735
 30
0.0
 11
2076.4512495769341
 21
95.000000000017735
 31
0.0
  0
LINE
  5
13D5
  8
0
  6
CENTER
 10
2093.9512495769341
 20
103.00000000001771
 30
0.0
 11
2093.9512495769341
 21
69.000000000017735
 31
0.0
  0
LINE
  5
13D6
  8
0
  6
CENTER
 10
2146.4512495769341
 20
105.00000000001771
 30
0.0
 11
2146.4512495769341
 21
0.0000000000129603
 31
0.0
  0
LINE
  5
13D7
  8
0
 10
2170.7512495769338
 20
79.00000000001728
 30
0.0
 11
2170.7512495769338
 21
31.750000000007269
 31
0.0
  0
LINE
  5
13D8
  8
0
  6
CENTER
 10
2198.9512495769332
 20
103.00000000001771
 30
0.0
 11
2198.9512495769332
 21
69.000000000017735
 31
0.0
  0
LINE
  5
13D9
  8
0
 10
2216.4512495769341
 20
95.000000000017735
 30
0.0
 11
2216.4512495769332
 21
79.000000000017735
 31
0.0
  0
LINE
  5
13DA
  8
0
 10
300.15124957693342
 20
-31.749999999989541
 30
0.0
 11
242.201249576934
 21
-31.749999999989541
 31
0.0
  0
LINE
  5
13ED
  8
0
  6
CENTER
 10
324.45124957693452
 20
313.6714795493312
 30
0.0
 11
324.451249576934
 21
509.6714795493312
 31
0.0
  0
LINE
  5
13EE
  8
0
  6
CENTER
 10
301.11672579777809
 20
388.33695577017528
 30
0.0
 11
273.53956133150263
 21
360.75979130389982
 31
0.0
  0
LINE
  5
13EF
  8
0
  6
CENTER
 10
301.11672579777809
 20
435.00600332848711
 30
0.0
 11
273.53956133150263
 21
462.58316779476257
 31
0.0
  0
LINE
  5
13F0
  8
0
  6
CENTER
 10
347.78577335608992
 20
388.33695577017528
 30
0.0
 11
375.36293782236538
 21
360.75979130389982
 31
0.0
  0
LINE
  5
13F1
  8
0
  6
CENTER
 10
347.78577335608992
 20
435.00600332848711
 30
0.0
 11
375.36293782236538
 21
462.58316779476257
 31
0.0
  0
ARC
  5
13F2
  8
0
 10
324.451249576934
 20
411.6714795493312
 30
0.0
 40
70.0
 50
26.973055041591682
 51
153.02694495840831
  0
ARC
  5
13F3
  8
0
 10
287.32814356464041
 20
448.79458556162479
 30
0.0
 40
9.5
 50
325.55672059892589
 51
214.44327940107411
  0
ARC
  5
13F4
  8
0
 10
287.32814356464041
 20
374.54837353703761
 30
0.0
 40
9.5
 50
145.55672059898021
 51
34.443279401019772
  0
ARC
  5
13F5
  8
0
  6
CENTER
 10
324.451249576934
 20
411.6714795493312
 30
0.0
 40
52.5
 50
37.211710668492159
 51
142.7882893315078
  0
ARC
  5
13F6
  8
0
 10
361.57435558922811
 20
374.54837353703761
 30
0.0
 40
9.5
 50
145.55672059898021
 51
34.443279401019772
  0
ARC
  5
13F7
  8
0
 10
361.57435558922811
 20
448.79458556162479
 30
0.0
 40
9.5
 50
325.55672059892589
 51
214.44327940107411
  0
ARC
  5
13F9
  8
0
  6
CENTER
 10
324.451249576934
 20
411.6714795493312
 30
0.0
 40
52.5
 50
217.21171066850249
 51
322.78828933149748
  0
ARC
  5
13FA
  8
0
 10
324.451249576934
 20
411.6714795493312
 30
0.0
 40
70.0
 50
206.97305504159161
 51
333.02694495840831
  0
LINE
  5
13FB
  8
0
 10
2208.836644502353
 20
443.42147954932568
 30
0.0
 11
2228.701249576935
 21
443.42147954932528
 31
0.0
  0
LINE
  5
13FC
  8
0
 10
2208.836644502348
 20
379.92147954932852
 30
0.0
 11
2228.701249576935
 21
379.92147954932852
 31
0.0
  0
TEXT
  5
1420
  8
0
 10
805.6893448150297
 20
538.28139750376704
 30
0.0
 40
50.0
  1
2.5SX2000L-40AX1.5S
 72
     4
 11
1235.4512495769341
 21
563.28139750376704
 31
0.0
  0
LINE
  5
19EE
  8
0
 10
226.701249576934
 20
373.92147954931801
 30
0.0
 11
226.701249576934
 21
449.4214795493321
 31
0.0
  0
LINE
  5
19EF
  8
0
 10
242.201249576934
 20
373.92147954931761
 30
0.0
 11
242.201249576934
 21
449.4214795493321
 31
0.0
  0
LINE
  5
19F0
  8
0
 10
239.28948770280471
 20
365.92147954931852
 30
0.0
 11
239.28948770280471
 21
391.33820987085841
 31
0.0
  0
LINE
  5
19F1
  8
0
 10
239.28948770280471
 20
435.1714795493312
 30
0.0
 11
239.28948770280471
 21
457.4214795493321
 31
0.0
  0
LINE
  5
19F2
  8
0
 10
229.61300206029861
 20
365.92147954931852
 30
0.0
 11
229.61300471971381
 21
391.338211522027
 31
0.0
  0
LINE
  5
19F3
  8
0
 10
229.61300930609781
 20
435.1714795493312
 30
0.0
 11
229.6130116341705
 21
457.4214795493321
 31
0.0
  0
LINE
  5
19F4
  8
AM_0_T3
 10
242.201249576934
 20
449.4214795493321
 30
0.0
 11
239.28948770280471
 21
457.4214795493321
 31
0.0
  0
LINE
  5
19F5
  8
AM_0_T3
 10
226.701249576934
 20
449.4214795493321
 30
0.0
 11
229.6130116341705
 21
457.4214795493321
 31
0.0
  0
LINE
  5
19F6
  8
AM_0_T3
 10
239.28948770280471
 20
457.4214795493321
 30
0.0
 11
229.6130116341705
 21
457.4214795493321
 31
0.0
  0
LINE
  5
19F7
  8
AM_0_T3
 10
242.201249576934
 20
373.92147954931761
 30
0.0
 11
239.28948770280471
 21
365.92147954931852
 31
0.0
  0
LINE
  5
19F8
  8
AM_0_T3
 10
226.701249576934
 20
373.92147954931801
 30
0.0
 11
229.6130116341705
 21
365.92147954931852
 31
0.0
  0
LINE
  5
19F9
  8
AM_0_T3
 10
239.28948770280471
 20
365.92147954931852
 30
0.0
 11
229.61300206029861
 21
365.92147954931852
 31
0.0
  0
LINE
  5
19FA
  8
0
 10
227.4512501000967
 20
396.67147954933171
 30
0.0
 11
227.4512501000967
 21
408.67147954933171
 31
0.0
  0
LINE
  5
19FB
  8
0
 10
227.4512501000967
 20
408.67147954933171
 30
0.0
 11
241.45125010009721
 21
408.67147954933171
 31
0.0
  0
LINE
  5
19FC
  8
0
 10
227.4512501000967
 20
426.67147954933159
 30
0.0
 11
227.4512501000967
 21
414.67147954933159
 31
0.0
  0
LINE
  5
19FD
  8
0
 10
227.4512501000967
 20
414.67147954933159
 30
0.0
 11
241.45125010009679
 21
414.67147954933159
 31
0.0
  0
LINE
  5
19FE
  8
0
 10
230.4512501000967
 20
414.67147954933159
 30
0.0
 11
230.4512501000967
 21
408.67147954933171
 31
0.0
  0
LINE
  5
19FF
  8
0
 10
238.4512501000967
 20
414.67147954933159
 30
0.0
 11
238.4512501000967
 21
408.67147954933171
 31
0.0
  0
LINE
  5
1A00
  8
0
 10
227.4512501000967
 20
426.67147954933159
 30
0.0
 11
241.45125010009679
 21
426.6714795493321
 31
0.0
  0
LINE
  5
1A01
  8
0
 10
238.4512501000967
 20
440.67147954933171
 30
0.0
 11
238.4512501000967
 21
435.17147954933159
 31
0.0
  0
LINE
  5
1A02
  8
0
 10
239.45125010009679
 20
435.17147954933159
 30
0.0
 11
229.4512501000967
 21
435.17147954933159
 31
0.0
  0
LINE
  5
1A03
  8
0
 10
238.4512501000967
 20
440.67147954933171
 30
0.0
 11
230.4512501000967
 21
440.67147954933171
 31
0.0
  0
LINE
  5
1A04
  8
0
 10
240.4512501000967
 20
434.17147954933171
 30
0.0
 11
240.4512501000967
 21
433.17147954933171
 31
0.0
  0
LINE
  5
1A05
  8
0
 10
228.4512501000967
 20
434.17147954933171
 30
0.0
 11
228.4512501000967
 21
433.17147954933171
 31
0.0
  0
LINE
  5
1A06
  8
0
 10
227.9512501000967
 20
433.17147954933171
 30
0.0
 11
240.9512501000967
 21
433.17147954933171
 31
0.0
  0
LINE
  5
1A07
  8
0
 10
227.9512501000967
 20
433.17147954933171
 30
0.0
 11
227.9512501000967
 21
426.67147954933159
 31
0.0
  0
LINE
  5
1A08
  8
0
 10
240.9512501000967
 20
433.17147954933171
 30
0.0
 11
240.9512501000967
 21
426.67147954933159
 31
0.0
  0
LINE
  5
1A09
  8
0
 10
230.4512501000967
 20
440.67147954933171
 30
0.0
 11
230.4512501000967
 21
435.17147954933159
 31
0.0
  0
LINE
  5
1A0A
  8
0
  6
CENTER
 10
234.4512501000967
 20
442.32281454933172
 30
0.0
 11
234.4512501000967
 21
385.28296454933201
 31
0.0
  0
LINE
  5
1A0B
  8
0
 10
237.7012501000967
 20
391.17147954933171
 30
0.0
 11
231.20125010009679
 21
391.17147954933171
 31
0.0
  0
LINE
  5
1A0C
  8
0
 10
240.9512501000967
 20
391.8963735493316
 30
0.0
 11
240.9512501000967
 21
396.67147954933171
 31
0.0
  0
LINE
  5
1A0D
  8
0
 10
227.9512501000967
 20
391.8963735493316
 30
0.0
 11
227.9512501000967
 21
396.67147954933171
 31
0.0
  0
LINE
  5
1A0E
  8
0
 10
241.45125010009679
 20
396.67147954933171
 30
0.0
 11
227.4512501000967
 21
396.67147954933171
 31
0.0
  0
ARC
  5
1A0F
  8
0
 10
239.45125010009679
 20
434.17147954933171
 30
0.0
 40
1.0
 50
0.0000040000316687
 51
90.000010000001026
  0
ARC
  5
1A10
  8
0
 10
229.4512501000967
 20
434.17147954933171
 30
0.0
 40
1.0
 50
89.999994991062593
 51
180.0
  0
ARC
  5
1A11
  8
0
 10
231.20125010009679
 20
425.52348454933178
 30
0.0
 40
7.647994999999999
 50
64.852624999987015
 51
115.1473699999582
  0
ARC
  5
1A12
  8
0
 10
237.7012501000967
 20
425.52348454933178
 30
0.0
 40
7.647994999999999
 50
64.852632000013784
 51
115.1473699999582
  0
ARC
  5
1A13
  8
0
 10
231.20125010009679
 20
434.31947454933191
 30
0.0
 40
7.647994999999999
 50
244.85263000004181
 51
295.14736999995807
  0
ARC
  5
1A14
  8
0
 10
237.7012501000967
 20
434.31947454933191
 30
0.0
 40
7.647994999999999
 50
244.85263000004181
 51
295.14736999995807
  0
ARC
  5
1A15
  8
0
 10
237.7012501000967
 20
398.81947454933203
 30
0.0
 40
7.6479945000000011
 50
244.85263000004181
 51
295.14736999995807
  0
ARC
  5
1A16
  8
0
 10
231.20125010009679
 20
398.81947454933203
 30
0.0
 40
7.6479945000000011
 50
244.85263000004181
 51
295.14736999995807
  0
LINE
  5
1A17
  8
0
 10
241.45125010009679
 20
396.67147954933171
 30
0.0
 11
241.45125010009721
 21
408.67147954933171
 31
0.0
  0
LINE
  5
1A18
  8
0
 10
241.45125010009679
 20
426.6714795493321
 30
0.0
 11
241.45125010009679
 21
414.67147954933159
 31
0.0
  0
LINE
  5
23D3
  8
0
 10
196.55786520459921
 20
-23.870285848435511
 30
0.0
 11
196.55786520459921
 21
13.570285848449879
 31
0.0
  0
LINE
  5
23D4
  8
0
 10
191.45124957693449
 20
-30.399999999993039
 30
0.0
 11
191.45124957693449
 21
20.100000000006951
 31
0.0
  0
LINE
  5
23D5
  8
0
 10
194.30124957693391
 20
-29.59734571798958
 30
0.0
 11
194.30124957693391
 21
19.297345718003498
 31
0.0
  0
LINE
  5
23D6
  8
0
  6
CENTER
 10
188.30250685587859
 20
-5.1499999999930424
 30
0.0
 11
219.40627266781709
 21
-5.1499999999930424
 31
0.0
  0
LINE
  5
23D7
  8
0
 10
197.9582801058036
 20
13.900000000007131
 30
0.0
 11
213.4512485769246
 21
13.90000000000736
 31
0.0
  0
ARC
  5
23D8
  8
0
 10
197.9582801058036
 20
15.900000000007131
 30
0.0
 40
2.0
 50
200.0000000000181
 51
270.0
1001
GENIUS_GENOBJ-N-FIL_13
1002
{
1000
OWNER
1000
GEN
1002
}
1001
GENIUS_GENODEF_13
1002
{
1000
HIER
1070
     0
1002
}
1002
{
1000
MANEDIT
1070
     0
1002
}
1002
{
1000
NOSEL
1070
     0
1002
}
1002
{
1000
BEHIND
1070
     0
1002
}
1002
{
1000
OTHER
1070
     0
1002
}
1002
{
1000
REACTOR
1002
}
  0
LINE
  5
23D9
  8
0
 10
191.45124957693449
 20
20.100000000006951
 30
0.0
 11
193.7410835463665
 21
20.100000000006951
 31
0.0
  0
LINE
  5
23DB
  8
0
 10
194.4928376429948
 20
19.57361611466763
 30
0.0
 11
196.0788948642325
 21
15.21595971335568
 31
0.0
  0
ARC
  5
23DC
  8
0
 10
193.7410835463665
 20
19.30000000000723
 30
0.0
 40
0.8
 50
20.000000000018179
 51
90.0
1001
GENIUS_GENOBJ-N-FIL_13
1002
{
1000
OWNER
1000
GEN
1002
}
1001
GENIUS_GENODEF_13
1002
{
1000
HIER
1070
     0
1002
}
1002
{
1000
MANEDIT
1070
     0
1002
}
1002
{
1000
NOSEL
1070
     0
1002
}
1002
{
1000
BEHIND
1070
     0
1002
}
1002
{
1000
OTHER
1070
     0
1002
}
1002
{
1000
REACTOR
1002
}
  0
LINE
  5
23DD
  8
0
 10
197.9582801058036
 20
-24.199999999992759
 30
0.0
 11
213.4512485769246
 21
-24.199999999992759
 31
0.0
  0
ARC
  5
23DE
  8
0
 10
197.9582801058036
 20
-26.19999999999277
 30
0.0
 40
2.0
 50
90.0
 51
159.99999999998181
1001
GENIUS_GENOBJ-N-FIL_13
1002
{
1000
OWNER
1000
GEN
1002
}
1001
GENIUS_GENODEF_13
1002
{
1000
HIER
1070
     0
1002
}
1002
{
1000
MANEDIT
1070
     0
1002
}
1002
{
1000
NOSEL
1070
     0
1002
}
1002
{
1000
BEHIND
1070
     0
1002
}
1002
{
1000
OTHER
1070
     0
1002
}
1002
{
1000
REACTOR
1002
}
  0
LINE
  5
23DF
  8
0
 10
191.45124957693449
 20
-30.399999999993039
 30
0.0
 11
193.7410835463665
 21
-30.399999999993039
 31
0.0
  0
LINE
  5
23E0
  8
0
 10
194.4928376429948
 20
-29.87361611465326
 30
0.0
 11
196.0788948642325
 21
-25.515959713341321
 31
0.0
  0
ARC
  5
23E1
  8
0
 10
193.7410835463665
 20
-29.59999999999286
 30
0.0
 40
0.8
 50
270.0
 51
339.99999999998181
1001
GENIUS_GENOBJ-N-FIL_13
1002
{
1000
OWNER
1000
GEN
1002
}
1001
GENIUS_GENODEF_13
1002
{
1000
HIER
1070
     0
1002
}
1002
{
1000
MANEDIT
1070
     0
1002
}
1002
{
1000
NOSEL
1070
     0
1002
}
1002
{
1000
BEHIND
1070
     0
1002
}
1002
{
1000
OTHER
1070
     0
1002
}
1002
{
1000
REACTOR
1002
}
  0
LINE
  5
2462
  8
0
 10
2274.3446339492698
 20
23.870285848455978
 30
0.0
 11
2274.3446339492698
 21
-13.570285848429419
 31
0.0
  0
LINE
  5
2463
  8
0
 10
2279.451249576935
 20
30.400000000013499
 30
0.0
 11
2279.451249576935
 21
-20.09999999998649
 31
0.0
  0
LINE
  5
2464
  8
0
 10
2276.6012495769351
 20
29.59734571801004
 30
0.0
 11
2276.6012495769351
 21
-19.297345717983031
 31
0.0
  0
LINE
  5
2465
  8
0
  6
CENTER
 10
2282.5999922979909
 20
5.1500000000135051
 30
0.0
 11
2251.4962264860519
 21
5.1500000000135051
 31
0.0
  0
LINE
  5
2466
  8
0
 10
2272.944219048065
 20
-13.899999999986671
 30
0.0
 11
2257.4512505769449
 21
-13.8999999999869
 31
0.0
  0
ARC
  5
2467
  8
0
 10
2272.944219048065
 20
-15.899999999986671
 30
0.0
 40
2.0
 50
20.000000000018179
 51
90.0
1001
GENIUS_GENOBJ-N-FIL_13
1002
{
1000
OWNER
1000
GEN
1002
}
1001
GENIUS_GENODEF_13
1002
{
1000
HIER
1070
     0
1002
}
1002
{
1000
MANEDIT
1070
     0
1002
}
1002
{
1000
NOSEL
1070
     0
1002
}
1002
{
1000
BEHIND
1070
     0
1002
}
1002
{
1000
OTHER
1070
     0
1002
}
1002
{
1000
REACTOR
1002
}
  0
LINE
  5
2468
  8
0
 10
2279.451249576935
 20
-20.09999999998649
 30
0.0
 11
2277.1614156075029
 21
-20.09999999998649
 31
0.0
  0
LINE
  5
2469
  8
0
 10
2276.4096615108751
 20
-19.573616114647159
 30
0.0
 11
2274.8236042896369
 21
-15.21595971333522
 31
0.0
  0
ARC
  5
246A
  8
0
 10
2277.1614156075029
 20
-19.29999999998676
 30
0.0
 40
0.8
 50
200.0000000000181
 51
270.0
1001
GENIUS_GENOBJ-N-FIL_13
1002
{
1000
OWNER
1000
GEN
1002
}
1001
GENIUS_GENODEF_13
1002
{
1000
HIER
1070
     0
1002
}
1002
{
1000
MANEDIT
1070
     0
1002
}
1002
{
1000
NOSEL
1070
     0
1002
}
1002
{
1000
BEHIND
1070
     0
1002
}
1002
{
1000
OTHER
1070
     0
1002
}
1002
{
1000
REACTOR
1002
}
  0
LINE
  5
246B
  8
0
 10
2272.944219048065
 20
24.20000000001323
 30
0.0
 11
2257.4512505769449
 21
24.20000000001323
 31
0.0
  0
ARC
  5
246C
  8
0
 10
2272.944219048065
 20
26.20000000001323
 30
0.0
 40
2.0
 50
270.0
 51
339.99999999998181
1001
GENIUS_GENOBJ-N-FIL_13
1002
{
1000
OWNER
1000
GEN
1002
}
1001
GENIUS_GENODEF_13
1002
{
1000
HIER
1070
     0
1002
}
1002
{
1000
MANEDIT
1070
     0
1002
}
1002
{
1000
NOSEL
1070
     0
1002
}
1002
{
1000
BEHIND
1070
     0
1002
}
1002
{
1000
OTHER
1070
     0
1002
}
1002
{
1000
REACTOR
1002
}
  0
LINE
  5
246D
  8
0
 10
2279.451249576935
 20
30.400000000013499
 30
0.0
 11
2277.1614156075029
 21
30.400000000013499
 31
0.0
  0
LINE
  5
246E
  8
0
 10
2276.4096615108751
 20
29.87361611467372
 30
0.0
 11
2274.8236042896369
 21
25.515959713361781
 31
0.0
  0
ARC
  5
246F
  8
0
 10
2277.1614156075029
 20
29.600000000013321
 30
0.0
 40
0.8
 50
90.0
 51
159.99999999998181
1001
GENIUS_GENOBJ-N-FIL_13
1002
{
1000
OWNER
1000
GEN
1002
}
1001
GENIUS_GENODEF_13
1002
{
1000
HIER
1070
     0
1002
}
1002
{
1000
MANEDIT
1070
     0
1002
}
1002
{
1000
NOSEL
1070
     0
1002
}
1002
{
1000
BEHIND
1070
     0
1002
}
1002
{
1000
OTHER
1070
     0
1002
}
1002
{
1000
REACTOR
1002
}
  0
LINE
  5
2470
  8
0
 10
2274.3446339492698
 20
430.39176539776957
 30
0.0
 11
2274.3446339492698
 21
392.95119370088418
 31
0.0
  0
LINE
  5
2471
  8
0
 10
2279.451249576935
 20
436.9214795493271
 30
0.0
 11
2279.451249576935
 21
386.4214795493271
 31
0.0
  0
LINE
  5
2472
  8
0
 10
2276.6012495769351
 20
436.1188252673237
 30
0.0
 11
2276.6012495769351
 21
387.22413383133062
 31
0.0
  0
LINE
  5
2474
  8
0
 10
2272.944219048065
 20
392.62147954932692
 30
0.0
 11
2257.4512505769449
 21
392.62147954932692
 31
0.0
  0
ARC
  5
2475
  8
0
 10
2272.944219048065
 20
390.62147954932692
 30
0.0
 40
2.0
 50
20.000000000018179
 51
90.0
1001
GENIUS_GENOBJ-N-FIL_13
1002
{
1000
OWNER
1000
GEN
1002
}
1001
GENIUS_GENODEF_13
1002
{
1000
HIER
1070
     0
1002
}
1002
{
1000
MANEDIT
1070
     0
1002
}
1002
{
1000
NOSEL
1070
     0
1002
}
1002
{
1000
BEHIND
1070
     0
1002
}
1002
{
1000
OTHER
1070
     0
1002
}
1002
{
1000
REACTOR
1002
}
  0
LINE
  5
2476
  8
0
 10
2279.451249576935
 20
386.4214795493271
 30
0.0
 11
2277.1614156075029
 21
386.4214795493271
 31
0.0
  0
LINE
  5
2477
  8
0
 10
2276.4096615108751
 20
386.94786343466637
 30
0.0
 11
2274.8236042896369
 21
391.30551983597837
 31
0.0
  0
ARC
  5
2478
  8
0
 10
2277.1614156075029
 20
387.22147954932689
 30
0.0
 40
0.8
 50
200.0000000000181
 51
270.0
1001
GENIUS_GENOBJ-N-FIL_13
1002
{
1000
OWNER
1000
GEN
1002
}
1001
GENIUS_GENODEF_13
1002
{
1000
HIER
1070
     0
1002
}
1002
{
1000
MANEDIT
1070
     0
1002
}
1002
{
1000
NOSEL
1070
     0
1002
}
1002
{
1000
BEHIND
1070
     0
1002
}
1002
{
1000
OTHER
1070
     0
1002
}
1002
{
1000
REACTOR
1002
}
  0
LINE
  5
2479
  8
0
 10
2272.944219048065
 20
430.72147954932677
 30
0.0
 11
2257.4512505769449
 21
430.72147954932677
 31
0.0
  0
ARC
  5
247A
  8
0
 10
2272.944219048065
 20
432.72147954932689
 30
0.0
 40
2.0
 50
270.0
 51
339.99999999996959
1001
GENIUS_GENOBJ-N-FIL_13
1002
{
1000
OWNER
1000
GEN
1002
}
1001
GENIUS_GENODEF_13
1002
{
1000
HIER
1070
     0
1002
}
1002
{
1000
MANEDIT
1070
     0
1002
}
1002
{
1000
NOSEL
1070
     0
1002
}
1002
{
1000
BEHIND
1070
     0
1002
}
1002
{
1000
OTHER
1070
     0
1002
}
1002
{
1000
REACTOR
1002
}
  0
LINE
  5
247B
  8
0
 10
2279.451249576935
 20
436.9214795493271
 30
0.0
 11
2277.1614156075029
 21
436.9214795493271
 31
0.0
  0
LINE
  5
247C
  8
0
 10
2276.4096615108751
 20
436.39509566398732
 30
0.0
 11
2274.8236042896369
 21
432.03743926267538
 31
0.0
  0
ARC
  5
247D
  8
0
 10
2277.1614156075029
 20
436.12147954932692
 30
0.0
 40
0.8
 50
90.0
 51
159.99999999998181
1001
GENIUS_GENOBJ-N-FIL_13
1002
{
1000
OWNER
1000
GEN
1002
}
1001
GENIUS_GENODEF_13
1002
{
1000
HIER
1070
     0
1002
}
1002
{
1000
MANEDIT
1070
     0
1002
}
1002
{
1000
NOSEL
1070
     0
1002
}
1002
{
1000
BEHIND
1070
     0
1002
}
1002
{
1000
OTHER
1070
     0
1002
}
1002
{
1000
REACTOR
1002
}
  0
LINE
  5
247E
  8
0
 10
196.55786520459961
 20
430.39176539776957
 30
0.0
 11
196.55786520459961
 21
392.95119370088418
 31
0.0
  0
LINE
  5
247F
  8
0
 10
191.45124957693491
 20
436.9214795493271
 30
0.0
 11
191.45124957693491
 21
386.4214795493271
 31
0.0
  0
LINE
  5
2480
  8
0
 10
194.3012495769344
 20
436.1188252673237
 30
0.0
 11
194.3012495769344
 21
387.22413383133062
 31
0.0
  0
LINE
  5
2482
  8
0
 10
197.95828010580399
 20
392.62147954932692
 30
0.0
 11
213.45124857692511
 21
392.62147954932692
 31
0.0
  0
ARC
  5
2483
  8
0
 10
197.95828010580399
 20
390.62147954932692
 30
0.0
 40
2.0
 50
90.0
 51
159.9999999999695
1001
GENIUS_GENOBJ-N-FIL_13
1002
{
1000
OWNER
1000
GEN
1002
}
1001
GENIUS_GENODEF_13
1002
{
1000
HIER
1070
     0
1002
}
1002
{
1000
MANEDIT
1070
     0
1002
}
1002
{
1000
NOSEL
1070
     0
1002
}
1002
{
1000
BEHIND
1070
     0
1002
}
1002
{
1000
OTHER
1070
     0
1002
}
1002
{
1000
REACTOR
1002
}
  0
LINE
  5
2484
  8
0
 10
191.45124957693491
 20
386.4214795493271
 30
0.0
 11
193.74108354636701
 21
386.4214795493271
 31
0.0
  0
LINE
  5
2485
  8
0
 10
194.4928376429952
 20
386.94786343466637
 30
0.0
 11
196.07889486423301
 21
391.30551983597837
 31
0.0
  0
ARC
  5
2486
  8
0
 10
193.74108354636701
 20
387.22147954932689
 30
0.0
 40
0.8
 50
270.0
 51
339.99999999996959
1001
GENIUS_GENOBJ-N-FIL_13
1002
{
1000
OWNER
1000
GEN
1002
}
1001
GENIUS_GENODEF_13
1002
{
1000
HIER
1070
     0
1002
}
1002
{
1000
MANEDIT
1070
     0
1002
}
1002
{
1000
NOSEL
1070
     0
1002
}
1002
{
1000
BEHIND
1070
     0
1002
}
1002
{
1000
OTHER
1070
     0
1002
}
1002
{
1000
REACTOR
1002
}
  0
LINE
  5
2487
  8
0
 10
197.95828010580399
 20
430.72147954932677
 30
0.0
 11
213.45124857692511
 21
430.72147954932677
 31
0.0
  0
ARC
  5
2488
  8
0
 10
197.95828010580399
 20
432.72147954932689
 30
0.0
 40
2.0
 50
200.00000000003041
 51
270.0
1001
GENIUS_GENOBJ-N-FIL_13
1002
{
1000
OWNER
1000
GEN
1002
}
1001
GENIUS_GENODEF_13
1002
{
1000
HIER
1070
     0
1002
}
1002
{
1000
MANEDIT
1070
     0
1002
}
1002
{
1000
NOSEL
1070
     0
1002
}
1002
{
1000
BEHIND
1070
     0
1002
}
1002
{
1000
OTHER
1070
     0
1002
}
1002
{
1000
REACTOR
1002
}
  0
LINE
  5
2489
  8
0
 10
191.45124957693491
 20
436.9214795493271
 30
0.0
 11
193.74108354636701
 21
436.9214795493271
 31
0.0
  0
LINE
  5
248A
  8
0
 10
194.4928376429952
 20
436.39509566398732
 30
0.0
 11
196.07889486423301
 21
432.03743926267538
 31
0.0
  0
ARC
  5
248B
  8
0
 10
193.74108354636701
 20
436.12147954932692
 30
0.0
 40
0.8
 50
20.000000000030418
 51
90.0
1001
GENIUS_GENOBJ-N-FIL_13
1002
{
1000
OWNER
1000
GEN
1002
}
1001
GENIUS_GENODEF_13
1002
{
1000
HIER
1070
     0
1002
}
1002
{
1000
MANEDIT
1070
     0
1002
}
1002
{
1000
NOSEL
1070
     0
1002
}
1002
{
1000
BEHIND
1070
     0
1002
}
1002
{
1000
OTHER
1070
     0
1002
}
1002
{
1000
REACTOR
1002
}
  0
CIRCLE
  5
6365
  8
0
 10
2146.451249576935
 20
411.6714795493312
 30
0.0
 40
70.0
  0
CIRCLE
  5
6366
  8
0
 10
2183.5743555892282
 20
448.79458556162479
 30
0.0
 40
9.5
  0
CIRCLE
  5
6367
  8
0
 10
2183.5743555892282
 20
374.54837353703761
 30
0.0
 40
9.5
  0
CIRCLE
  5
6368
  8
0
  6
CENTER
 10
2146.451249576935
 20
411.6714795493312
 30
0.0
 40
52.5
  0
CIRCLE
  5
6369
  8
0
 10
2109.3281435646409
 20
374.54837353703761
 30
0.0
 40
9.5
  0
CIRCLE
  5
636A
  8
0
 10
2109.3281435646409
 20
448.79458556162479
 30
0.0
 40
9.5
  0
CIRCLE
  5
636B
  8
AM_0_T3
 10
2146.4512495769341
 20
411.6714795493312
 30
0.0
 40
24.299999999999731
  0
LINE
  5
6631
  8
0
 10
3.0000000000002269
 20
-61.00000000000022
 30
0.0
 11
3.0000000000006821
 21
-35.62390500000015
 31
0.0
  0
LINE
  5
6632
  8
0
 10
15.00000000000068
 20
-61.0
 30
0.0
 11
15.00000000000022
 21
-43.221088000000229
 31
0.0
  0
LINE
  5
6633
  8
0
 10
15.00000000000068
 20
-61.0
 30
0.0
 11
3.0000000000002269
 21
-61.00000000000022
 31
0.0
  0
LINE
  5
6634
  8
0
 10
-14.999999999999771
 20
-61.00000000000022
 30
0.0
 11
-15.00000000000022
 21
-43.221088000000456
 31
0.0
  0
LINE
  5
6635
  8
0
 10
-14.999999999999771
 20
-61.00000000000022
 30
0.0
 11
-2.9999999999997722
 21
-61.0
 31
0.0
  0
LINE
  5
6636
  8
0
 10
-2.9999999999997722
 20
-61.0
 30
0.0
 11
-2.9999999999997722
 21
-35.623904999999922
 31
0.0
  0
LINE
  5
6637
  8
0
 10
-3.0
 20
-58.0
 30
0.0
 11
3.0000000000004539
 21
-58.00000000000022
 31
0.0
  0
LINE
  5
6638
  8
0
 10
-3.0
 20
-50.0
 30
0.0
 11
3.0000000000004539
 21
-50.000000000000227
 31
0.0
  0
LINE
  5
6639
  8
0
 10
14.999999999999771
 20
61.0
 30
0.0
 11
2.9999999999997722
 21
60.999999999999773
 31
0.0
  0
LINE
  5
663A
  8
0
 10
2.9999999999997722
 20
60.999999999999773
 30
0.0
 11
2.9999999999997722
 21
35.623904999999688
 31
0.0
  0
LINE
  5
663B
  8
0
 10
-15.00000000000022
 20
60.999999999999773
 30
0.0
 11
-3.0000000000002269
 21
61.0
 31
0.0
  0
LINE
  5
663C
  8
0
 10
-3.0000000000002269
 20
61.0
 30
0.0
 11
-3.0000000000002269
 21
35.623904999999922
 31
0.0
  0
LINE
  5
663D
  8
0
 10
-3.0000000000002269
 20
58.0
 30
0.0
 11
2.9999999999997722
 21
57.999999999999773
 31
0.0
  0
LINE
  5
663E
  8
0
 10
-3.0
 20
50.0
 30
0.0
 11
3.0
 21
49.999999999999773
 31
0.0
  0
LINE
  5
663F
  8
0
 10
-15.00000000000022
 20
60.999999999999773
 30
0.0
 11
-15.000000000000449
 21
43.221087999999547
 31
0.0
  0
LINE
  5
6640
  8
0
 10
-29.0
 20
49.999999999999773
 30
0.0
 11
-23.5
 21
49.999999999999773
 31
0.0
  0
LINE
  5
6641
  8
0
 10
-23.5
 20
48.999999999999773
 30
0.0
 11
-23.50000000000022
 21
58.999999999999773
 31
0.0
  0
LINE
  5
6642
  8
0
 10
-29.0
 20
49.999999999999773
 30
0.0
 11
-29.000000000000231
 21
57.999999999999773
 31
0.0
  0
LINE
  5
6643
  8
0
 10
-22.5
 20
47.999999999999773
 30
0.0
 11
-21.499999999999989
 21
47.999999999999773
 31
0.0
  0
LINE
  5
6644
  8
0
 10
-22.50000000000022
 20
59.999999999999773
 30
0.0
 11
-21.500000000000231
 21
59.999999999999773
 31
0.0
  0
LINE
  5
6645
  8
0
 10
-21.500000000000231
 20
60.499999999999773
 30
0.0
 11
-21.499999999999989
 21
47.499999999999773
 31
0.0
  0
LINE
  5
6646
  8
0
 10
-21.500000000000231
 20
60.499999999999773
 30
0.0
 11
-15.00000000000022
 21
60.499999999999773
 31
0.0
  0
LINE
  5
6647
  8
0
 10
-21.499999999999989
 20
47.499999999999773
 30
0.0
 11
-15.0
 21
47.499999999999773
 31
0.0
  0
LINE
  5
6648
  8
0
 10
-29.000000000000231
 20
57.999999999999773
 30
0.0
 11
-23.50000000000022
 21
57.999999999999773
 31
0.0
  0
LINE
  5
6649
  8
0
  6
CENTER
 10
-30.651335000000241
 20
53.999999999999773
 30
0.0
 11
26.388514999999408
 21
54.0
 31
0.0
  0
LINE
  5
664A
  8
0
 10
20.500000000000451
 20
-50.75
 30
0.0
 11
20.500000000000451
 21
-57.25
 31
0.0
  0
LINE
  5
664B
  8
0
 10
19.775106000000498
 20
-47.499999999999773
 30
0.0
 11
15.000000000000449
 21
-47.5
 31
0.0
  0
LINE
  5
664C
  8
0
 10
19.775106000000729
 20
-60.499999999999773
 30
0.0
 11
15.00000000000068
 21
-60.5
 31
0.0
  0
LINE
  5
664D
  8
0
 10
-28.999999999999542
 20
-50.000000000000227
 30
0.0
 11
-23.5
 21
-50.000000000000227
 31
0.0
  0
LINE
  5
664E
  8
0
 10
-23.5
 20
-49.000000000000227
 30
0.0
 11
-23.499999999999769
 21
-59.000000000000227
 31
0.0
  0
LINE
  5
664F
  8
0
 10
-28.999999999999542
 20
-50.000000000000227
 30
0.0
 11
-28.999999999999542
 21
-58.00000000000022
 31
0.0
  0
LINE
  5
6650
  8
0
 10
-22.5
 20
-48.00000000000022
 30
0.0
 11
-21.499999999999989
 21
-48.00000000000022
 31
0.0
  0
LINE
  5
6651
  8
0
 10
-22.499999999999769
 20
-60.000000000000227
 30
0.0
 11
-21.499999999999769
 21
-60.000000000000227
 31
0.0
  0
LINE
  5
6652
  8
0
 10
-21.499999999999769
 20
-60.50000000000022
 30
0.0
 11
-21.499999999999989
 21
-47.500000000000227
 31
0.0
  0
LINE
  5
6653
  8
0
 10
-21.499999999999769
 20
-60.50000000000022
 30
0.0
 11
-14.999999999999771
 21
-60.50000000000022
 31
0.0
  0
LINE
  5
6654
  8
0
 10
-21.499999999999989
 20
-47.500000000000227
 30
0.0
 11
-15.0
 21
-47.500000000000227
 31
0.0
  0
LINE
  5
6655
  8
0
 10
-28.999999999999542
 20
-58.00000000000022
 30
0.0
 11
-23.5
 21
-58.00000000000022
 31
0.0
  0
LINE
  5
6656
  8
0
  6
CENTER
 10
-30.651334999999559
 20
-54.000000000000227
 30
0.0
 11
27.011253000000121
 21
-54.0
 31
0.0
  0
LINE
  5
6657
  8
0
 10
20.5
 20
50.75
 30
0.0
 11
20.499999999999769
 21
57.25
 31
0.0
  0
LINE
  5
6658
  8
0
 10
19.775106000000051
 20
47.500000000000227
 30
0.0
 11
15.0
 21
47.5
 31
0.0
  0
LINE
  5
6659
  8
0
 10
19.77510599999982
 20
60.50000000000022
 30
0.0
 11
14.999999999999771
 21
60.5
 31
0.0
  0
LINE
  5
665A
  8
0
 10
14.99999999999954
 20
43.221087999999781
 30
0.0
 11
14.999999999999771
 21
61.0
 31
0.0
  0
ARC
  5
665B
  8
0
 10
0.0
 20
-0.0000000000002274
 30
0.0
 40
45.75
 50
273.7597999999735
 51
90.0
  0
ARC
  5
665C
  8
0
 10
0.0
 20
-0.0000000000002274
 30
0.0
 40
35.75
 50
274.8136979999656
 51
85.186299999973102
  0
ARC
  5
665D
  8
0
 10
0.0
 20
-0.0000000000002274
 30
0.0
 40
37.75
 50
274.8136979999656
 51
90.0
  0
ARC
  5
665E
  8
0
 10
0.0
 20
-0.0000000000002274
 30
0.0
 40
35.75
 50
94.813700000026884
 51
265.18630399999182
  0
ARC
  5
665F
  8
0
 10
0.0
 20
-0.0000000000002274
 30
0.0
 40
37.75
 50
94.813700000026884
 51
265.18630399999182
  0
ARC
  5
6660
  8
0
 10
0.0
 20
-0.0000000000002274
 30
0.0
 40
45.75
 50
93.759799999973637
 51
266.24020199999478
  0
ARC
  5
6661
  8
0
 10
-22.5
 20
48.999999999999773
 30
0.0
 40
1.0
 50
179.99998999999889
 51
269.99999599996829
  0
ARC
  5
6662
  8
0
 10
-22.50000000000022
 20
58.999999999999773
 30
0.0
 40
1.0
 50
90.0
 51
180.00000500893739
  0
ARC
  5
6663
  8
0
 10
-13.85200500000041
 20
57.249999999999773
 30
0.0
 40
7.647994999999999
 50
154.8526300000417
 51
205.14737500001289
  0
ARC
  5
6664
  8
0
 10
-13.85200500000019
 20
50.749999999999773
 30
0.0
 40
7.647994999999999
 50
154.8526300000417
 51
205.14736800001529
  0
ARC
  5
6665
  8
0
 10
-22.647995000000488
 20
57.249999999999773
 30
0.0
 40
7.647994999999999
 50
334.8526300000417
 51
25.147369999958212
  0
ARC
  5
6666
  8
0
 10
-22.647995000000261
 20
50.749999999999773
 30
0.0
 40
7.647994999999999
 50
334.8526300000417
 51
25.147369999958212
  0
ARC
  5
6667
  8
0
 10
12.85200500000019
 20
-50.75
 30
0.0
 40
7.6479945000000011
 50
334.8526300000417
 51
25.147369999958212
  0
ARC
  5
6668
  8
0
 10
12.85200500000019
 20
-57.25
 30
0.0
 40
7.6479945000000011
 50
334.8526300000417
 51
25.147369999958212
  0
ARC
  5
6669
  8
0
 10
-22.5
 20
-49.000000000000227
 30
0.0
 40
1.0
 50
90.0
 51
180.00000500893739
  0
ARC
  5
666A
  8
0
 10
-22.499999999999769
 20
-59.000000000000227
 30
0.0
 40
1.0
 50
179.99998999999889
 51
269.99999599996829
  0
ARC
  5
666B
  8
0
 10
-13.85200499999973
 20
-57.25000000000022
 30
0.0
 40
7.647994999999999
 50
154.85261999999599
 51
205.1473720000175
  0
ARC
  5
666C
  8
0
 10
-13.85200499999973
 20
-50.750000000000227
 30
0.0
 40
7.647994999999999
 50
154.8526300000417
 51
205.1473720000175
  0
ARC
  5
666D
  8
0
 10
-22.647994999999799
 20
-57.25000000000022
 30
0.0
 40
7.647994999999999
 50
334.8526300000417
 51
25.147369999958212
  0
ARC
  5
666E
  8
0
 10
-22.647994999999799
 20
-50.750000000000227
 30
0.0
 40
7.647994999999999
 50
334.8526300000417
 51
25.147369999958212
  0
ARC
  5
666F
  8
0
 10
12.85200499999973
 20
50.75
 30
0.0
 40
7.6479945000000011
 50
334.8526300000417
 51
25.147369999958212
  0
ARC
  5
6670
  8
0
 10
12.852004999999499
 20
57.25
 30
0.0
 40
7.6479945000000011
 50
334.8526300000417
 51
25.147369999958212
  0
LINE
  5
6671
  8
0
  6
CENTER
 10
0.0000000000009095
 20
-103.0000000000045
 30
0.0
 11
-0.0000000000006821
 21
103.0000000000045
 31
0.0
  0
LINE
  5
6672
  8
0
  6
CENTER
 10
-61.036160705144091
 20
-0.0000000000006821
 30
0.0
 11
61.036160705143622
 21
0.0000000000004547
 31
0.0
  0
ARC
  5
6673
  8
AM_0_T3
 10
0.0
 20
-0.0000000000002274
 30
0.0
 40
27.999999999995229
 50
323.14996654720079
 51
216.85003345279901
  0
LINE
  5
6674
  8
0
 10
24.30000000000063
 20
-79.000000000004093
 30
0.0
 11
24.30000000000086
 21
-38.763030067320187
 31
0.0
  0
LINE
  5
6675
  8
0
 10
-69.999999999999091
 20
-79.000000000005457
 30
0.0
 11
70.000000000000909
 21
-79.000000000004547
 31
0.0
  0
LINE
  5
6676
  8
0
 10
70.000000000000455
 20
-95.000000000004533
 30
0.0
 11
-69.999999999999545
 21
-95.000000000005457
 31
0.0
  0
LINE
  5
6677
  8
0
 10
70.000000000000909
 20
-79.000000000004547
 30
0.0
 11
70.000000000000455
 21
-95.000000000004533
 31
0.0
  0
LINE
  5
6678
  8
0
  6
CENTER
 10
52.500000000000909
 20
-103.0000000000045
 30
0.0
 11
52.500000000000682
 21
-69.00000000000432
 31
0.0
  0
LINE
  5
6679
  8
0
 10
-24.299999999999269
 20
-79.000000000004547
 30
0.0
 11
-24.299999999999731
 21
-58.00000000000022
 31
0.0
  0
LINE
  5
667A
  8
0
 10
-24.299999999999731
 20
-50.0
 30
0.0
 11
-24.299999999999951
 21
-38.763030067320642
 31
0.0
  0
LINE
  5
667B
  8
0
  6
CENTER
 10
-52.499999999999091
 20
-103.0000000000054
 30
0.0
 11
-52.499999999999318
 21
-69.00000000000523
 31
0.0
  0
LINE
  5
667C
  8
0
 10
-69.999999999999545
 20
-95.000000000005457
 30
0.0
 11
-69.999999999999091
 21
-79.000000000005457
 31
0.0
  0
LINE
  5
667D
  8
0
 10
24.299999999999041
 20
79.000000000004547
 30
0.0
 11
24.300000000000409
 21
38.763030067320187
 31
0.0
  0
LINE
  5
667E
  8
0
 10
-70.000000000000682
 20
79.000000000004547
 30
0.0
 11
69.999999999999318
 21
79.000000000005457
 31
0.0
  0
LINE
  5
667F
  8
0
 10
69.999999999999091
 20
95.000000000005457
 30
0.0
 11
-70.000000000000909
 21
95.000000000004533
 31
0.0
  0
LINE
  5
6680
  8
0
 10
69.999999999999318
 20
79.000000000005457
 30
0.0
 11
69.999999999999091
 21
95.000000000005457
 31
0.0
  0
LINE
  5
6681
  8
0
  6
CENTER
 10
52.499999999999318
 20
103.0000000000054
 30
0.0
 11
52.499999999999538
 21
69.00000000000523
 31
0.0
  0
LINE
  5
6682
  8
0
 10
-24.30000000000086
 20
79.000000000004093
 30
0.0
 11
-24.300000000000409
 21
57.999999999999773
 31
0.0
  0
LINE
  5
6683
  8
0
 10
-24.300000000000178
 20
49.999999999999773
 30
0.0
 11
-24.300000000000409
 21
38.763030067320187
 31
0.0
  0
LINE
  5
6684
  8
0
  6
CENTER
 10
-52.500000000000682
 20
103.0000000000045
 30
0.0
 11
-52.500000000000462
 21
69.00000000000432
 31
0.0
  0
LINE
  5
6685
  8
0
 10
-70.000000000000909
 20
95.000000000004533
 30
0.0
 11
-70.000000000000682
 21
79.000000000004547
 31
0.0
  0
LINE
  5
6686
  8
0
  6
CENTER
 10
-34.204196319953553
 20
-5.1500000000005448
 30
0.0
 11
34.204196319953553
 21
-5.1499999999998627
 31
0.0
  0
CIRCLE
  5
6687
  8
AM_0_T3
 10
0.0
 20
-5.1500000000003183
 30
0.0
 40
25.25
  0
CIRCLE
  5
6688
  8
AM_0_T3
 10
0.0
 20
-5.1500000000003183
 30
0.0
 40
19.04999999999972
  0
ENDSEC
  0
EOF
