  0
SECTION
  2
HEADER
  9
$ACADVER
  1
AC1009
  9
$INSBASE
 10
0.0
 20
0.0
 30
0.0
  9
$EXTMIN
 10
-70.0
 20
-105.0000000000106
 30
0.0
  9
$EXTMAX
 10
2282.5999922979909
 20
588.28139750375374
 30
0.0
  9
$LIMMIN
 10
0.0
 20
0.0
  9
$LIMMAX
 10
420.0
 20
297.0
  9
$ORTHOMODE
 70
     0
  9
$REGENMODE
 70
     1
  9
$FILLMODE
 70
     1
  9
$QTEXTMODE
 70
     0
  9
$MIRRTEXT
 70
     1
  9
$DRAGMODE
 70
     2
  9
$LTSCALE
 40
1.0
  9
$OSMODE
 70
    37
  9
$ATTMODE
 70
     1
  9
$TEXTSIZE
 40
73.985717453579113
  9
$TRACEWID
 40
1.0
  9
$TEXTSTYLE
  7
STANDARD
  9
$CLAYER
  8
0
  9
$CELTYPE
  6
BYLAYER
  9
$CECOLOR
 62
   256
  9
$DIMSCALE
 40
1.0
  9
$DIMASZ
 40
3.0
  9
$DIMEXO
 40
1.0
  9
$DIMDLI
 40
10.0
  9
$DIMRND
 40
0.0
  9
$DIMDLE
 40
0.0
  9
$DIMEXE
 40
1.0
  9
$DIMTP
 40
0.1
  9
$DIMTM
 40
0.1
  9
$DIMTXT
 40
30.0
  9
$DIMCEN
 40
0.0
  9
$DIMTSZ
 40
0.0
  9
$DIMTOL
 70
     0
  9
$DIMLIM
 70
     0
  9
$DIMTIH
 70
     0
  9
$DIMTOH
 70
     0
  9
$DIMSE1
 70
     0
  9
$DIMSE2
 70
     0
  9
$DIMTAD
 70
     3
  9
$DIMZIN
 70
     8
  9
$DIMBLK
  1
OPEN
  9
$DIMASO
 70
     1
  9
$DIMSHO
 70
     1
  9
$DIMPOST
  1

  9
$DIMAPOST
  1
"
  9
$DIMALT
 70
     0
  9
$DIMALTD
 70
     2
  9
$DIMALTF
 40
0.0393701
  9
$DIMLFAC
 40
1.0
  9
$DIMTOFL
 70
     1
  9
$DIMTVP
 40
0.0
  9
$DIMTIX
 70
     0
  9
$DIMSOXD
 70
     0
  9
$DIMSAH
 70
     0
  9
$DIMBLK1
  1

  9
$DIMBLK2
  1

  9
$DIMSTYLE
  2
TSK
  9
$DIMCLRD
 70
   256
  9
$DIMCLRE
 70
   256
  9
$DIMCLRT
 70
     2
  9
$DIMTFAC
 40
0.71
  9
$DIMGAP
 40
1.5
  9
$LUNITS
 70
     2
  9
$LUPREC
 70
     8
  9
$SKETCHINC
 40
1.0
  9
$FILLETRAD
 40
0.0
  9
$AUNITS
 70
     0
  9
$AUPREC
 70
     8
  9
$MENU
  1
.
  9
$ELEVATION
 40
0.0
  9
$PELEVATION
 40
0.0
  9
$THICKNESS
 40
0.0
  9
$LIMCHECK
 70
     0
  9
$BLIPMODE
 70
     0
  9
$CHAMFERA
 40
2.5
  9
$CHAMFERB
 40
2.5
  9
$SKPOLY
 70
     0
  9
$TDCREATE
 40
2454739.7204081588
  9
$TDUPDATE
 40
2454748.5623977659
  9
$TDINDWG
 40
0.2615419213
  9
$TDUSRTIMER
 40
0.2615419213
  9
$USRTIMER
 70
     1
  9
$ANGBASE
 50
0.0
  9
$ANGDIR
 70
     1
  9
$PDMODE
 70
     0
  9
$PDSIZE
 40
0.0
  9
$PLINEWID
 40
0.0
  9
$COORDS
 70
     1
  9
$SPLFRAME
 70
     0
  9
$SPLINETYPE
 70
     6
  9
$SPLINESEGS
 70
     8
  9
$ATTDIA
 70
     0
  9
$ATTREQ
 70
     1
  9
$HANDLING
 70
 22529
  9
$HANDSEED
  5
6700
  9
$SURFTAB1
 70
     6
  9
$SURFTAB2
 70
     6
  9
$SURFTYPE
 70
     6
  9
$SURFU
 70
     6
  9
$SURFV
 70
     6
  9
$UCSNAME
  2

  9
$UCSORG
 10
0.0
 20
0.0
 30
0.0
  9
$UCSXDIR
 10
1.0
 20
0.0
 30
0.0
  9
$UCSYDIR
 10
0.0
 20
1.0
 30
0.0
  9
$PUCSNAME
  2

  9
$PUCSORG
 10
0.0
 20
0.0
 30
0.0
  9
$PUCSXDIR
 10
1.0
 20
0.0
 30
0.0
  9
$PUCSYDIR
 10
0.0
 20
1.0
 30
0.0
  9
$USERI1
 70
     0
  9
$USERI2
 70
     0
  9
$USERI3
 70
     0
  9
$USERI4
 70
     0
  9
$USERI5
 70
     0
  9
$USERR1
 40
0.0
  9
$USERR2
 40
0.0
  9
$USERR3
 40
0.0
  9
$USERR4
 40
0.0
  9
$USERR5
 40
0.0
  9
$WORLDVIEW
 70
     1
  9
$SHADEDGE
 70
     3
  9
$SHADEDIF
 70
    70
  9
$TILEMODE
 70
     1
  9
$MAXACTVP
 70
    48
  9
$PLIMCHECK
 70
     0
  9
$PEXTMIN
 10
1.0000000000000000E+020
 20
1.0000000000000000E+020
 30
1.0000000000000000E+020
  9
$PEXTMAX
 10
-1.0000000000000000E+020
 20
-1.0000000000000000E+020
 30
-1.0000000000000000E+020
  9
$PLIMMIN
 10
0.0
 20
0.0
  9
$PLIMMAX
 10
420.0
 20
297.0
  9
$UNITMODE
 70
     0
  9
$VISRETAIN
 70
     1
  9
$PLINEGEN
 70
     0
  9
$PSLTSCALE
 70
     1
  0
ENDSEC
  0
SECTION
  2
TABLES
  0
TABLE
  2
VPORT
 70
     2
  0
VPORT
  2
*ACTIVE
 70
     0
 10
0.0
 20
0.0
 11
1.0
 21
1.0
 12
1502.6402343235891
 22
241.637489245007
 13
0.0
 23
0.0
 14
2.5
 24
2.5
 15
10.0
 25
10.0
 16
0.0
 26
0.0
 36
1.0
 17
0.0
 27
0.0
 37
0.0
 40
1543.6336921516449
 41
2.045360824742267
 42
50.0
 43
0.0
 44
0.0
 50
0.0
 51
0.0
 71
     0
 72
   100
 73
     1
 74
     3
 75
     0
 76
     0
 77
     0
 78
     0
  0
ENDTAB
  0
TABLE
  2
LTYPE
 70
     2
  0
LTYPE
  2
CONTINUOUS
 70
     0
  3
Solid line
 72
    65
 73
     0
 40
0.0
  0
LTYPE
  2
CENTER
 70
     0
  3
__ . __
 72
    65
 73
     4
 40
7.0
 49
4.0
 49
-1.0
 49
1.0
 49
-1.0
  0
ENDTAB
  0
TABLE
  2
LAYER
 70
     2
  0
LAYER
  2
0
 70
     0
 62
     7
  6
CONTINUOUS
  0
LAYER
  2
AM_0_T3
 70
     0
 62
     7
  6
CONTINUOUS
  0
ENDTAB
  0
TABLE
  2
STYLE
 70
     2
  0
STYLE
  2
STANDARD
 70
     0
 40
0.0
 41
0.7
 50
0.0
 71
     0
 42
73.985717453579113
  3
romans.shx
  4
bigfont.shx
  0
STYLE
  2
TSKDIM
 70
     0
 40
0.0
 41
0.75
 50
0.0
 71
     0
 42
4.0
  3
romans.shx
  4
EXTFONT.SHX
  0
ENDTAB
  0
TABLE
  2
VIEW
 70
     0
  0
ENDTAB
  0
TABLE
  2
UCS
 70
     0
  0
ENDTAB
  0
TABLE
  2
APPID
 70
    41
  0
APPID
  2
ACAD
 70
     0
  0
APPID
  2
MCAD_NO_VIS
 70
     0
  0
APPID
  2
ACAD_TEMP_GRAPHIC
 70
     0
  0
APPID
  2
ACATTRIBSERVICES
 70
     0
  0
APPID
  2
AD_DRAW
 70
     0
  0
APPID
  2
DESIGNERASSEMBLIES
 70
     0
  0
APPID
  2
ASURF_PCURVE_APPNAME
 70
     0
  0
APPID
  2
ACADM_DIM_EDIT
 70
     0
  0
APPID
  2
GENIUS_GENDIM_13
 70
     0
  0
APPID
  2
GENIUS_GENDTOL_13
 70
     0
  0
APPID
  2
GENIUS_GE3DTOL_13
 70
     0
  0
APPID
  2
AMG_3D2D_5_0
 70
     0
  0
APPID
  2
AMDT_DM_ADJ
 70
     0
  0
APPID
  2
CK_MATE-SERIES
 70
     0
  0
APPID
  2
GEVID1042077799
 70
     0
  0
APPID
  2
GEVMK
 70
     0
  0
APPID
  2
GEVDC
 70
     0
  0
APPID
  2
GENIUS_GENBH_13
 70
     0
  0
APPID
  2
GENIUS_GENOLIS_13
 70
     0
  0
APPID
  2
GENIUS_GENOENT_13
 70
     0
  0
APPID
  2
GENIUS_GENODEF_13
 70
     0
  0
APPID
  2
GENIUS_GENOBJ-NBEHI-BHF_13
 70
     0
  0
APPID
  2
GENIUS_GENOREF_13
 70
     0
  0
APPID
  2
GENIUS_GENOBJ-NBEHI-BHB_13
 70
     0
  0
APPID
  2
GEVID1042183772
 70
     0
  0
APPID
  2
GEVID1042183773
 70
     0
  0
APPID
  2
GEVID1042183774
 70
     0
  0
APPID
  2
DCO15
 70
     0
  0
APPID
  2
ACAD_DSTYLE_DIMARC_LENGTH_
 70
     0
  0
APPID
  2
ACAD_DSTYLE_DIMJOGGED_JOGA
 70
     0
  0
APPID
  2
ACAD_MLEADERVER
 70
     0
  0
APPID
  2
ACAD_DSTYLE_DIMJAG
 70
     0
  0
APPID
  2
ACAD_DSTYLE_DIMTALN
 70
     0
  0
APPID
  2
ACAD_PSEXT
 70
     0
  0
APPID
  2
ACAD_EXEMPT_FROM_CAD_STANDARDS
 70
     0
  0
APPID
  2
ACAD_DSTYLE_DIMINSPECT
 70
     0
  0
APPID
  2
ACAD_DSTYLE_DIMANGULAR_EXT
 70
     0
  0
APPID
  2
GENIUS_GENOBJ-N-FIL_13
 70
     0
  0
APPID
  2
ACAD_DSTYLE_DIM_LINETYPE
 70
     0
  0
APPID
  2
ACAD_DSTYLE_DIM_EXT1_LINETYPE
 70
     0
  0
APPID
  2
ACAD_DSTYLE_DIM_EXT2_LINETYPE
 70
     0
  0
ENDTAB
  0
TABLE
  2
DIMSTYLE
 70
     1
  0
DIMSTYLE
  2
TSK
 70
     0
  3

  4
"
  5
OPEN
  6

  7

 40
1.0
 41
3.0
 42
1.0
 43
10.0
 44
1.0
 45
0.0
 46
0.0
 47
0.1
 48
0.1
140
30.0
141
0.0
142
0.0
143
0.0393701
144
1.0
145
0.0
146
0.71
147
1.5
 71
     0
 72
     0
 73
     0
 74
     0
 75
     0
 76
     0
 77
     3
 78
     8
170
     0
171
     2
172
     1
173
     0
174
     0
175
     0
176
   256
177
   256
178
     2
  0
ENDTAB
  0
ENDSEC
  0
SECTION
  2
BLOCKS
  0
BLOCK
  8
0
  2
$MODEL_SPACE
 70
     0
 10
0.0
 20
0.0
 30
0.0
  3
$MODEL_SPACE
  1

  0
ENDBLK
  5
21
  8
0
  0
BLOCK
 67
     1
  8
0
  2
$PAPER_SPACE
 70
     0
 10
0.0
 20
0.0
 30
0.0
  3
$PAPER_SPACE
  1

  0
ENDBLK
  5
1D
 67
     1
  8
0
  0
BLOCK
  8
0
  2
_OPEN
 70
     0
 10
0.0
 20
0.0
 30
0.0
  3
_OPEN
  1

  0
LINE
  5
15A
  8
0
  6
BYBLOCK
 62
     0
 10
-1.0
 20
0.1666666666666666
 30
0.0
 11
0.0
 21
0.0
 31
0.0
  0
LINE
  5
15B
  8
0
  6
BYBLOCK
 62
     0
 10
-1.0
 20
-0.1666666666666666
 30
0.0
 11
0.0
 21
0.0
 31
0.0
  0
LINE
  5
15C
  8
0
  6
BYBLOCK
 62
     0
 10
0.0
 20
0.0
 30
0.0
 11
-1.0
 21
0.0
 31
0.0
  0
ENDBLK
  5
15E
  8
0
  0
ENDSEC
  0
SECTION
  2
ENTITIES
  0
LINE
  5
1ACB
  8
0
 10
1202.4804022224671
 20
-41.500000000003411
 30
0.0
 11
1268.4220969314019
 21
-41.500000000003411
 31
0.0
  0
LINE
  5
1ACC
  8
0
 10
1198.751249576934
 20
-35.04091814876324
 30
0.0
 11
1202.4804022224671
 21
-41.500000000003411
 31
0.0
  0
LINE
  5
1ACD
  8
0
 10
1272.1512495769341
 20
-31.750000000002949
 30
0.0
 11
2228.701249576935
 21
-31.750000000002949
 31
0.0
  0
LINE
  5
1ACE
  8
0
 10
1205.451249576935
 20
41.499999999997037
 30
0.0
 11
1205.451249576935
 21
-41.500000000003411
 31
0.0
  0
LINE
  5
1ACF
  8
0
 10
1265.4512495769341
 20
41.499999999997037
 30
0.0
 11
1265.4512495769341
 21
-41.500000000003411
 31
0.0
  0
LINE
  5
1AD0
  8
0
 10
1255.701249576935
 20
-41.500000000003411
 30
0.0
 11
1255.701249576935
 21
41.49999999999681
 31
0.0
  0
LINE
  5
1AD1
  8
0
 10
1260.201249576935
 20
-41.500000000003183
 30
0.0
 11
1260.201249576935
 21
41.499999999997037
 31
0.0
  0
LINE
  5
1AD2
  8
0
 10
1246.701249576935
 20
-41.500000000003411
 30
0.0
 11
1246.701249576935
 21
41.49999999999681
 31
0.0
  0
LINE
  5
1AD3
  8
0
 10
1251.2012495769361
 20
-41.500000000003183
 30
0.0
 11
1251.2012495769361
 21
41.499999999997037
 31
0.0
  0
LINE
  5
1AD4
  8
0
 10
1219.701249576935
 20
-41.500000000003411
 30
0.0
 11
1219.701249576935
 21
41.49999999999681
 31
0.0
  0
LINE
  5
1AD5
  8
0
 10
1215.201249576935
 20
-41.500000000003411
 30
0.0
 11
1215.201249576935
 21
41.49999999999681
 31
0.0
  0
LINE
  5
1AD6
  8
0
 10
1210.7012495769361
 20
-41.500000000003411
 30
0.0
 11
1210.7012495769361
 21
41.49999999999681
 31
0.0
  0
LINE
  5
1AD7
  8
0
 10
1224.201249576935
 20
-41.500000000003183
 30
0.0
 11
1224.201249576935
 21
41.499999999997037
 31
0.0
  0
LINE
  5
1AD8
  8
0
 10
1228.7012495769361
 20
-41.500000000003411
 30
0.0
 11
1228.7012495769361
 21
41.49999999999681
 31
0.0
  0
LINE
  5
1AD9
  8
0
 10
1233.201249576935
 20
-41.500000000003183
 30
0.0
 11
1233.201249576935
 21
41.499999999997037
 31
0.0
  0
LINE
  5
1ADA
  8
0
 10
1237.701249576935
 20
-41.500000000003411
 30
0.0
 11
1237.701249576935
 21
41.49999999999681
 31
0.0
  0
LINE
  5
1ADB
  8
0
 10
1242.201249576935
 20
-41.500000000003183
 30
0.0
 11
1242.2012495769341
 21
41.499999999997037
 31
0.0
  0
LINE
  5
1ADC
  8
0
 10
1198.751249576934
 20
35.040918148756873
 30
0.0
 11
1202.4804022224671
 21
41.499999999997037
 31
0.0
  0
LINE
  5
1ADD
  8
0
 10
1198.751249576934
 20
-35.04091814876324
 30
0.0
 11
1198.751249576934
 21
35.040918148756873
 31
0.0
  0
LINE
  5
1ADE
  8
0
 10
1202.4804022224671
 20
41.499999999997037
 30
0.0
 11
1268.4220969314019
 21
41.499999999997037
 31
0.0
  0
LINE
  5
1ADF
  8
0
 10
1272.1512495769341
 20
31.749999999996589
 30
0.0
 11
2122.151249576933
 21
31.749999999994088
 31
0.0
  0
LINE
  5
1AE0
  8
0
 10
2170.7512495769338
 20
31.749999999993861
 30
0.0
 11
2228.701249576935
 21
31.74999999999363
 31
0.0
  0
LINE
  5
1AE1
  8
0
 10
1202.4804022224671
 20
-41.500000000002487
 30
0.0
 11
1202.4804022224671
 21
41.499999999997037
 31
0.0
  0
LINE
  5
1AE2
  8
0
 10
1272.1512495769341
 20
-35.04091814876324
 30
0.0
 11
1268.4220969314019
 21
-41.500000000003411
 31
0.0
  0
LINE
  5
1AE3
  8
0
 10
1272.1512495769341
 20
35.040918148756873
 30
0.0
 11
1268.4220969314019
 21
41.499999999997037
 31
0.0
  0
LINE
  5
1AE4
  8
0
 10
1272.1512495769341
 20
-35.04091814876324
 30
0.0
 11
1272.1512495769341
 21
35.040918148756873
 31
0.0
  0
LINE
  5
1AE5
  8
AM_0_T3
 10
1268.4220969314019
 20
41.499999999997037
 30
0.0
 11
1268.4220969314019
 21
-41.500000000004093
 31
0.0
  0
LINE
  5
1AE6
  8
0
 10
2257.4512505769449
 20
-28.000000000004551
 30
0.0
 11
2244.201249576935
 21
-28.000000000004771
 31
0.0
  0
LINE
  5
1AE7
  8
0
 10
2257.4512505769449
 20
27.999999999995222
 30
0.0
 11
2244.201249576935
 21
27.999999999995449
 31
0.0
  0
LINE
  5
1AE8
  8
0
 10
2257.4512505769449
 20
-28.000000000004551
 30
0.0
 11
2257.4512505769449
 21
27.999999999995222
 31
0.0
  0
LINE
  5
1B2C
  8
0
 10
2232.6984734537718
 20
60.499999999993634
 30
0.0
 11
2240.2040276537718
 21
60.499999999993634
 31
0.0
  0
LINE
  5
1B2D
  8
0
 10
2240.2040254537719
 20
60.500001999993401
 30
0.0
 11
2243.9568025537719
 21
54.000000999993517
 31
0.0
  0
LINE
  5
1B2E
  8
0
 10
2243.9568048537722
 20
54.000000999993517
 30
0.0
 11
2240.2040277537722
 21
47.50000099999351
 31
0.0
  0
LINE
  5
1B2F
  8
0
 10
2240.2040276537718
 20
47.499999999993634
 30
0.0
 11
2232.6984734537718
 21
47.499999999993634
 31
0.0
  0
LINE
  5
1B30
  8
0
 10
2228.9456952537721
 20
54.000000999993517
 30
0.0
 11
2232.6984723537712
 21
47.50000099999351
 31
0.0
  0
LINE
  5
1B31
  8
0
 10
2232.6984713537722
 20
60.50000299999374
 30
0.0
 11
2228.9456942537722
 21
54.00000299999374
 31
0.0
  0
LINE
  5
1B32
  8
0
 10
2240.204026653772
 20
-60.500000000006359
 30
0.0
 11
2232.698472453772
 21
-60.500000000006359
 31
0.0
  0
LINE
  5
1B33
  8
0
 10
2232.6984746537719
 20
-60.500002000006361
 30
0.0
 11
2228.9456975537719
 21
-54.000001000006478
 31
0.0
  0
LINE
  5
1B34
  8
0
 10
2228.9456952537721
 20
-54.000001000006478
 30
0.0
 11
2232.6984723537712
 21
-47.50000100000625
 31
0.0
  0
LINE
  5
1B35
  8
0
 10
2243.9568048537722
 20
-54.000001000006478
 30
0.0
 11
2240.2040277537722
 21
-47.50000100000625
 31
0.0
  0
LINE
  5
1B36
  8
0
 10
2240.2040287537729
 20
-60.500003000006473
 30
0.0
 11
2243.956805853772
 21
-54.000003000006473
 31
0.0
  0
LINE
  5
1B37
  8
0
 10
2232.698472453772
 20
-47.500000000006359
 30
0.0
 11
2240.204026653772
 21
-47.500000000006359
 31
0.0
  0
LINE
  5
1B38
  8
0
  6
CENTER
 10
2226.4512500537721
 20
-54.000000000006366
 30
0.0
 11
2246.4512500537721
 21
-54.000000000006366
 31
0.0
  0
LINE
  5
1B39
  8
0
  6
CENTER
 10
2236.4512505306088
 20
-64.000000000006366
 30
0.0
 11
2236.4512505306088
 21
-44.000000000006366
 31
0.0
  0
LINE
  5
1B3A
  8
0
  6
CENTER
 10
2226.4512490537718
 20
53.999999999993634
 30
0.0
 11
2246.4512490537732
 21
53.999999999993634
 31
0.0
  0
LINE
  5
1B3B
  8
0
  6
CENTER
 10
2236.451249576935
 20
43.999999999993634
 30
0.0
 11
2236.451249576935
 21
63.999999999993634
 31
0.0
  0
LINE
  5
1B3C
  8
0
 10
2244.201249576935
 20
-37.630605894677039
 30
0.0
 11
2244.201249576935
 21
37.630605894663859
 31
0.0
  0
LINE
  5
1B3D
  8
0
 10
2228.701249576935
 20
-37.630605894677039
 30
0.0
 11
2228.701249576935
 21
37.630605894663859
 31
0.0
  0
LINE
  5
1B40
  8
0
 10
2231.6130114510638
 20
-48.941200553756971
 30
0.0
 11
2231.6130114510638
 21
48.941200553744238
 31
0.0
  0
ARC
  5
1B41
  8
0
 10
2236.451249576935
 20
53.999999999993634
 30
0.0
 40
7.0
 50
313.72333522201529
 51
351.78676740868173
  0
ARC
  5
1B42
  8
0
 10
2236.451249576935
 20
53.999999999993634
 30
0.0
 40
7.0
 50
8.2132124140915685
 51
51.786784583412171
  0
ARC
  5
1B43
  8
0
 10
2236.451249576935
 20
53.999999999993634
 30
0.0
 40
7.0
 50
68.213210701751237
 51
111.78678929824871
  0
ARC
  5
1B44
  8
0
 10
2236.451249576935
 20
53.999999999993634
 30
0.0
 40
7.0
 50
128.21327295116109
 51
171.78672241756109
  0
ARC
  5
1B45
  8
0
 10
2236.451249576935
 20
53.999999999993634
 30
0.0
 40
7.0
 50
188.21321437744899
 51
226.2766589223601
  0
LINE
  5
1B46
  8
0
 10
2241.2894974274741
 20
-48.941209854453056
 30
0.0
 11
2241.2894871857952
 21
48.941200059275609
 31
0.0
  0
LINE
  5
1B47
  8
0
 10
2231.6130114510638
 20
43.221088602665532
 30
0.0
 11
2241.289487784305
 21
43.221088602665532
 31
0.0
  0
LINE
  5
1B48
  8
0
 10
2228.701249576935
 20
37.630605894663859
 30
0.0
 11
2231.6130114510638
 21
45.651533380593257
 31
0.0
  0
LINE
  5
1B49
  8
0
 10
2244.201249576935
 20
37.630605894663859
 30
0.0
 11
2241.2894877028039
 21
45.651533380593257
 31
0.0
  0
ARC
  5
1B4A
  8
0
 10
2236.451249576935
 20
-54.000000000006366
 30
0.0
 40
7.0
 50
133.7233410776397
 51
171.78678562255089
  0
ARC
  5
1B4B
  8
0
 10
2236.451249576935
 20
-54.000000000006366
 30
0.0
 40
7.0
 50
188.2131942002481
 51
231.7868027972487
  0
ARC
  5
1B4C
  8
0
 10
2236.451249576935
 20
-54.000000000006366
 30
0.0
 40
7.0
 50
248.21321070175119
 51
291.78678929824872
  0
ARC
  5
1B4D
  8
0
 10
2236.451249576935
 20
-54.000000000006366
 30
0.0
 40
7.0
 50
308.21329116507093
 51
351.78670420363278
  0
ARC
  5
1B4E
  8
0
 10
2236.451249576935
 20
-54.000000000006366
 30
0.0
 40
7.0
 50
8.2132325913182846
 51
46.276548780994389
  0
LINE
  5
1B4F
  8
0
 10
2231.6130114510638
 20
-43.221088602678257
 30
0.0
 11
2241.289487784305
 21
-43.221088602678257
 31
0.0
  0
LINE
  5
1B50
  8
0
 10
2228.701249576935
 20
-37.630605894677039
 30
0.0
 11
2231.6130114510638
 21
-45.65153338060599
 31
0.0
  0
LINE
  5
1B51
  8
0
 10
2244.201249576935
 20
-37.630605894677039
 30
0.0
 11
2241.2894877028039
 21
-45.65153338060599
 31
0.0
  0
LINE
  5
1B52
  8
0
 10
1198.751249576934
 20
-31.750000000002949
 30
0.0
 11
348.751249576936
 21
-31.750000000002949
 31
0.0
  0
LINE
  5
1B53
  8
0
 10
300.15124957693291
 20
-31.750000000002949
 30
0.0
 11
242.201249576934
 21
-31.750000000002949
 31
0.0
  0
LINE
  5
1B54
  8
0
 10
1198.751249576934
 20
31.749999999996589
 30
0.0
 11
242.201249576934
 21
31.74999999999363
 31
0.0
  0
LINE
  5
1B55
  8
0
  6
CENTER
 10
2261.067530157191
 20
0.0
 30
0.0
 11
209.8349689966789
 21
-0.0000000000065938
 31
0.0
  0
LINE
  5
1B56
  8
0
 10
213.4512485769246
 20
-28.000000000004551
 30
0.0
 11
226.701249576934
 21
-28.000000000004771
 31
0.0
  0
LINE
  5
1B57
  8
0
 10
213.4512485769246
 20
27.999999999995222
 30
0.0
 11
226.701249576934
 21
27.999999999995449
 31
0.0
  0
LINE
  5
1B58
  8
0
 10
213.4512485769246
 20
-28.000000000004551
 30
0.0
 11
213.4512485769246
 21
27.999999999995222
 31
0.0
  0
LINE
  5
1B59
  8
0
 10
238.20402570009711
 20
60.499999999993634
 30
0.0
 11
230.69847150009619
 21
60.499999999993634
 31
0.0
  0
LINE
  5
1B5A
  8
0
 10
230.6984737000966
 20
60.500001999993401
 30
0.0
 11
226.9456966000962
 21
54.000000999993517
 31
0.0
  0
LINE
  5
1B5B
  8
0
 10
226.94569430009679
 20
54.000000999993517
 30
0.0
 11
230.6984714000973
 21
47.50000099999351
 31
0.0
  0
LINE
  5
1B5C
  8
0
 10
230.69847150009619
 20
47.499999999993634
 30
0.0
 11
238.20402570009711
 21
47.499999999993634
 31
0.0
  0
LINE
  5
1B5D
  8
0
 10
241.9568039000969
 20
54.000000999993517
 30
0.0
 11
238.20402680009639
 21
47.50000099999351
 31
0.0
  0
LINE
  5
1B5E
  8
0
 10
238.2040278000967
 20
60.50000299999374
 30
0.0
 11
241.95680490009721
 21
54.00000299999374
 31
0.0
  0
LINE
  5
1B5F
  8
0
 10
230.69847250009661
 20
-60.500000000006359
 30
0.0
 11
238.20402670009659
 21
-60.500000000006359
 31
0.0
  0
LINE
  5
1B60
  8
0
 10
238.20402450009709
 20
-60.500002000006361
 30
0.0
 11
241.9568016000967
 21
-54.000001000006478
 31
0.0
  0
LINE
  5
1B61
  8
0
 10
241.9568039000969
 20
-54.000001000006478
 30
0.0
 11
238.20402680009639
 21
-47.50000100000625
 31
0.0
  0
LINE
  5
1B62
  8
0
 10
226.94569430009679
 20
-54.000001000006478
 30
0.0
 11
230.6984714000973
 21
-47.50000100000625
 31
0.0
  0
LINE
  5
1B63
  8
0
 10
230.69847040009691
 20
-60.500003000006473
 30
0.0
 11
226.94569330009651
 21
-54.000003000006473
 31
0.0
  0
LINE
  5
1B64
  8
0
 10
238.20402670009659
 20
-47.500000000006359
 30
0.0
 11
230.69847250009661
 21
-47.500000000006359
 31
0.0
  0
LINE
  5
1B65
  8
0
  6
CENTER
 10
244.4512491000969
 20
-54.000000000006366
 30
0.0
 11
224.4512491000969
 21
-54.000000000006366
 31
0.0
  0
LINE
  5
1B66
  8
0
  6
CENTER
 10
234.45124862325969
 20
-64.000000000006366
 30
0.0
 11
234.45124862325969
 21
-44.000000000006366
 31
0.0
  0
LINE
  5
1B67
  8
0
  6
CENTER
 10
244.45125010009721
 20
53.999999999993634
 30
0.0
 11
224.45125010009721
 21
53.999999999993634
 31
0.0
  0
LINE
  5
1B68
  8
0
  6
CENTER
 10
234.451249576934
 20
43.999999999993634
 30
0.0
 11
234.451249576934
 21
63.999999999993634
 31
0.0
  0
LINE
  5
1B69
  8
0
 10
226.701249576934
 20
-37.630605894677039
 30
0.0
 11
226.701249576934
 21
37.630605894663859
 31
0.0
  0
LINE
  5
1B6A
  8
0
 10
242.201249576934
 20
-37.630605894677039
 30
0.0
 11
242.201249576934
 21
37.630605894663859
 31
0.0
  0
LINE
  5
1B6B
  8
0
 10
239.28948770280471
 20
-48.941200553756971
 30
0.0
 11
239.28948770280471
 21
48.941200553744238
 31
0.0
  0
ARC
  5
1B6C
  8
0
 10
234.451249576934
 20
53.999999999993634
 30
0.0
 40
7.0
 50
188.21323259131819
 51
226.27666477797561
  0
ARC
  5
1B6D
  8
0
 10
234.451249576934
 20
53.999999999993634
 30
0.0
 40
7.0
 50
128.21321541658779
 51
171.7867875859084
  0
ARC
  5
1B6E
  8
0
 10
234.451249576934
 20
53.999999999993634
 30
0.0
 40
7.0
 50
68.213210701756054
 51
111.7867892982439
  0
ARC
  5
1B6F
  8
0
 10
234.451249576934
 20
53.999999999993634
 30
0.0
 40
7.0
 50
8.2132775824388702
 51
51.786727048846899
  0
ARC
  5
1B70
  8
0
 10
234.451249576934
 20
53.999999999993634
 30
0.0
 40
7.0
 50
313.7233410776397
 51
351.78678562255089
  0
LINE
  5
1B71
  8
0
 10
229.61300172639491
 20
-48.941209854453056
 30
0.0
 11
229.61301196807369
 21
48.941200059275609
 31
0.0
  0
LINE
  5
1B72
  8
0
 10
239.28948770280471
 20
43.221088602665532
 30
0.0
 11
229.61301136956439
 21
43.221088602665532
 31
0.0
  0
LINE
  5
1B73
  8
0
 10
242.201249576934
 20
37.630605894663859
 30
0.0
 11
239.28948770280471
 21
45.651533380593257
 31
0.0
  0
LINE
  5
1B74
  8
0
 10
226.701249576934
 20
37.630605894663859
 30
0.0
 11
229.6130114510633
 21
45.651533380593257
 31
0.0
  0
ARC
  5
1B75
  8
0
 10
234.451249576934
 20
-54.000000000006366
 30
0.0
 40
7.0
 50
8.2132143774490807
 51
46.27665892236022
  0
ARC
  5
1B76
  8
0
 10
234.451249576934
 20
-54.000000000006366
 30
0.0
 40
7.0
 50
308.21319720275119
 51
351.78680579975179
  0
ARC
  5
1B77
  8
0
 10
234.451249576934
 20
-54.000000000006366
 30
0.0
 40
7.0
 50
248.213210701756
 51
291.78678929824389
  0
ARC
  5
1B78
  8
0
 10
234.451249576934
 20
-54.000000000006366
 30
0.0
 40
7.0
 50
188.21329579636711
 51
231.78670883492899
  0
ARC
  5
1B79
  8
0
 10
234.451249576934
 20
-54.000000000006366
 30
0.0
 40
7.0
 50
133.72345121900551
 51
171.7867674086817
  0
LINE
  5
1B7A
  8
0
 10
239.28948770280471
 20
-43.221088602678257
 30
0.0
 11
229.61301136956439
 21
-43.221088602678257
 31
0.0
  0
LINE
  5
1B7B
  8
0
 10
242.201249576934
 20
-37.630605894677039
 30
0.0
 11
239.28948770280471
 21
-45.65153338060599
 31
0.0
  0
LINE
  5
1B7C
  8
0
 10
226.701249576934
 20
-37.630605894677039
 30
0.0
 11
229.6130114510633
 21
-45.65153338060599
 31
0.0
  0
LINE
  5
1B7D
  8
0
 10
1202.4804022224671
 20
370.1714795493146
 30
0.0
 11
1268.4220969314019
 21
370.1714795493146
 31
0.0
  0
LINE
  5
1B7E
  8
0
 10
1198.751249576934
 20
376.63056140055483
 30
0.0
 11
1202.4804022224671
 21
370.1714795493146
 31
0.0
  0
LINE
  5
1B7F
  8
0
 10
1272.1512495769341
 20
379.92147954931499
 30
0.0
 11
2084.065854651521
 21
379.92147954931499
 31
0.0
  0
LINE
  5
1B80
  8
0
 10
2208.836644502348
 20
379.92147954931499
 30
0.0
 11
2228.701249576935
 21
379.92147954931499
 31
0.0
  0
LINE
  5
1B81
  8
0
 10
1205.451249576935
 20
453.17147954931511
 30
0.0
 11
1205.451249576935
 21
370.1714795493146
 31
0.0
  0
LINE
  5
1B82
  8
0
 10
1265.4512495769341
 20
453.17147954931511
 30
0.0
 11
1265.4512495769341
 21
370.1714795493146
 31
0.0
  0
LINE
  5
1B83
  8
0
 10
1255.701249576935
 20
370.1714795493146
 30
0.0
 11
1255.701249576935
 21
453.1714795493146
 31
0.0
  0
LINE
  5
1B84
  8
0
 10
1260.201249576935
 20
370.1714795493146
 30
0.0
 11
1260.201249576935
 21
453.17147954931511
 31
0.0
  0
LINE
  5
1B85
  8
0
 10
1246.701249576935
 20
370.1714795493146
 30
0.0
 11
1246.701249576935
 21
453.1714795493146
 31
0.0
  0
LINE
  5
1B86
  8
0
 10
1251.2012495769361
 20
370.1714795493146
 30
0.0
 11
1251.2012495769361
 21
453.17147954931511
 31
0.0
  0
LINE
  5
1B87
  8
0
 10
1219.701249576935
 20
370.1714795493146
 30
0.0
 11
1219.701249576935
 21
453.1714795493146
 31
0.0
  0
LINE
  5
1B88
  8
0
 10
1215.201249576935
 20
370.1714795493146
 30
0.0
 11
1215.201249576935
 21
453.1714795493146
 31
0.0
  0
LINE
  5
1B89
  8
0
 10
1210.7012495769361
 20
370.1714795493146
 30
0.0
 11
1210.7012495769361
 21
453.1714795493146
 31
0.0
  0
LINE
  5
1B8A
  8
0
 10
1224.201249576935
 20
370.1714795493146
 30
0.0
 11
1224.201249576935
 21
453.17147954931511
 31
0.0
  0
LINE
  5
1B8B
  8
0
 10
1228.7012495769361
 20
370.1714795493146
 30
0.0
 11
1228.7012495769361
 21
453.1714795493146
 31
0.0
  0
LINE
  5
1B8C
  8
0
 10
1233.201249576935
 20
370.1714795493146
 30
0.0
 11
1233.201249576935
 21
453.17147954931511
 31
0.0
  0
LINE
  5
1B8D
  8
0
 10
1237.701249576935
 20
370.1714795493146
 30
0.0
 11
1237.701249576935
 21
453.1714795493146
 31
0.0
  0
LINE
  5
1B8E
  8
0
 10
1242.201249576935
 20
370.1714795493146
 30
0.0
 11
1242.2012495769341
 21
453.17147954931511
 31
0.0
  0
LINE
  5
1B8F
  8
0
 10
1198.751249576934
 20
446.71239769807488
 30
0.0
 11
1202.4804022224671
 21
453.17147954931511
 31
0.0
  0
LINE
  5
1B90
  8
0
 10
1198.751249576934
 20
376.63056140055483
 30
0.0
 11
1198.751249576934
 21
446.71239769807488
 31
0.0
  0
LINE
  5
1B91
  8
0
 10
1202.4804022224671
 20
453.17147954931511
 30
0.0
 11
1268.4220969314019
 21
453.17147954931511
 31
0.0
  0
LINE
  5
1B92
  8
0
 10
1272.1512495769341
 20
443.4214795493146
 30
0.0
 11
2084.065854651516
 21
443.42147954931232
 31
0.0
  0
LINE
  5
1B93
  8
0
 10
2208.836644502353
 20
443.42147954931232
 30
0.0
 11
2228.701249576935
 21
443.42147954931193
 31
0.0
  0
LINE
  5
1B94
  8
0
 10
1202.4804022224671
 20
370.17147954931551
 30
0.0
 11
1202.4804022224671
 21
453.17147954931511
 31
0.0
  0
LINE
  5
1B95
  8
0
 10
1272.1512495769341
 20
376.63056140055483
 30
0.0
 11
1268.4220969314019
 21
370.1714795493146
 31
0.0
  0
LINE
  5
1B96
  8
0
 10
1272.1512495769341
 20
446.71239769807488
 30
0.0
 11
1268.4220969314019
 21
453.17147954931511
 31
0.0
  0
LINE
  5
1B97
  8
0
 10
1272.1512495769341
 20
376.63056140055483
 30
0.0
 11
1272.1512495769341
 21
446.71239769807488
 31
0.0
  0
LINE
  5
1B98
  8
AM_0_T3
 10
1268.4220969314019
 20
453.17147954931511
 30
0.0
 11
1268.4220969314019
 21
370.17147954931369
 31
0.0
  0
LINE
  5
1B99
  8
0
 10
2257.4512505769449
 20
383.67147954931369
 30
0.0
 11
2244.201249576935
 21
383.67147954931318
 31
0.0
  0
LINE
  5
1B9A
  8
0
 10
2257.4512505769449
 20
439.67147954931318
 30
0.0
 11
2244.201249576935
 21
439.67147954931369
 31
0.0
  0
LINE
  5
1B9B
  8
0
 10
2257.4512505769449
 20
383.67147954931369
 30
0.0
 11
2257.4512505769449
 21
439.67147954931318
 31
0.0
  0
LINE
  5
1B9C
  8
0
 10
2244.201249576935
 20
373.92147954930459
 30
0.0
 11
2244.201249576935
 21
449.42147954931869
 31
0.0
  0
LINE
  5
1B9D
  8
0
 10
2228.701249576935
 20
373.92147954930419
 30
0.0
 11
2228.701249576935
 21
449.42147954931869
 31
0.0
  0
LINE
  5
1B9E
  8
0
 10
2231.6130114510638
 20
365.92147954930499
 30
0.0
 11
2231.6130114510638
 21
391.33820987084499
 31
0.0
  0
LINE
  5
1B9F
  8
0
 10
2231.6130114510638
 20
435.17147954931778
 30
0.0
 11
2231.6130114510638
 21
457.42147954931869
 31
0.0
  0
LINE
  5
1BA0
  8
0
 10
2241.2894970935699
 20
365.92147954930499
 30
0.0
 11
2241.2894944341551
 21
391.33821152201358
 31
0.0
  0
LINE
  5
1BA1
  8
0
 10
2241.2894898477712
 20
435.17147954931778
 30
0.0
 11
2241.289487519698
 21
457.42147954931869
 31
0.0
  0
LINE
  5
1BA2
  8
0
 10
1198.751249576934
 20
379.92147954931499
 30
0.0
 11
242.201249576934
 21
379.92147954931499
 31
0.0
  0
LINE
  5
1BA3
  8
0
 10
1198.751249576934
 20
443.4214795493146
 30
0.0
 11
242.201249576934
 21
443.42147954931193
 31
0.0
  0
LINE
  5
1BA4
  8
0
  6
CENTER
 10
188.30250685587899
 20
411.67147954931369
 30
0.0
 11
2282.5999922979909
 21
411.67147954931829
 31
0.0
  0
LINE
  5
1BA5
  8
0
 10
213.4512485769246
 20
383.67147954931369
 30
0.0
 11
226.701249576934
 21
383.67147954931318
 31
0.0
  0
LINE
  5
1BA6
  8
0
 10
213.4512485769246
 20
439.67147954931318
 30
0.0
 11
226.701249576934
 21
439.67147954931369
 31
0.0
  0
LINE
  5
1BA7
  8
0
 10
213.4512485769246
 20
383.67147954931369
 30
0.0
 11
213.4512485769246
 21
439.67147954931318
 31
0.0
  0
LINE
  5
1BA8
  8
AM_0_T3
 10
2228.701249576935
 20
449.42147954931869
 30
0.0
 11
2231.6130114510638
 21
457.42147954931869
 31
0.0
  0
LINE
  5
1BA9
  8
AM_0_T3
 10
2244.201249576935
 20
449.42147954931869
 30
0.0
 11
2241.289487519698
 21
457.42147954931869
 31
0.0
  0
LINE
  5
1BAA
  8
AM_0_T3
 10
2231.6130114510638
 20
457.42147954931869
 30
0.0
 11
2241.289487519698
 21
457.42147954931869
 31
0.0
  0
LINE
  5
1BAB
  8
AM_0_T3
 10
2228.701249576935
 20
373.92147954930419
 30
0.0
 11
2231.6130114510638
 21
365.92147954930499
 31
0.0
  0
LINE
  5
1BAC
  8
AM_0_T3
 10
2244.201249576935
 20
373.92147954930459
 30
0.0
 11
2241.289487519698
 21
365.92147954930499
 31
0.0
  0
LINE
  5
1BAD
  8
AM_0_T3
 10
2231.6130114510638
 20
365.92147954930499
 30
0.0
 11
2241.2894970935699
 21
365.92147954930499
 31
0.0
  0
LINE
  5
1BAE
  8
0
 10
2243.4512490537732
 20
396.67147954931818
 30
0.0
 11
2243.4512490537732
 21
408.67147954931829
 31
0.0
  0
LINE
  5
1BAF
  8
0
 10
2243.4512490537732
 20
408.67147954931829
 30
0.0
 11
2229.4512490537709
 21
408.67147954931829
 31
0.0
  0
LINE
  5
1BB0
  8
0
 10
2243.4512490537732
 20
426.67147954931818
 30
0.0
 11
2243.4512490537732
 21
414.67147954931818
 31
0.0
  0
LINE
  5
1BB1
  8
0
 10
2243.4512490537732
 20
414.67147954931818
 30
0.0
 11
2229.4512490537718
 21
414.67147954931818
 31
0.0
  0
LINE
  5
1BB2
  8
0
 10
2240.4512490537718
 20
414.67147954931818
 30
0.0
 11
2240.4512490537718
 21
408.67147954931829
 31
0.0
  0
LINE
  5
1BB3
  8
0
 10
2232.4512490537718
 20
414.67147954931818
 30
0.0
 11
2232.4512490537718
 21
408.67147954931829
 31
0.0
  0
LINE
  5
1BB4
  8
0
 10
2243.4512490537732
 20
426.67147954931818
 30
0.0
 11
2229.4512490537718
 21
426.67147954931869
 31
0.0
  0
LINE
  5
1BB5
  8
0
 10
2232.4512490537718
 20
440.67147954931829
 30
0.0
 11
2232.4512490537718
 21
435.17147954931818
 31
0.0
  0
LINE
  5
1BB6
  8
0
 10
2231.4512490537718
 20
435.17147954931818
 30
0.0
 11
2241.4512490537718
 21
435.17147954931818
 31
0.0
  0
LINE
  5
1BB7
  8
0
 10
2232.4512490537718
 20
440.67147954931829
 30
0.0
 11
2240.4512490537718
 21
440.67147954931829
 31
0.0
  0
LINE
  5
1BB8
  8
0
 10
2230.4512490537732
 20
434.17147954931818
 30
0.0
 11
2230.4512490537732
 21
433.17147954931829
 31
0.0
  0
LINE
  5
1BB9
  8
0
 10
2242.4512490537718
 20
434.17147954931818
 30
0.0
 11
2242.4512490537718
 21
433.17147954931829
 31
0.0
  0
LINE
  5
1BBA
  8
0
 10
2242.9512490537718
 20
433.17147954931829
 30
0.0
 11
2229.9512490537718
 21
433.17147954931829
 31
0.0
  0
LINE
  5
1BBB
  8
0
 10
2242.9512490537718
 20
433.17147954931829
 30
0.0
 11
2242.9512490537718
 21
426.67147954931818
 31
0.0
  0
LINE
  5
1BBC
  8
0
 10
2229.9512490537718
 20
433.17147954931829
 30
0.0
 11
2229.9512490537718
 21
426.67147954931818
 31
0.0
  0
LINE
  5
1BBD
  8
0
 10
2240.4512490537718
 20
440.67147954931829
 30
0.0
 11
2240.4512490537718
 21
435.17147954931818
 31
0.0
  0
LINE
  5
1BBE
  8
0
  6
CENTER
 10
2236.4512490537718
 20
442.3228145493182
 30
0.0
 11
2236.4512490537718
 21
385.28296454931859
 31
0.0
  0
LINE
  5
1BBF
  8
0
 10
2233.2012490537718
 20
391.17147954931818
 30
0.0
 11
2239.7012490537718
 21
391.17147954931818
 31
0.0
  0
LINE
  5
1BC0
  8
0
 10
2229.9512490537718
 20
391.89637354931818
 30
0.0
 11
2229.9512490537718
 21
396.67147954931818
 31
0.0
  0
LINE
  5
1BC1
  8
0
 10
2242.9512490537718
 20
391.89637354931818
 30
0.0
 11
2242.9512490537718
 21
396.67147954931818
 31
0.0
  0
LINE
  5
1BC2
  8
0
 10
2229.4512490537718
 20
396.67147954931818
 30
0.0
 11
2243.4512490537732
 21
396.67147954931818
 31
0.0
  0
ARC
  5
1BC3
  8
0
 10
2231.4512490537718
 20
434.17147954931818
 30
0.0
 40
1.0
 50
89.999989999998988
 51
179.99999599996829
  0
ARC
  5
1BC4
  8
0
 10
2241.4512490537718
 20
434.17147954931818
 30
0.0
 40
1.0
 50
0.0
 51
90.000005008937407
  0
ARC
  5
1BC5
  8
0
 10
2239.7012490537718
 20
425.52348454931843
 30
0.0
 40
7.647994999999999
 50
64.852630000041799
 51
115.1473750000129
  0
ARC
  5
1BC6
  8
0
 10
2233.2012490537718
 20
425.52348454931843
 30
0.0
 40
7.647994999999999
 50
64.852630000041799
 51
115.1473679999861
  0
ARC
  5
1BC7
  8
0
 10
2239.7012490537718
 20
434.3194745493185
 30
0.0
 40
7.647994999999999
 50
244.85263000004181
 51
295.14736999995807
  0
ARC
  5
1BC8
  8
0
 10
2233.2012490537718
 20
434.3194745493185
 30
0.0
 40
7.647994999999999
 50
244.85263000004181
 51
295.14736999995807
  0
ARC
  5
1BC9
  8
0
 10
2233.2012490537718
 20
398.8194745493185
 30
0.0
 40
7.6479945000000011
 50
244.85263000004181
 51
295.14736999995807
  0
ARC
  5
1BCA
  8
0
 10
2239.7012490537718
 20
398.8194745493185
 30
0.0
 40
7.6479945000000011
 50
244.85263000004181
 51
295.14736999995807
  0
LINE
  5
1BCB
  8
0
 10
2229.4512490537718
 20
396.67147954931818
 30
0.0
 11
2229.4512490537709
 21
408.67147954931829
 31
0.0
  0
LINE
  5
1BCC
  8
0
 10
2229.4512490537718
 20
426.67147954931869
 30
0.0
 11
2229.4512490537718
 21
414.67147954931818
 31
0.0
  0
LINE
  5
1BEB
  8
0
  6
CENTER
 10
2146.4512495769341
 20
313.67147954931778
 30
0.0
 11
2146.451249576935
 21
509.67147954931778
 31
0.0
  0
LINE
  5
1BEC
  8
0
  6
CENTER
 10
2169.78577335609
 20
388.33695577016192
 30
0.0
 11
2197.3629378223659
 21
360.7597913038864
 31
0.0
  0
LINE
  5
1BED
  8
0
  6
CENTER
 10
2169.78577335609
 20
435.0060033284737
 30
0.0
 11
2197.3629378223659
 21
462.58316779474922
 31
0.0
  0
LINE
  5
1BEE
  8
0
  6
CENTER
 10
2123.1167257977791
 20
388.33695577016192
 30
0.0
 11
2095.5395613315031
 21
360.7597913038864
 31
0.0
  0
LINE
  5
1BEF
  8
0
  6
CENTER
 10
2123.1167257977791
 20
435.0060033284737
 30
0.0
 11
2095.5395613315031
 21
462.58316779474922
 31
0.0
  0
LINE
  5
1BF0
  8
0
 10
348.75124957693509
 20
-79.000000000010232
 30
0.0
 11
348.751249576936
 21
-31.75000000000022
 31
0.0
  0
ARC
  5
1BF1
  8
AM_0_T3
 10
324.45124957693582
 20
-52.18459077152238
 30
0.0
 40
31.749999999993499
 50
40.061474850823252
 51
139.93852514917671
  0
LINE
  5
1BF2
  8
0
 10
254.45124957693591
 20
-79.000000000010687
 30
0.0
 11
394.45124957693588
 21
-79.000000000010687
 31
0.0
  0
LINE
  5
1BF3
  8
0
 10
394.45124957693491
 20
-95.000000000010687
 30
0.0
 11
254.45124957693491
 21
-95.000000000010687
 31
0.0
  0
LINE
  5
1BF4
  8
0
 10
394.45124957693588
 20
-79.000000000010687
 30
0.0
 11
394.45124957693491
 21
-95.000000000010687
 31
0.0
  0
LINE
  5
1BF5
  8
0
  6
CENTER
 10
376.95124957693582
 20
-103.0000000000106
 30
0.0
 11
376.95124957693582
 21
-69.000000000010687
 31
0.0
  0
LINE
  5
1BF6
  8
0
  6
CENTER
 10
324.45124957693582
 20
-105.0000000000106
 30
0.0
 11
324.45124957693582
 21
-0.0000000000059117
 31
0.0
  0
LINE
  5
1BF7
  8
0
 10
300.15124957693467
 20
-79.000000000010232
 30
0.0
 11
300.15124957693467
 21
-31.75000000000022
 31
0.0
  0
LINE
  5
1BF8
  8
0
  6
CENTER
 10
271.95124957693582
 20
-103.0000000000106
 30
0.0
 11
271.95124957693582
 21
-69.000000000010687
 31
0.0
  0
LINE
  5
1BF9
  8
0
 10
254.45124957693491
 20
-95.000000000010687
 30
0.0
 11
254.45124957693591
 21
-79.000000000010687
 31
0.0
  0
LINE
  5
1C02
  8
0
 10
2122.1512495769348
 20
79.000000000003865
 30
0.0
 11
2122.151249576933
 21
31.749999999993861
 31
0.0
  0
ARC
  5
1C03
  8
AM_0_T3
 10
2146.4512495769341
 20
52.184590771516007
 30
0.0
 40
31.749999999993499
 50
220.0614748508232
 51
319.93852514917671
  0
LINE
  5
1C04
  8
0
 10
2216.4512495769332
 20
79.00000000000432
 30
0.0
 11
2076.4512495769341
 21
79.00000000000432
 31
0.0
  0
LINE
  5
1C05
  8
0
 10
2076.4512495769341
 20
95.000000000004306
 30
0.0
 11
2216.4512495769332
 21
95.000000000004306
 31
0.0
  0
LINE
  5
1C06
  8
0
 10
2076.4512495769341
 20
79.00000000000432
 30
0.0
 11
2076.4512495769341
 21
95.000000000004306
 31
0.0
  0
LINE
  5
1C07
  8
0
  6
CENTER
 10
2093.9512495769341
 20
103.00000000000431
 30
0.0
 11
2093.9512495769341
 21
69.00000000000432
 31
0.0
  0
LINE
  5
1C08
  8
0
  6
CENTER
 10
2146.4512495769341
 20
105.00000000000431
 30
0.0
 11
2146.4512495769341
 21
-0.0000000000004547
 31
0.0
  0
LINE
  5
1C09
  8
0
 10
2170.7512495769338
 20
79.000000000003865
 30
0.0
 11
2170.7512495769338
 21
31.749999999993861
 31
0.0
  0
LINE
  5
1C0A
  8
0
  6
CENTER
 10
2198.9512495769332
 20
103.00000000000431
 30
0.0
 11
2198.9512495769332
 21
69.00000000000432
 31
0.0
  0
LINE
  5
1C0B
  8
0
 10
2216.4512495769332
 20
95.000000000004306
 30
0.0
 11
2216.4512495769332
 21
79.00000000000432
 31
0.0
  0
LINE
  5
1C1E
  8
0
  6
CENTER
 10
324.451249576934
 20
313.67147954931778
 30
0.0
 11
324.451249576934
 21
509.67147954931778
 31
0.0
  0
LINE
  5
1C1F
  8
0
  6
CENTER
 10
301.11672579777758
 20
388.33695577016192
 30
0.0
 11
273.53956133150308
 21
360.7597913038864
 31
0.0
  0
LINE
  5
1C20
  8
0
  6
CENTER
 10
301.11672579777758
 20
435.0060033284737
 30
0.0
 11
273.53956133150308
 21
462.58316779474922
 31
0.0
  0
LINE
  5
1C21
  8
0
  6
CENTER
 10
347.78577335609037
 20
388.33695577016192
 30
0.0
 11
375.36293782236493
 21
360.7597913038864
 31
0.0
  0
LINE
  5
1C22
  8
0
  6
CENTER
 10
347.78577335609037
 20
435.0060033284737
 30
0.0
 11
375.36293782236493
 21
462.58316779474922
 31
0.0
  0
ARC
  5
1C23
  8
0
 10
324.451249576934
 20
411.67147954931778
 30
0.0
 40
70.0
 50
26.973055041603491
 51
153.0269449583964
  0
ARC
  5
1C24
  8
0
 10
324.451249576934
 20
411.67147954931778
 30
0.0
 40
70.0
 50
206.97305504160349
 51
333.02694495839648
  0
ARC
  5
1C25
  8
0
 10
287.32814356464041
 20
448.79458556161143
 30
0.0
 40
9.5
 50
325.55672059891839
 51
214.44327940108141
  0
ARC
  5
1C26
  8
0
 10
287.32814356464041
 20
374.54837353702419
 30
0.0
 40
9.5
 50
145.55672059898021
 51
34.443279401019772
  0
ARC
  5
1C27
  8
0
  6
CENTER
 10
324.451249576934
 20
411.67147954931778
 30
0.0
 40
52.5
 50
37.211710668484287
 51
142.7882893315157
  0
ARC
  5
1C28
  8
0
  6
CENTER
 10
324.451249576934
 20
411.67147954931778
 30
0.0
 40
52.5
 50
217.21171066849459
 51
322.78828933150533
  0
ARC
  5
1C29
  8
0
 10
361.57435558922771
 20
374.54837353702419
 30
0.0
 40
9.5
 50
145.55672059898021
 51
34.443279401019772
  0
ARC
  5
1C2A
  8
0
 10
361.57435558922771
 20
448.79458556161143
 30
0.0
 40
9.5
 50
325.55672059891839
 51
214.44327940108141
  0
TEXT
  5
1C2B
  8
0
 10
841.4036305293148
 20
538.28139750375362
 30
0.0
 40
50.0
  1
2.5SX2000L-40AX1S
 72
     4
 11
1235.4512495769341
 21
563.28139750375362
 31
0.0
  0
LINE
  5
1E60
  8
0
 10
226.701249576934
 20
373.92147954930459
 30
0.0
 11
226.701249576934
 21
449.42147954931869
 31
0.0
  0
LINE
  5
1E61
  8
0
 10
242.201249576934
 20
373.92147954930419
 30
0.0
 11
242.201249576934
 21
449.42147954931869
 31
0.0
  0
LINE
  5
1E62
  8
0
 10
239.28948770280471
 20
365.92147954930499
 30
0.0
 11
239.28948770280471
 21
391.33820987084499
 31
0.0
  0
LINE
  5
1E63
  8
0
 10
239.28948770280471
 20
435.17147954931778
 30
0.0
 11
239.28948770280471
 21
457.42147954931869
 31
0.0
  0
LINE
  5
1E64
  8
0
 10
229.61300206029861
 20
365.92147954930499
 30
0.0
 11
229.61300471971381
 21
391.33821152201358
 31
0.0
  0
LINE
  5
1E65
  8
0
 10
229.61300930609829
 20
435.17147954931778
 30
0.0
 11
229.61301163416999
 21
457.42147954931869
 31
0.0
  0
LINE
  5
1E66
  8
AM_0_T3
 10
242.201249576934
 20
449.42147954931869
 30
0.0
 11
239.28948770280471
 21
457.42147954931869
 31
0.0
  0
LINE
  5
1E67
  8
AM_0_T3
 10
226.701249576934
 20
449.42147954931869
 30
0.0
 11
229.61301163416999
 21
457.42147954931869
 31
0.0
  0
LINE
  5
1E68
  8
AM_0_T3
 10
239.28948770280471
 20
457.42147954931869
 30
0.0
 11
229.61301163416999
 21
457.42147954931869
 31
0.0
  0
LINE
  5
1E69
  8
AM_0_T3
 10
242.201249576934
 20
373.92147954930419
 30
0.0
 11
239.28948770280471
 21
365.92147954930499
 31
0.0
  0
LINE
  5
1E6A
  8
AM_0_T3
 10
226.701249576934
 20
373.92147954930459
 30
0.0
 11
229.61301163416999
 21
365.92147954930499
 31
0.0
  0
LINE
  5
1E6B
  8
AM_0_T3
 10
239.28948770280471
 20
365.92147954930499
 30
0.0
 11
229.61300206029861
 21
365.92147954930499
 31
0.0
  0
LINE
  5
1E6C
  8
0
 10
227.45125010009721
 20
396.67147954931818
 30
0.0
 11
227.45125010009721
 21
408.67147954931829
 31
0.0
  0
LINE
  5
1E6D
  8
0
 10
227.45125010009721
 20
408.67147954931829
 30
0.0
 11
241.45125010009721
 21
408.67147954931829
 31
0.0
  0
LINE
  5
1E6E
  8
0
 10
227.45125010009721
 20
426.67147954931818
 30
0.0
 11
227.45125010009721
 21
414.67147954931818
 31
0.0
  0
LINE
  5
1E6F
  8
0
 10
227.45125010009721
 20
414.67147954931818
 30
0.0
 11
241.45125010009721
 21
414.67147954931818
 31
0.0
  0
LINE
  5
1E70
  8
0
 10
230.45125010009721
 20
414.67147954931818
 30
0.0
 11
230.45125010009721
 21
408.67147954931829
 31
0.0
  0
LINE
  5
1E71
  8
0
 10
238.45125010009721
 20
414.67147954931818
 30
0.0
 11
238.45125010009721
 21
408.67147954931829
 31
0.0
  0
LINE
  5
1E72
  8
0
 10
227.45125010009721
 20
426.67147954931818
 30
0.0
 11
241.45125010009721
 21
426.67147954931869
 31
0.0
  0
LINE
  5
1E73
  8
0
 10
238.45125010009721
 20
440.67147954931829
 30
0.0
 11
238.45125010009721
 21
435.17147954931818
 31
0.0
  0
LINE
  5
1E74
  8
0
 10
239.45125010009721
 20
435.17147954931818
 30
0.0
 11
229.45125010009721
 21
435.17147954931818
 31
0.0
  0
LINE
  5
1E75
  8
0
 10
238.45125010009721
 20
440.67147954931829
 30
0.0
 11
230.45125010009721
 21
440.67147954931829
 31
0.0
  0
LINE
  5
1E76
  8
0
 10
240.45125010009721
 20
434.17147954931818
 30
0.0
 11
240.45125010009721
 21
433.17147954931829
 31
0.0
  0
LINE
  5
1E77
  8
0
 10
228.45125010009721
 20
434.17147954931818
 30
0.0
 11
228.45125010009721
 21
433.17147954931829
 31
0.0
  0
LINE
  5
1E78
  8
0
 10
227.95125010009721
 20
433.17147954931829
 30
0.0
 11
240.95125010009721
 21
433.17147954931829
 31
0.0
  0
LINE
  5
1E79
  8
0
 10
227.95125010009721
 20
433.17147954931829
 30
0.0
 11
227.95125010009721
 21
426.67147954931818
 31
0.0
  0
LINE
  5
1E7A
  8
0
 10
240.95125010009721
 20
433.17147954931829
 30
0.0
 11
240.95125010009721
 21
426.67147954931818
 31
0.0
  0
LINE
  5
1E7B
  8
0
 10
230.45125010009721
 20
440.67147954931829
 30
0.0
 11
230.45125010009721
 21
435.17147954931818
 31
0.0
  0
LINE
  5
1E7C
  8
0
  6
CENTER
 10
234.45125010009721
 20
442.3228145493182
 30
0.0
 11
234.45125010009721
 21
385.28296454931859
 31
0.0
  0
LINE
  5
1E7D
  8
0
 10
237.70125010009721
 20
391.17147954931818
 30
0.0
 11
231.20125010009721
 21
391.17147954931818
 31
0.0
  0
LINE
  5
1E7E
  8
0
 10
240.95125010009721
 20
391.89637354931818
 30
0.0
 11
240.95125010009721
 21
396.67147954931818
 31
0.0
  0
LINE
  5
1E7F
  8
0
 10
227.95125010009721
 20
391.89637354931818
 30
0.0
 11
227.95125010009721
 21
396.67147954931818
 31
0.0
  0
LINE
  5
1E80
  8
0
 10
241.45125010009721
 20
396.67147954931818
 30
0.0
 11
227.45125010009721
 21
396.67147954931818
 31
0.0
  0
ARC
  5
1E81
  8
0
 10
239.45125010009721
 20
434.17147954931818
 30
0.0
 40
1.0
 50
0.0000040000316687
 51
90.000010000001026
  0
ARC
  5
1E82
  8
0
 10
229.45125010009721
 20
434.17147954931818
 30
0.0
 40
1.0
 50
89.999994991062593
 51
180.0
  0
ARC
  5
1E83
  8
0
 10
231.20125010009721
 20
425.52348454931843
 30
0.0
 40
7.647994999999999
 50
64.852624999987015
 51
115.1473699999582
  0
ARC
  5
1E84
  8
0
 10
237.70125010009721
 20
425.52348454931843
 30
0.0
 40
7.647994999999999
 50
64.852632000013784
 51
115.1473699999582
  0
ARC
  5
1E85
  8
0
 10
231.20125010009721
 20
434.3194745493185
 30
0.0
 40
7.647994999999999
 50
244.85263000004181
 51
295.14736999995807
  0
ARC
  5
1E86
  8
0
 10
237.70125010009721
 20
434.3194745493185
 30
0.0
 40
7.647994999999999
 50
244.85263000004181
 51
295.14736999995807
  0
ARC
  5
1E87
  8
0
 10
237.70125010009721
 20
398.8194745493185
 30
0.0
 40
7.6479945000000011
 50
244.85263000004181
 51
295.14736999995807
  0
ARC
  5
1E88
  8
0
 10
231.20125010009721
 20
398.8194745493185
 30
0.0
 40
7.6479945000000011
 50
244.85263000004181
 51
295.14736999995807
  0
LINE
  5
1E89
  8
0
 10
241.45125010009721
 20
396.67147954931818
 30
0.0
 11
241.45125010009721
 21
408.67147954931829
 31
0.0
  0
LINE
  5
1E8A
  8
0
 10
241.45125010009721
 20
426.67147954931869
 30
0.0
 11
241.45125010009721
 21
414.67147954931818
 31
0.0
  0
LINE
  5
23F8
  8
0
 10
198.86907646238069
 20
-23.97568000564047
 30
0.0
 11
198.86907646238069
 21
0.9756800056286465
 31
0.0
  0
LINE
  5
23F9
  8
0
 10
191.45124957693491
 20
13.749999999994079
 30
0.0
 11
191.45124957693491
 21
-36.750000000005912
 31
0.0
  0
LINE
  5
23FA
  8
0
 10
194.30124957693531
 20
12.9252249416902
 30
0.0
 11
194.3012495769344
 21
-35.92522494170202
 31
0.0
  0
LINE
  5
23FB
  8
0
  6
CENTER
 10
188.30250685587899
 20
-11.50000000000591
 30
0.0
 11
219.48225944315161
 21
-11.50000000000591
 31
0.0
  0
LINE
  5
23FC
  8
0
 10
200.26949109339509
 20
1.1999999999941331
 30
0.0
 11
213.4512485769246
 21
1.1999999999941331
 31
0.0
  0
ARC
  5
23FD
  8
0
 10
200.26949109339509
 20
3.1999999999941329
 30
0.0
 40
2.0
 50
200.00000000001029
 51
270.0
1001
GENIUS_GENOBJ-N-FIL_13
1002
{
1000
OWNER
1000
GEN
1002
}
1001
GENIUS_GENODEF_13
1002
{
1000
HIER
1070
     0
1002
}
1002
{
1000
MANEDIT
1070
     0
1002
}
1002
{
1000
NOSEL
1070
     0
1002
}
1002
{
1000
BEHIND
1070
     0
1002
}
1002
{
1000
OTHER
1070
     0
1002
}
1002
{
1000
REACTOR
1002
}
  0
LINE
  5
23FE
  8
0
 10
191.45124957693491
 20
13.749999999994079
 30
0.0
 11
193.74108354636701
 21
13.749999999994079
 31
0.0
  0
LINE
  5
2401
  8
0
 10
194.49283764299611
 20
13.22361611465476
 30
0.0
 11
198.39010585182311
 21
2.515959713342681
 31
0.0
  0
ARC
  5
2402
  8
0
 10
193.74108354636701
 20
12.94999999999413
 30
0.0
 40
0.8
 50
20.000000000010392
 51
90.0
1001
GENIUS_GENOBJ-N-FIL_13
1002
{
1000
OWNER
1000
GEN
1002
}
1001
GENIUS_GENODEF_13
1002
{
1000
HIER
1070
     0
1002
}
1002
{
1000
MANEDIT
1070
     0
1002
}
1002
{
1000
NOSEL
1070
     0
1002
}
1002
{
1000
BEHIND
1070
     0
1002
}
1002
{
1000
OTHER
1070
     0
1002
}
1002
{
1000
REACTOR
1002
}
  0
LINE
  5
2403
  8
0
 10
200.26949109339509
 20
-24.20000000000573
 30
0.0
 11
213.4512485769246
 21
-24.20000000000595
 31
0.0
  0
ARC
  5
2404
  8
0
 10
200.26949109339509
 20
-26.200000000005719
 30
0.0
 40
2.0
 50
90.0
 51
159.9999999999896
1001
GENIUS_GENOBJ-N-FIL_13
1002
{
1000
OWNER
1000
GEN
1002
}
1001
GENIUS_GENODEF_13
1002
{
1000
HIER
1070
     0
1002
}
1002
{
1000
MANEDIT
1070
     0
1002
}
1002
{
1000
NOSEL
1070
     0
1002
}
1002
{
1000
BEHIND
1070
     0
1002
}
1002
{
1000
OTHER
1070
     0
1002
}
1002
{
1000
REACTOR
1002
}
  0
LINE
  5
2405
  8
0
 10
191.45124957693491
 20
-36.750000000005912
 30
0.0
 11
193.74108354636701
 21
-36.750000000005912
 31
0.0
  0
LINE
  5
2406
  8
0
 10
194.4928376429952
 20
-36.223616114666349
 30
0.0
 11
198.39010585182311
 21
-25.515959713354501
 31
0.0
  0
ARC
  5
2407
  8
0
 10
193.74108354636701
 20
-35.95000000000595
 30
0.0
 40
0.8
 50
270.0
 51
339.99999999998948
1001
GENIUS_GENOBJ-N-FIL_13
1002
{
1000
OWNER
1000
GEN
1002
}
1001
GENIUS_GENODEF_13
1002
{
1000
HIER
1070
     0
1002
}
1002
{
1000
MANEDIT
1070
     0
1002
}
1002
{
1000
NOSEL
1070
     0
1002
}
1002
{
1000
BEHIND
1070
     0
1002
}
1002
{
1000
OTHER
1070
     0
1002
}
1002
{
1000
REACTOR
1002
}
  0
LINE
  5
2535
  8
0
 10
2272.0334226914888
 20
23.975680005634558
 30
0.0
 11
2272.0334226914888
 21
-0.9756800056345582
 31
0.0
  0
LINE
  5
2536
  8
0
 10
2279.451249576935
 20
-13.75
 30
0.0
 11
2279.451249576935
 21
36.75
 31
0.0
  0
LINE
  5
2537
  8
0
 10
2276.6012495769342
 20
-12.92522494169611
 30
0.0
 11
2276.6012495769351
 21
35.925224941696108
 31
0.0
  0
LINE
  5
2538
  8
0
  6
CENTER
 10
2282.5999922979909
 20
11.5
 30
0.0
 11
2251.4202397107179
 21
11.5
 31
0.0
  0
LINE
  5
2539
  8
0
 10
2270.6330080604739
 20
-1.200000000000045
 30
0.0
 11
2257.4512505769449
 21
-1.200000000000045
 31
0.0
  0
ARC
  5
253A
  8
0
 10
2270.6330080604739
 20
-3.200000000000045
 30
0.0
 40
2.0
 50
20.000000000010392
 51
90.0
1001
GENIUS_GENOBJ-N-FIL_13
1002
{
1000
OWNER
1000
GEN
1002
}
1001
GENIUS_GENODEF_13
1002
{
1000
HIER
1070
     0
1002
}
1002
{
1000
MANEDIT
1070
     0
1002
}
1002
{
1000
NOSEL
1070
     0
1002
}
1002
{
1000
BEHIND
1070
     0
1002
}
1002
{
1000
OTHER
1070
     0
1002
}
1002
{
1000
REACTOR
1002
}
  0
LINE
  5
253B
  8
0
 10
2279.451249576935
 20
-13.75
 30
0.0
 11
2277.1614156075029
 21
-13.75
 31
0.0
  0
LINE
  5
253D
  8
0
 10
2276.4096615108729
 20
-13.22361611466067
 30
0.0
 11
2272.5123933020468
 21
-2.5159597133485931
 31
0.0
  0
ARC
  5
253E
  8
0
 10
2277.1614156075029
 20
-12.95000000000004
 30
0.0
 40
0.8
 50
200.00000000001029
 51
270.0
1001
GENIUS_GENOBJ-N-FIL_13
1002
{
1000
OWNER
1000
GEN
1002
}
1001
GENIUS_GENODEF_13
1002
{
1000
HIER
1070
     0
1002
}
1002
{
1000
MANEDIT
1070
     0
1002
}
1002
{
1000
NOSEL
1070
     0
1002
}
1002
{
1000
BEHIND
1070
     0
1002
}
1002
{
1000
OTHER
1070
     0
1002
}
1002
{
1000
REACTOR
1002
}
  0
LINE
  5
253F
  8
0
 10
2270.6330080604739
 20
24.199999999999822
 30
0.0
 11
2257.4512505769449
 21
24.200000000000038
 31
0.0
  0
ARC
  5
2540
  8
0
 10
2270.6330080604739
 20
26.199999999999811
 30
0.0
 40
2.0
 50
270.0
 51
339.99999999998948
1001
GENIUS_GENOBJ-N-FIL_13
1002
{
1000
OWNER
1000
GEN
1002
}
1001
GENIUS_GENODEF_13
1002
{
1000
HIER
1070
     0
1002
}
1002
{
1000
MANEDIT
1070
     0
1002
}
1002
{
1000
NOSEL
1070
     0
1002
}
1002
{
1000
BEHIND
1070
     0
1002
}
1002
{
1000
OTHER
1070
     0
1002
}
1002
{
1000
REACTOR
1002
}
  0
LINE
  5
2541
  8
0
 10
2279.451249576935
 20
36.75
 30
0.0
 11
2277.1614156075029
 21
36.75
 31
0.0
  0
LINE
  5
2542
  8
0
 10
2276.4096615108751
 20
36.223616114660437
 30
0.0
 11
2272.5123933020468
 21
25.51595971334859
 31
0.0
  0
ARC
  5
2543
  8
0
 10
2277.1614156075029
 20
35.950000000000038
 30
0.0
 40
0.8
 50
90.0
 51
159.9999999999896
1001
GENIUS_GENOBJ-N-FIL_13
1002
{
1000
OWNER
1000
GEN
1002
}
1001
GENIUS_GENODEF_13
1002
{
1000
HIER
1070
     0
1002
}
1002
{
1000
MANEDIT
1070
     0
1002
}
1002
{
1000
NOSEL
1070
     0
1002
}
1002
{
1000
BEHIND
1070
     0
1002
}
1002
{
1000
OTHER
1070
     0
1002
}
1002
{
1000
REACTOR
1002
}
  0
LINE
  5
2544
  8
0
 10
2272.0334226914888
 20
424.14715955495308
 30
0.0
 11
2272.0334226914888
 21
399.19579954368339
 31
0.0
  0
LINE
  5
2545
  8
0
 10
2279.451249576935
 20
386.42147954931818
 30
0.0
 11
2279.451249576935
 21
436.92147954931818
 31
0.0
  0
LINE
  5
2546
  8
0
 10
2276.6012495769342
 20
387.2462546076224
 30
0.0
 11
2276.6012495769351
 21
436.09670449101412
 31
0.0
  0
LINE
  5
2548
  8
0
 10
2270.6330080604739
 20
398.97147954931842
 30
0.0
 11
2257.4512505769449
 21
398.97147954931842
 31
0.0
  0
ARC
  5
2549
  8
0
 10
2270.6330080604739
 20
396.97147954931842
 30
0.0
 40
2.0
 50
20.000000000010392
 51
90.0
1001
GENIUS_GENOBJ-N-FIL_13
1002
{
1000
OWNER
1000
GEN
1002
}
1001
GENIUS_GENODEF_13
1002
{
1000
HIER
1070
     0
1002
}
1002
{
1000
MANEDIT
1070
     0
1002
}
1002
{
1000
NOSEL
1070
     0
1002
}
1002
{
1000
BEHIND
1070
     0
1002
}
1002
{
1000
OTHER
1070
     0
1002
}
1002
{
1000
REACTOR
1002
}
  0
LINE
  5
254A
  8
0
 10
2279.451249576935
 20
386.42147954931818
 30
0.0
 11
2277.1614156075029
 21
386.42147954931818
 31
0.0
  0
LINE
  5
254C
  8
0
 10
2276.4096615108729
 20
386.94786343465762
 30
0.0
 11
2272.5123933020468
 21
397.65551983596941
 31
0.0
  0
ARC
  5
254D
  8
0
 10
2277.1614156075029
 20
387.22147954931842
 30
0.0
 40
0.8
 50
200.00000000001029
 51
270.0
1001
GENIUS_GENOBJ-N-FIL_13
1002
{
1000
OWNER
1000
GEN
1002
}
1001
GENIUS_GENODEF_13
1002
{
1000
HIER
1070
     0
1002
}
1002
{
1000
MANEDIT
1070
     0
1002
}
1002
{
1000
NOSEL
1070
     0
1002
}
1002
{
1000
BEHIND
1070
     0
1002
}
1002
{
1000
OTHER
1070
     0
1002
}
1002
{
1000
REACTOR
1002
}
  0
LINE
  5
254E
  8
0
 10
2270.6330080604739
 20
424.37147954931811
 30
0.0
 11
2257.4512505769449
 21
424.37147954931811
 31
0.0
  0
ARC
  5
254F
  8
0
 10
2270.6330080604739
 20
426.371479549318
 30
0.0
 40
2.0
 50
270.0
 51
339.99999999998948
1001
GENIUS_GENOBJ-N-FIL_13
1002
{
1000
OWNER
1000
GEN
1002
}
1001
GENIUS_GENODEF_13
1002
{
1000
HIER
1070
     0
1002
}
1002
{
1000
MANEDIT
1070
     0
1002
}
1002
{
1000
NOSEL
1070
     0
1002
}
1002
{
1000
BEHIND
1070
     0
1002
}
1002
{
1000
OTHER
1070
     0
1002
}
1002
{
1000
REACTOR
1002
}
  0
LINE
  5
2550
  8
0
 10
2279.451249576935
 20
436.92147954931818
 30
0.0
 11
2277.1614156075029
 21
436.92147954931818
 31
0.0
  0
LINE
  5
2551
  8
0
 10
2276.4096615108751
 20
436.39509566397851
 30
0.0
 11
2272.5123933020468
 21
425.68743926266711
 31
0.0
  0
ARC
  5
2552
  8
0
 10
2277.1614156075029
 20
436.12147954931811
 30
0.0
 40
0.8
 50
90.0
 51
159.9999999999896
1001
GENIUS_GENOBJ-N-FIL_13
1002
{
1000
OWNER
1000
GEN
1002
}
1001
GENIUS_GENODEF_13
1002
{
1000
HIER
1070
     0
1002
}
1002
{
1000
MANEDIT
1070
     0
1002
}
1002
{
1000
NOSEL
1070
     0
1002
}
1002
{
1000
BEHIND
1070
     0
1002
}
1002
{
1000
OTHER
1070
     0
1002
}
1002
{
1000
REACTOR
1002
}
  0
LINE
  5
2553
  8
0
 10
198.86907646238069
 20
399.1957995436789
 30
0.0
 11
198.86907646238069
 21
424.14715955494847
 31
0.0
  0
LINE
  5
2554
  8
0
 10
191.45124957693491
 20
436.92147954931369
 30
0.0
 11
191.45124957693491
 21
386.42147954931369
 31
0.0
  0
LINE
  5
2555
  8
0
 10
194.30124957693531
 20
436.09670449100958
 30
0.0
 11
194.3012495769344
 21
387.2462546076178
 31
0.0
  0
LINE
  5
2557
  8
0
 10
200.26949109339509
 20
424.37147954931362
 30
0.0
 11
213.4512485769246
 21
424.37147954931362
 31
0.0
  0
ARC
  5
2558
  8
0
 10
200.26949109339509
 20
426.37147954931351
 30
0.0
 40
2.0
 50
200.00000000001029
 51
270.0
1001
GENIUS_GENOBJ-N-FIL_13
1002
{
1000
OWNER
1000
GEN
1002
}
1001
GENIUS_GENODEF_13
1002
{
1000
HIER
1070
     0
1002
}
1002
{
1000
MANEDIT
1070
     0
1002
}
1002
{
1000
NOSEL
1070
     0
1002
}
1002
{
1000
BEHIND
1070
     0
1002
}
1002
{
1000
OTHER
1070
     0
1002
}
1002
{
1000
REACTOR
1002
}
  0
LINE
  5
2559
  8
0
 10
191.45124957693491
 20
436.92147954931369
 30
0.0
 11
193.74108354636701
 21
436.92147954931369
 31
0.0
  0
LINE
  5
255B
  8
0
 10
194.49283764299611
 20
436.39509566397442
 30
0.0
 11
198.39010585182311
 21
425.68743926266262
 31
0.0
  0
ARC
  5
255C
  8
0
 10
193.74108354636701
 20
436.12147954931351
 30
0.0
 40
0.8
 50
20.000000000010392
 51
90.0
1001
GENIUS_GENOBJ-N-FIL_13
1002
{
1000
OWNER
1000
GEN
1002
}
1001
GENIUS_GENODEF_13
1002
{
1000
HIER
1070
     0
1002
}
1002
{
1000
MANEDIT
1070
     0
1002
}
1002
{
1000
NOSEL
1070
     0
1002
}
1002
{
1000
BEHIND
1070
     0
1002
}
1002
{
1000
OTHER
1070
     0
1002
}
1002
{
1000
REACTOR
1002
}
  0
LINE
  5
255D
  8
0
 10
200.26949109339509
 20
398.97147954931393
 30
0.0
 11
213.4512485769246
 21
398.97147954931393
 31
0.0
  0
ARC
  5
255E
  8
0
 10
200.26949109339509
 20
396.97147954931393
 30
0.0
 40
2.0
 50
90.0
 51
159.9999999999896
1001
GENIUS_GENOBJ-N-FIL_13
1002
{
1000
OWNER
1000
GEN
1002
}
1001
GENIUS_GENODEF_13
1002
{
1000
HIER
1070
     0
1002
}
1002
{
1000
MANEDIT
1070
     0
1002
}
1002
{
1000
NOSEL
1070
     0
1002
}
1002
{
1000
BEHIND
1070
     0
1002
}
1002
{
1000
OTHER
1070
     0
1002
}
1002
{
1000
REACTOR
1002
}
  0
LINE
  5
255F
  8
0
 10
191.45124957693491
 20
386.42147954931369
 30
0.0
 11
193.74108354636701
 21
386.42147954931369
 31
0.0
  0
LINE
  5
2560
  8
0
 10
194.4928376429952
 20
386.94786343465353
 30
0.0
 11
198.39010585182311
 21
397.65551983596492
 31
0.0
  0
ARC
  5
2561
  8
0
 10
193.74108354636701
 20
387.22147954931393
 30
0.0
 40
0.8
 50
270.0
 51
339.99999999998948
1001
GENIUS_GENOBJ-N-FIL_13
1002
{
1000
OWNER
1000
GEN
1002
}
1001
GENIUS_GENODEF_13
1002
{
1000
HIER
1070
     0
1002
}
1002
{
1000
MANEDIT
1070
     0
1002
}
1002
{
1000
NOSEL
1070
     0
1002
}
1002
{
1000
BEHIND
1070
     0
1002
}
1002
{
1000
OTHER
1070
     0
1002
}
1002
{
1000
REACTOR
1002
}
  0
CIRCLE
  5
6380
  8
0
 10
2146.451249576935
 20
411.67147954931778
 30
0.0
 40
70.0
  0
CIRCLE
  5
6381
  8
0
 10
2183.5743555892282
 20
448.79458556161143
 30
0.0
 40
9.5
  0
CIRCLE
  5
6382
  8
0
 10
2183.5743555892282
 20
374.54837353702419
 30
0.0
 40
9.5
  0
CIRCLE
  5
6383
  8
0
  6
CENTER
 10
2146.451249576935
 20
411.67147954931778
 30
0.0
 40
52.5
  0
CIRCLE
  5
6384
  8
0
 10
2109.32814356464
 20
374.54837353702419
 30
0.0
 40
9.5
  0
CIRCLE
  5
6385
  8
0
 10
2109.32814356464
 20
448.79458556161143
 30
0.0
 40
9.5
  0
CIRCLE
  5
6386
  8
AM_0_T3
 10
2146.4512495769341
 20
411.67147954931778
 30
0.0
 40
24.299999999999731
  0
LINE
  5
6631
  8
0
 10
3.0
 20
-61.0
 30
0.0
 11
2.9999999999990901
 21
-36.571148757087251
 31
0.0
  0
LINE
  5
6632
  8
0
 10
15.0
 20
-61.0
 30
0.0
 11
15.0
 21
-43.221088000000229
 31
0.0
  0
LINE
  5
6633
  8
0
 10
15.0
 20
-61.0
 30
0.0
 11
3.0
 21
-61.0
 31
0.0
  0
LINE
  5
6634
  8
0
 10
-15.0
 20
-61.0
 30
0.0
 11
-15.0
 21
-43.221088000000229
 31
0.0
  0
LINE
  5
6635
  8
0
 10
-15.0
 20
-61.0
 30
0.0
 11
-3.0
 21
-61.0
 31
0.0
  0
LINE
  5
6636
  8
0
 10
-3.0
 20
-61.0
 30
0.0
 11
-3.0000000000009091
 21
-36.571148757087251
 31
0.0
  0
LINE
  5
6637
  8
0
 10
-3.0
 20
-58.0
 30
0.0
 11
3.0
 21
-58.0
 31
0.0
  0
LINE
  5
6638
  8
0
 10
-3.0
 20
-50.0
 30
0.0
 11
3.0
 21
-50.0
 31
0.0
  0
LINE
  5
6639
  8
0
 10
15.0
 20
61.0
 30
0.0
 11
3.0
 21
61.0
 31
0.0
  0
LINE
  5
663A
  8
0
 10
3.0
 20
61.0
 30
0.0
 11
3.0
 21
35.623904999999922
 31
0.0
  0
LINE
  5
663B
  8
0
 10
-15.0
 20
61.0
 30
0.0
 11
-3.0
 21
61.0
 31
0.0
  0
LINE
  5
663C
  8
0
 10
-3.0
 20
61.0
 30
0.0
 11
-3.0
 21
35.623904999999922
 31
0.0
  0
LINE
  5
663D
  8
0
 10
-3.0
 20
58.0
 30
0.0
 11
3.0
 21
58.0
 31
0.0
  0
LINE
  5
663E
  8
0
 10
-3.0
 20
50.0
 30
0.0
 11
3.0
 21
50.0
 31
0.0
  0
LINE
  5
663F
  8
0
 10
-15.0
 20
61.0
 30
0.0
 11
-15.0
 21
43.221087999999781
 31
0.0
  0
LINE
  5
6640
  8
0
 10
-29.0
 20
50.0
 30
0.0
 11
-23.5
 21
50.0
 31
0.0
  0
LINE
  5
6641
  8
0
 10
-23.5
 20
49.0
 30
0.0
 11
-23.5
 21
59.0
 31
0.0
  0
LINE
  5
6642
  8
0
 10
-29.0
 20
50.0
 30
0.0
 11
-29.0
 21
58.0
 31
0.0
  0
LINE
  5
6643
  8
0
 10
-22.5
 20
48.0
 30
0.0
 11
-21.499999999999989
 21
48.0
 31
0.0
  0
LINE
  5
6644
  8
0
 10
-22.5
 20
60.0
 30
0.0
 11
-21.499999999999989
 21
60.0
 31
0.0
  0
LINE
  5
6645
  8
0
 10
-21.499999999999989
 20
60.5
 30
0.0
 11
-21.499999999999989
 21
47.5
 31
0.0
  0
LINE
  5
6646
  8
0
 10
-21.499999999999989
 20
60.5
 30
0.0
 11
-15.0
 21
60.5
 31
0.0
  0
LINE
  5
6647
  8
0
 10
-21.499999999999989
 20
47.5
 30
0.0
 11
-15.0
 21
47.5
 31
0.0
  0
LINE
  5
6648
  8
0
 10
-29.0
 20
58.0
 30
0.0
 11
-23.5
 21
58.0
 31
0.0
  0
LINE
  5
6649
  8
0
  6
CENTER
 10
-30.651335000000469
 20
54.0
 30
0.0
 11
26.388514999999639
 21
54.0
 31
0.0
  0
LINE
  5
664A
  8
0
 10
20.5
 20
-50.75
 30
0.0
 11
20.5
 21
-57.25
 31
0.0
  0
LINE
  5
664B
  8
0
 10
19.775106000000051
 20
-47.5
 30
0.0
 11
15.0
 21
-47.5
 31
0.0
  0
LINE
  5
664C
  8
0
 10
19.775106000000051
 20
-60.5
 30
0.0
 11
15.0
 21
-60.5
 31
0.0
  0
LINE
  5
664D
  8
0
 10
-29.0
 20
-50.0
 30
0.0
 11
-23.5
 21
-50.0
 31
0.0
  0
LINE
  5
664E
  8
0
 10
-23.5
 20
-49.0
 30
0.0
 11
-23.5
 21
-59.0
 31
0.0
  0
LINE
  5
664F
  8
0
 10
-29.0
 20
-50.0
 30
0.0
 11
-29.0
 21
-58.0
 31
0.0
  0
LINE
  5
6650
  8
0
 10
-22.5
 20
-48.0
 30
0.0
 11
-21.499999999999989
 21
-48.0
 31
0.0
  0
LINE
  5
6651
  8
0
 10
-22.5
 20
-60.0
 30
0.0
 11
-21.499999999999989
 21
-60.0
 31
0.0
  0
LINE
  5
6652
  8
0
 10
-21.499999999999989
 20
-60.5
 30
0.0
 11
-21.499999999999989
 21
-47.5
 31
0.0
  0
LINE
  5
6653
  8
0
 10
-21.499999999999989
 20
-60.5
 30
0.0
 11
-15.0
 21
-60.5
 31
0.0
  0
LINE
  5
6654
  8
0
 10
-21.499999999999989
 20
-47.5
 30
0.0
 11
-15.0
 21
-47.5
 31
0.0
  0
LINE
  5
6655
  8
0
 10
-29.0
 20
-58.0
 30
0.0
 11
-23.5
 21
-58.0
 31
0.0
  0
LINE
  5
6656
  8
0
  6
CENTER
 10
-30.651335000000469
 20
-54.0
 30
0.0
 11
27.01125299999967
 21
-54.0
 31
0.0
  0
LINE
  5
6657
  8
0
 10
20.5
 20
50.75
 30
0.0
 11
20.5
 21
57.25
 31
0.0
  0
LINE
  5
6658
  8
0
 10
19.775106000000051
 20
47.5
 30
0.0
 11
15.0
 21
47.5
 31
0.0
  0
LINE
  5
6659
  8
0
 10
19.775106000000051
 20
60.5
 30
0.0
 11
15.0
 21
60.5
 31
0.0
  0
LINE
  5
665A
  8
0
 10
15.0
 20
43.221087999999781
 30
0.0
 11
15.0
 21
61.0
 31
0.0
  0
ARC
  5
665B
  8
0
 10
0.0
 20
0.0
 30
0.0
 40
45.75
 50
273.7597999999735
 51
90.0
  0
ARC
  5
665C
  8
0
 10
0.0
 20
0.0
 30
0.0
 40
35.75
 50
289.98211604244591
 51
85.186299999973102
  0
ARC
  5
665D
  8
0
 10
0.0
 20
0.0
 30
0.0
 40
37.75
 50
274.8136979999656
 51
90.0
  0
ARC
  5
665E
  8
0
 10
0.0
 20
0.0
 30
0.0
 40
35.75
 50
94.813700000026884
 51
250.01788395755401
  0
ARC
  5
665F
  8
0
 10
0.0
 20
0.0
 30
0.0
 40
37.75
 50
94.813700000026884
 51
265.18630399999182
  0
ARC
  5
6660
  8
0
 10
0.0
 20
0.0
 30
0.0
 40
45.75
 50
93.759799999973637
 51
266.24020200004759
  0
ARC
  5
6661
  8
0
 10
-22.5
 20
49.0
 30
0.0
 40
1.0
 50
179.99998999999889
 51
269.99999599991622
  0
ARC
  5
6662
  8
0
 10
-22.5
 20
59.0
 30
0.0
 40
1.0
 50
90.0
 51
180.00000500893739
  0
ARC
  5
6663
  8
0
 10
-13.85200500000064
 20
57.25
 30
0.0
 40
7.647994999999999
 50
154.85263000003621
 51
205.1473750000074
  0
ARC
  5
6664
  8
0
 10
-13.85200500000064
 20
50.75
 30
0.0
 40
7.647994999999999
 50
154.85263000003621
 51
205.1473679999751
  0
ARC
  5
6665
  8
0
 10
-22.647995000000261
 20
57.25
 30
0.0
 40
7.647994999999999
 50
334.85263000003619
 51
25.14736999996374
  0
ARC
  5
6666
  8
0
 10
-22.647995000000261
 20
50.75
 30
0.0
 40
7.647994999999999
 50
334.85263000003619
 51
25.14736999996374
  0
ARC
  5
6667
  8
0
 10
12.85200499999973
 20
-50.75
 30
0.0
 40
7.6479945000000011
 50
334.85263000003619
 51
25.14736999996374
  0
ARC
  5
6668
  8
0
 10
12.85200499999973
 20
-57.25
 30
0.0
 40
7.6479945000000011
 50
334.85263000003619
 51
25.14736999996374
  0
ARC
  5
6669
  8
0
 10
-22.5
 20
-49.0
 30
0.0
 40
1.0
 50
90.0
 51
180.00000500893739
  0
ARC
  5
666A
  8
0
 10
-22.5
 20
-59.0
 30
0.0
 40
1.0
 50
179.99998999999889
 51
269.99999599991622
  0
ARC
  5
666B
  8
0
 10
-13.85200500000064
 20
-57.25
 30
0.0
 40
7.647994999999999
 50
154.85261999999599
 51
205.14737199999951
  0
ARC
  5
666C
  8
0
 10
-13.85200500000064
 20
-50.75
 30
0.0
 40
7.647994999999999
 50
154.85263000003621
 51
205.14737199999951
  0
ARC
  5
666D
  8
0
 10
-22.647995000000261
 20
-57.25
 30
0.0
 40
7.647994999999999
 50
334.85263000003619
 51
25.14736999996374
  0
ARC
  5
666E
  8
0
 10
-22.647995000000261
 20
-50.75
 30
0.0
 40
7.647994999999999
 50
334.85263000003619
 51
25.14736999996374
  0
ARC
  5
666F
  8
0
 10
12.85200499999973
 20
50.75
 30
0.0
 40
7.6479945000000011
 50
334.85263000003619
 51
25.14736999996374
  0
ARC
  5
6670
  8
0
 10
12.85200499999973
 20
57.25
 30
0.0
 40
7.6479945000000011
 50
334.85263000003619
 51
25.14736999996374
  0
LINE
  5
6671
  8
0
  6
CENTER
 10
0.0
 20
-103.0000000000047
 30
0.0
 11
0.0
 21
103.0000000000047
 31
0.0
  0
LINE
  5
6672
  8
0
  6
CENTER
 10
-61.036160705143622
 20
0.0
 30
0.0
 11
61.036160705143622
 21
0.0
 31
0.0
  0
ARC
  5
6673
  8
AM_0_T3
 10
0.0
 20
0.0
 30
0.0
 40
27.999999999995229
 50
334.35813633835289
 51
205.64186366164699
  0
LINE
  5
6674
  8
0
 10
24.299999999999269
 20
-79.00000000000432
 30
0.0
 11
24.300000000001091
 21
-38.763030067320187
 31
0.0
  0
LINE
  5
6675
  8
0
 10
-70.0
 20
-79.000000000004775
 30
0.0
 11
70.0
 21
-79.000000000004775
 31
0.0
  0
LINE
  5
6676
  8
0
 10
70.0
 20
-95.000000000004775
 30
0.0
 11
-70.0
 21
-95.000000000004775
 31
0.0
  0
LINE
  5
6677
  8
0
 10
70.0
 20
-79.000000000004775
 30
0.0
 11
70.0
 21
-95.000000000004775
 31
0.0
  0
LINE
  5
6678
  8
0
  6
CENTER
 10
52.5
 20
-103.0000000000047
 30
0.0
 11
52.5
 21
-69.000000000004775
 31
0.0
  0
LINE
  5
6679
  8
0
 10
-24.300000000000178
 20
-79.00000000000432
 30
0.0
 11
-24.300000000000178
 21
-58.0
 31
0.0
  0
LINE
  5
667A
  8
0
 10
-24.300000000000178
 20
-49.999999999999773
 30
0.0
 11
-24.300000000000178
 21
-38.763030067320408
 31
0.0
  0
LINE
  5
667B
  8
0
  6
CENTER
 10
-52.5
 20
-103.0000000000047
 30
0.0
 11
-52.5
 21
-69.000000000004775
 31
0.0
  0
LINE
  5
667C
  8
0
 10
-70.0
 20
-95.000000000004775
 30
0.0
 11
-70.0
 21
-79.000000000004775
 31
0.0
  0
LINE
  5
667D
  8
0
 10
24.299999999999269
 20
79.00000000000432
 30
0.0
 11
24.300000000001091
 21
38.763030067320187
 31
0.0
  0
LINE
  5
667E
  8
0
 10
-70.0
 20
79.000000000004775
 30
0.0
 11
70.0
 21
79.000000000004775
 31
0.0
  0
LINE
  5
667F
  8
0
 10
70.0
 20
95.000000000004775
 30
0.0
 11
-70.0
 21
95.000000000004775
 31
0.0
  0
LINE
  5
6680
  8
0
 10
70.0
 20
79.000000000004775
 30
0.0
 11
70.0
 21
95.000000000004775
 31
0.0
  0
LINE
  5
6681
  8
0
  6
CENTER
 10
52.5
 20
103.0000000000047
 30
0.0
 11
52.5
 21
69.000000000004775
 31
0.0
  0
LINE
  5
6682
  8
0
 10
-24.300000000000178
 20
79.00000000000432
 30
0.0
 11
-24.300000000000178
 21
58.0
 31
0.0
  0
LINE
  5
6683
  8
0
 10
-24.300000000000178
 20
50.0
 30
0.0
 11
-24.300000000000178
 21
38.763030067320408
 31
0.0
  0
LINE
  5
6684
  8
0
  6
CENTER
 10
-52.5
 20
103.0000000000047
 30
0.0
 11
-52.5
 21
69.000000000004775
 31
0.0
  0
LINE
  5
6685
  8
0
 10
-70.0
 20
95.000000000004775
 30
0.0
 11
-70.0
 21
79.000000000004775
 31
0.0
  0
LINE
  5
6686
  8
0
  6
CENTER
 10
-30.518080352571811
 20
-11.5
 30
0.0
 11
30.518080352571811
 21
-11.5
 31
0.0
  0
CIRCLE
  5
6687
  8
AM_0_T3
 10
0.0
 20
-11.5
 30
0.0
 40
25.25
  0
CIRCLE
  5
6688
  8
AM_0_T3
 10
0.0
 20
-11.5
 30
0.0
 40
12.70000000000004
  0
ENDSEC
  0
EOF
