  0
SECTION
  2
HEADER
  9
$ACADVER
  1
AC1009
  9
$INSBASE
 10
0.0
 20
0.0
 30
0.0
  9
$EXTMIN
 10
-62.5
 20
-105.0000000000109
 30
0.0
  9
$EXTMAX
 10
2282.5999922979909
 20
588.2813975037534
 30
0.0
  9
$LIMMIN
 10
0.0
 20
0.0
  9
$LIMMAX
 10
420.0
 20
297.0
  9
$ORTHOMODE
 70
     0
  9
$REGENMODE
 70
     1
  9
$FILLMODE
 70
     1
  9
$QTEXTMODE
 70
     0
  9
$MIRRTEXT
 70
     1
  9
$DRAGMODE
 70
     2
  9
$LTSCALE
 40
1.0
  9
$OSMODE
 70
    37
  9
$ATTMODE
 70
     1
  9
$TEXTSIZE
 40
73.985717453579113
  9
$TRACEWID
 40
1.0
  9
$TEXTSTYLE
  7
STANDARD
  9
$CLAYER
  8
0
  9
$CELTYPE
  6
BYLAYER
  9
$CECOLOR
 62
   256
  9
$DIMSCALE
 40
1.0
  9
$DIMASZ
 40
3.0
  9
$DIMEXO
 40
1.0
  9
$DIMDLI
 40
10.0
  9
$DIMRND
 40
0.0
  9
$DIMDLE
 40
0.0
  9
$DIMEXE
 40
1.0
  9
$DIMTP
 40
0.1
  9
$DIMTM
 40
0.1
  9
$DIMTXT
 40
30.0
  9
$DIMCEN
 40
0.0
  9
$DIMTSZ
 40
0.0
  9
$DIMTOL
 70
     0
  9
$DIMLIM
 70
     0
  9
$DIMTIH
 70
     0
  9
$DIMTOH
 70
     0
  9
$DIMSE1
 70
     0
  9
$DIMSE2
 70
     0
  9
$DIMTAD
 70
     3
  9
$DIMZIN
 70
     8
  9
$DIMBLK
  1
OPEN
  9
$DIMASO
 70
     1
  9
$DIMSHO
 70
     1
  9
$DIMPOST
  1

  9
$DIMAPOST
  1
"
  9
$DIMALT
 70
     0
  9
$DIMALTD
 70
     2
  9
$DIMALTF
 40
0.0393701
  9
$DIMLFAC
 40
1.0
  9
$DIMTOFL
 70
     1
  9
$DIMTVP
 40
0.0
  9
$DIMTIX
 70
     0
  9
$DIMSOXD
 70
     0
  9
$DIMSAH
 70
     0
  9
$DIMBLK1
  1

  9
$DIMBLK2
  1

  9
$DIMSTYLE
  2
TSK
  9
$DIMCLRD
 70
   256
  9
$DIMCLRE
 70
   256
  9
$DIMCLRT
 70
     2
  9
$DIMTFAC
 40
0.71
  9
$DIMGAP
 40
1.5
  9
$LUNITS
 70
     2
  9
$LUPREC
 70
     8
  9
$SKETCHINC
 40
1.0
  9
$FILLETRAD
 40
0.0
  9
$AUNITS
 70
     0
  9
$AUPREC
 70
     8
  9
$MENU
  1
.
  9
$ELEVATION
 40
0.0
  9
$PELEVATION
 40
0.0
  9
$THICKNESS
 40
0.0
  9
$LIMCHECK
 70
     0
  9
$BLIPMODE
 70
     0
  9
$CHAMFERA
 40
2.5
  9
$CHAMFERB
 40
2.5
  9
$SKPOLY
 70
     0
  9
$TDCREATE
 40
2454739.7204081588
  9
$TDUPDATE
 40
2454748.5624359259
  9
$TDINDWG
 40
0.2617518866
  9
$TDUSRTIMER
 40
0.2617518866
  9
$USRTIMER
 70
     1
  9
$ANGBASE
 50
0.0
  9
$ANGDIR
 70
     1
  9
$PDMODE
 70
     0
  9
$PDSIZE
 40
0.0
  9
$PLINEWID
 40
0.0
  9
$COORDS
 70
     1
  9
$SPLFRAME
 70
     0
  9
$SPLINETYPE
 70
     6
  9
$SPLINESEGS
 70
     8
  9
$ATTDIA
 70
     0
  9
$ATTREQ
 70
     1
  9
$HANDLING
 70
 22529
  9
$HANDSEED
  5
6702
  9
$SURFTAB1
 70
     6
  9
$SURFTAB2
 70
     6
  9
$SURFTYPE
 70
     6
  9
$SURFU
 70
     6
  9
$SURFV
 70
     6
  9
$UCSNAME
  2

  9
$UCSORG
 10
0.0
 20
0.0
 30
0.0
  9
$UCSXDIR
 10
1.0
 20
0.0
 30
0.0
  9
$UCSYDIR
 10
0.0
 20
1.0
 30
0.0
  9
$PUCSNAME
  2

  9
$PUCSORG
 10
0.0
 20
0.0
 30
0.0
  9
$PUCSXDIR
 10
1.0
 20
0.0
 30
0.0
  9
$PUCSYDIR
 10
0.0
 20
1.0
 30
0.0
  9
$USERI1
 70
     0
  9
$USERI2
 70
     0
  9
$USERI3
 70
     0
  9
$USERI4
 70
     0
  9
$USERI5
 70
     0
  9
$USERR1
 40
0.0
  9
$USERR2
 40
0.0
  9
$USERR3
 40
0.0
  9
$USERR4
 40
0.0
  9
$USERR5
 40
0.0
  9
$WORLDVIEW
 70
     1
  9
$SHADEDGE
 70
     3
  9
$SHADEDIF
 70
    70
  9
$TILEMODE
 70
     1
  9
$MAXACTVP
 70
    48
  9
$PLIMCHECK
 70
     0
  9
$PEXTMIN
 10
1.0000000000000000E+020
 20
1.0000000000000000E+020
 30
1.0000000000000000E+020
  9
$PEXTMAX
 10
-1.0000000000000000E+020
 20
-1.0000000000000000E+020
 30
-1.0000000000000000E+020
  9
$PLIMMIN
 10
0.0
 20
0.0
  9
$PLIMMAX
 10
420.0
 20
297.0
  9
$UNITMODE
 70
     0
  9
$VISRETAIN
 70
     1
  9
$PLINEGEN
 70
     0
  9
$PSLTSCALE
 70
     1
  0
ENDSEC
  0
SECTION
  2
TABLES
  0
TABLE
  2
VPORT
 70
     2
  0
VPORT
  2
*ACTIVE
 70
     0
 10
0.0
 20
0.0
 11
1.0
 21
1.0
 12
1354.545426930267
 22
241.637489245007
 13
0.0
 23
0.0
 14
2.5
 24
2.5
 15
10.0
 25
10.0
 16
0.0
 26
0.0
 36
1.0
 17
0.0
 27
0.0
 37
0.0
 40
1538.731538551023
 41
1.8496503496503489
 42
50.0
 43
0.0
 44
0.0
 50
0.0
 51
0.0
 71
     0
 72
   100
 73
     1
 74
     3
 75
     0
 76
     0
 77
     0
 78
     0
  0
ENDTAB
  0
TABLE
  2
LTYPE
 70
     2
  0
LTYPE
  2
CONTINUOUS
 70
     0
  3
Solid line
 72
    65
 73
     0
 40
0.0
  0
LTYPE
  2
CENTER
 70
     0
  3
__ . __
 72
    65
 73
     4
 40
7.0
 49
4.0
 49
-1.0
 49
1.0
 49
-1.0
  0
ENDTAB
  0
TABLE
  2
LAYER
 70
     2
  0
LAYER
  2
0
 70
     0
 62
     7
  6
CONTINUOUS
  0
LAYER
  2
AM_0_T3
 70
     0
 62
     7
  6
CONTINUOUS
  0
ENDTAB
  0
TABLE
  2
STYLE
 70
     2
  0
STYLE
  2
STANDARD
 70
     0
 40
0.0
 41
0.7
 50
0.0
 71
     0
 42
73.985717453579113
  3
romans.shx
  4
bigfont.shx
  0
STYLE
  2
TSKDIM
 70
     0
 40
0.0
 41
0.75
 50
0.0
 71
     0
 42
4.0
  3
romans.shx
  4
EXTFONT.SHX
  0
ENDTAB
  0
TABLE
  2
VIEW
 70
     0
  0
ENDTAB
  0
TABLE
  2
UCS
 70
     0
  0
ENDTAB
  0
TABLE
  2
APPID
 70
    41
  0
APPID
  2
ACAD
 70
     0
  0
APPID
  2
MCAD_NO_VIS
 70
     0
  0
APPID
  2
ACAD_TEMP_GRAPHIC
 70
     0
  0
APPID
  2
ACATTRIBSERVICES
 70
     0
  0
APPID
  2
AD_DRAW
 70
     0
  0
APPID
  2
DESIGNERASSEMBLIES
 70
     0
  0
APPID
  2
ASURF_PCURVE_APPNAME
 70
     0
  0
APPID
  2
ACADM_DIM_EDIT
 70
     0
  0
APPID
  2
GENIUS_GENDIM_13
 70
     0
  0
APPID
  2
GENIUS_GENDTOL_13
 70
     0
  0
APPID
  2
GENIUS_GE3DTOL_13
 70
     0
  0
APPID
  2
AMG_3D2D_5_0
 70
     0
  0
APPID
  2
AMDT_DM_ADJ
 70
     0
  0
APPID
  2
CK_MATE-SERIES
 70
     0
  0
APPID
  2
GEVID1042077799
 70
     0
  0
APPID
  2
GEVMK
 70
     0
  0
APPID
  2
GEVDC
 70
     0
  0
APPID
  2
GENIUS_GENBH_13
 70
     0
  0
APPID
  2
GENIUS_GENOLIS_13
 70
     0
  0
APPID
  2
GENIUS_GENOENT_13
 70
     0
  0
APPID
  2
GENIUS_GENODEF_13
 70
     0
  0
APPID
  2
GENIUS_GENOBJ-NBEHI-BHF_13
 70
     0
  0
APPID
  2
GENIUS_GENOREF_13
 70
     0
  0
APPID
  2
GENIUS_GENOBJ-NBEHI-BHB_13
 70
     0
  0
APPID
  2
GEVID1042183772
 70
     0
  0
APPID
  2
GEVID1042183773
 70
     0
  0
APPID
  2
GEVID1042183774
 70
     0
  0
APPID
  2
DCO15
 70
     0
  0
APPID
  2
ACAD_DSTYLE_DIMARC_LENGTH_
 70
     0
  0
APPID
  2
ACAD_DSTYLE_DIMJOGGED_JOGA
 70
     0
  0
APPID
  2
ACAD_MLEADERVER
 70
     0
  0
APPID
  2
ACAD_DSTYLE_DIMJAG
 70
     0
  0
APPID
  2
ACAD_DSTYLE_DIMTALN
 70
     0
  0
APPID
  2
ACAD_PSEXT
 70
     0
  0
APPID
  2
ACAD_EXEMPT_FROM_CAD_STANDARDS
 70
     0
  0
APPID
  2
ACAD_DSTYLE_DIMINSPECT
 70
     0
  0
APPID
  2
ACAD_DSTYLE_DIMANGULAR_EXT
 70
     0
  0
APPID
  2
GENIUS_GENOBJ-N-FIL_13
 70
     0
  0
APPID
  2
ACAD_DSTYLE_DIM_LINETYPE
 70
     0
  0
APPID
  2
ACAD_DSTYLE_DIM_EXT1_LINETYPE
 70
     0
  0
APPID
  2
ACAD_DSTYLE_DIM_EXT2_LINETYPE
 70
     0
  0
ENDTAB
  0
TABLE
  2
DIMSTYLE
 70
     1
  0
DIMSTYLE
  2
TSK
 70
     0
  3

  4
"
  5
OPEN
  6

  7

 40
1.0
 41
3.0
 42
1.0
 43
10.0
 44
1.0
 45
0.0
 46
0.0
 47
0.1
 48
0.1
140
30.0
141
0.0
142
0.0
143
0.0393701
144
1.0
145
0.0
146
0.71
147
1.5
 71
     0
 72
     0
 73
     0
 74
     0
 75
     0
 76
     0
 77
     3
 78
     8
170
     0
171
     2
172
     1
173
     0
174
     0
175
     0
176
   256
177
   256
178
     2
  0
ENDTAB
  0
ENDSEC
  0
SECTION
  2
BLOCKS
  0
BLOCK
  8
0
  2
$MODEL_SPACE
 70
     0
 10
0.0
 20
0.0
 30
0.0
  3
$MODEL_SPACE
  1

  0
ENDBLK
  5
21
  8
0
  0
BLOCK
 67
     1
  8
0
  2
$PAPER_SPACE
 70
     0
 10
0.0
 20
0.0
 30
0.0
  3
$PAPER_SPACE
  1

  0
ENDBLK
  5
1D
 67
     1
  8
0
  0
BLOCK
  8
0
  2
_OPEN
 70
     0
 10
0.0
 20
0.0
 30
0.0
  3
_OPEN
  1

  0
LINE
  5
15A
  8
0
  6
BYBLOCK
 62
     0
 10
-1.0
 20
0.1666666666666666
 30
0.0
 11
0.0
 21
0.0
 31
0.0
  0
LINE
  5
15B
  8
0
  6
BYBLOCK
 62
     0
 10
-1.0
 20
-0.1666666666666666
 30
0.0
 11
0.0
 21
0.0
 31
0.0
  0
LINE
  5
15C
  8
0
  6
BYBLOCK
 62
     0
 10
0.0
 20
0.0
 30
0.0
 11
-1.0
 21
0.0
 31
0.0
  0
ENDBLK
  5
15E
  8
0
  0
ENDSEC
  0
SECTION
  2
ENTITIES
  0
LINE
  5
1BE1
  8
0
 10
261.95124957693582
 20
-95.000000000010459
 30
0.0
 11
261.95124957693582
 21
-81.000000000010445
 31
0.0
  0
LINE
  5
1BE2
  8
0
  6
CENTER
 10
279.45124957693588
 20
-104.0000000000113
 30
0.0
 11
279.45124957693588
 21
-71.000000000011369
 31
0.0
  0
LINE
  5
1BE3
  8
0
  6
CENTER
 10
369.45124957693582
 20
-104.0000000000113
 30
0.0
 11
369.45124957693582
 21
-71.000000000011369
 31
0.0
  0
LINE
  5
1BE4
  8
0
 10
386.95124957693582
 20
-81.000000000011354
 30
0.0
 11
386.95124957693582
 21
-95.000000000011354
 31
0.0
  0
LINE
  5
1BE5
  8
0
 10
386.95124957693582
 20
-95.000000000011354
 30
0.0
 11
261.95124957693582
 21
-95.000000000010459
 31
0.0
  0
LINE
  5
1BE6
  8
0
 10
261.95124957693582
 20
-81.000000000010445
 30
0.0
 11
386.95124957693582
 21
-81.000000000011354
 31
0.0
  0
LINE
  5
1C2C
  8
0
 10
1202.4804022224671
 20
-41.500000000003631
 30
0.0
 11
1268.4220969314019
 21
-41.500000000003631
 31
0.0
  0
LINE
  5
1C2D
  8
0
 10
1198.751249576934
 20
-35.04091814876346
 30
0.0
 11
1202.4804022224671
 21
-41.500000000003631
 31
0.0
  0
LINE
  5
1C2E
  8
0
 10
1272.1512495769341
 20
-31.75000000000318
 30
0.0
 11
2228.701249576935
 21
-31.75000000000318
 31
0.0
  0
LINE
  5
1C2F
  8
0
 10
1205.451249576935
 20
41.49999999999681
 30
0.0
 11
1205.451249576935
 21
-41.500000000003631
 31
0.0
  0
LINE
  5
1C30
  8
0
 10
1265.4512495769341
 20
41.49999999999681
 30
0.0
 11
1265.4512495769341
 21
-41.500000000003631
 31
0.0
  0
LINE
  5
1C31
  8
0
 10
1255.701249576935
 20
-41.500000000003631
 30
0.0
 11
1255.701249576935
 21
41.499999999996362
 31
0.0
  0
LINE
  5
1C32
  8
0
 10
1260.201249576935
 20
-41.500000000003631
 30
0.0
 11
1260.201249576935
 21
41.49999999999681
 31
0.0
  0
LINE
  5
1C33
  8
0
 10
1246.701249576935
 20
-41.500000000003631
 30
0.0
 11
1246.701249576935
 21
41.499999999996362
 31
0.0
  0
LINE
  5
1C34
  8
0
 10
1251.2012495769361
 20
-41.500000000003631
 30
0.0
 11
1251.2012495769361
 21
41.49999999999681
 31
0.0
  0
LINE
  5
1C35
  8
0
 10
1219.701249576935
 20
-41.500000000003631
 30
0.0
 11
1219.701249576935
 21
41.499999999996362
 31
0.0
  0
LINE
  5
1C36
  8
0
 10
1215.201249576935
 20
-41.500000000003631
 30
0.0
 11
1215.201249576935
 21
41.499999999996362
 31
0.0
  0
LINE
  5
1C37
  8
0
 10
1210.7012495769361
 20
-41.500000000003631
 30
0.0
 11
1210.7012495769361
 21
41.499999999996362
 31
0.0
  0
LINE
  5
1C38
  8
0
 10
1224.201249576935
 20
-41.500000000003631
 30
0.0
 11
1224.201249576935
 21
41.49999999999681
 31
0.0
  0
LINE
  5
1C39
  8
0
 10
1228.7012495769361
 20
-41.500000000003631
 30
0.0
 11
1228.7012495769361
 21
41.499999999996362
 31
0.0
  0
LINE
  5
1C3A
  8
0
 10
1233.201249576935
 20
-41.500000000003631
 30
0.0
 11
1233.201249576935
 21
41.49999999999681
 31
0.0
  0
LINE
  5
1C3B
  8
0
 10
1237.701249576935
 20
-41.500000000003631
 30
0.0
 11
1237.701249576935
 21
41.499999999996362
 31
0.0
  0
LINE
  5
1C3C
  8
0
 10
1242.201249576935
 20
-41.500000000003631
 30
0.0
 11
1242.2012495769341
 21
41.49999999999681
 31
0.0
  0
LINE
  5
1C3D
  8
0
 10
1198.751249576934
 20
35.040918148756639
 30
0.0
 11
1202.4804022224671
 21
41.49999999999681
 31
0.0
  0
LINE
  5
1C3E
  8
0
 10
1198.751249576934
 20
-35.04091814876346
 30
0.0
 11
1198.751249576934
 21
35.040918148756639
 31
0.0
  0
LINE
  5
1C3F
  8
0
 10
1202.4804022224671
 20
41.49999999999681
 30
0.0
 11
1268.4220969314019
 21
41.49999999999681
 31
0.0
  0
LINE
  5
1C40
  8
0
 10
1198.7512495769349
 20
-31.75000000000318
 30
0.0
 11
341.45124957693582
 21
-31.750000000000451
 31
0.0
  0
LINE
  5
1C41
  8
0
 10
307.45124957693582
 20
-31.750000000000451
 30
0.0
 11
242.201249576934
 21
-31.750000000000451
 31
0.0
  0
LINE
  5
1C42
  8
0
 10
1202.4804022224671
 20
-41.500000000002728
 30
0.0
 11
1202.4804022224671
 21
41.49999999999681
 31
0.0
  0
LINE
  5
1C43
  8
0
 10
1272.1512495769341
 20
-35.04091814876346
 30
0.0
 11
1268.4220969314019
 21
-41.500000000003631
 31
0.0
  0
LINE
  5
1C44
  8
0
 10
1272.1512495769341
 20
35.040918148756639
 30
0.0
 11
1268.4220969314019
 21
41.49999999999681
 31
0.0
  0
LINE
  5
1C45
  8
0
 10
1272.1512495769341
 20
-35.04091814876346
 30
0.0
 11
1272.1512495769341
 21
35.040918148756639
 31
0.0
  0
LINE
  5
1C46
  8
AM_0_T3
 10
1268.4220969314019
 20
41.49999999999681
 30
0.0
 11
1268.4220969314019
 21
-41.500000000004547
 31
0.0
  0
LINE
  5
1C47
  8
0
 10
2257.4512505769449
 20
-28.000000000004551
 30
0.0
 11
2244.201249576935
 21
-28.000000000004999
 31
0.0
  0
LINE
  5
1C48
  8
0
 10
2257.4512505769449
 20
27.999999999994991
 30
0.0
 11
2244.201249576935
 21
27.999999999995449
 31
0.0
  0
LINE
  5
1C49
  8
0
 10
2257.4512505769449
 20
-28.000000000004551
 30
0.0
 11
2257.4512505769449
 21
27.999999999994991
 31
0.0
  0
LINE
  5
1C8D
  8
0
 10
2232.6984734537718
 20
60.499999999993634
 30
0.0
 11
2240.2040276537718
 21
60.499999999993634
 31
0.0
  0
LINE
  5
1C8E
  8
0
 10
2240.2040254537719
 20
60.500001999993401
 30
0.0
 11
2243.9568025537719
 21
54.000000999993063
 31
0.0
  0
LINE
  5
1C8F
  8
0
 10
2243.9568048537722
 20
54.000000999993063
 30
0.0
 11
2240.2040277537722
 21
47.500000999993063
 31
0.0
  0
LINE
  5
1C90
  8
0
 10
2240.2040276537718
 20
47.499999999993634
 30
0.0
 11
2232.6984734537718
 21
47.499999999993634
 31
0.0
  0
LINE
  5
1C91
  8
0
 10
2228.9456952537721
 20
54.000000999993063
 30
0.0
 11
2232.6984723537712
 21
47.500000999993063
 31
0.0
  0
LINE
  5
1C92
  8
0
 10
2232.6984713537722
 20
60.50000299999374
 30
0.0
 11
2228.9456942537722
 21
54.00000299999374
 31
0.0
  0
LINE
  5
1C93
  8
0
 10
2240.204026653772
 20
-60.500000000006359
 30
0.0
 11
2232.698472453772
 21
-60.500000000006359
 31
0.0
  0
LINE
  5
1C94
  8
0
 10
2232.6984746537719
 20
-60.500002000006589
 30
0.0
 11
2228.9456975537719
 21
-54.000001000006712
 31
0.0
  0
LINE
  5
1C95
  8
0
 10
2228.9456952537721
 20
-54.000001000006712
 30
0.0
 11
2232.6984723537712
 21
-47.500001000006698
 31
0.0
  0
LINE
  5
1C96
  8
0
 10
2243.9568048537722
 20
-54.000001000006712
 30
0.0
 11
2240.2040277537722
 21
-47.500001000006698
 31
0.0
  0
LINE
  5
1C97
  8
0
 10
2240.2040287537729
 20
-60.500003000006473
 30
0.0
 11
2243.956805853772
 21
-54.000003000006473
 31
0.0
  0
LINE
  5
1C98
  8
0
 10
2232.698472453772
 20
-47.500000000006359
 30
0.0
 11
2240.204026653772
 21
-47.500000000006359
 31
0.0
  0
LINE
  5
1C99
  8
0
  6
CENTER
 10
2226.4512500537721
 20
-54.000000000006366
 30
0.0
 11
2246.4512500537721
 21
-54.000000000006366
 31
0.0
  0
LINE
  5
1C9A
  8
0
  6
CENTER
 10
2236.4512505306088
 20
-64.000000000006366
 30
0.0
 11
2236.4512505306088
 21
-44.000000000006366
 31
0.0
  0
LINE
  5
1C9B
  8
0
  6
CENTER
 10
2226.4512490537718
 20
53.999999999993634
 30
0.0
 11
2246.4512490537732
 21
53.999999999993634
 31
0.0
  0
LINE
  5
1C9C
  8
0
  6
CENTER
 10
2236.451249576935
 20
43.999999999993634
 30
0.0
 11
2236.451249576935
 21
63.999999999993634
 31
0.0
  0
LINE
  5
1C9D
  8
0
 10
2244.201249576935
 20
-37.630605894677501
 30
0.0
 11
2244.201249576935
 21
37.630605894663859
 31
0.0
  0
LINE
  5
1C9E
  8
0
 10
2228.701249576935
 20
-37.630605894677501
 30
0.0
 11
2228.701249576935
 21
37.630605894663859
 31
0.0
  0
LINE
  5
1CA1
  8
0
 10
2231.6130114510638
 20
-48.941200553756971
 30
0.0
 11
2231.6130114510638
 21
48.941200553744238
 31
0.0
  0
ARC
  5
1CA2
  8
0
 10
2236.451249576935
 20
53.999999999993634
 30
0.0
 40
7.0
 50
313.72333522200631
 51
351.78676740868173
  0
ARC
  5
1CA3
  8
0
 10
2236.451249576935
 20
53.999999999993634
 30
0.0
 40
7.0
 50
8.2132124140915685
 51
51.786784583412171
  0
ARC
  5
1CA4
  8
0
 10
2236.451249576935
 20
53.999999999993634
 30
0.0
 40
7.0
 50
68.213210701756054
 51
111.7867892982439
  0
ARC
  5
1CA5
  8
0
 10
2236.451249576935
 20
53.999999999993634
 30
0.0
 40
7.0
 50
128.21327295116919
 51
171.78672241756109
  0
ARC
  5
1CA6
  8
0
 10
2236.451249576935
 20
53.999999999993634
 30
0.0
 40
7.0
 50
188.21321437744899
 51
226.2766589223601
  0
LINE
  5
1CA7
  8
0
 10
2241.2894974274741
 20
-48.941209854453518
 30
0.0
 11
2241.2894871857952
 21
48.941200059275609
 31
0.0
  0
LINE
  5
1CA8
  8
0
 10
2231.6130114510638
 20
43.22108860266507
 30
0.0
 11
2241.289487784305
 21
43.22108860266507
 31
0.0
  0
LINE
  5
1CA9
  8
0
 10
2228.701249576935
 20
37.630605894663859
 30
0.0
 11
2231.6130114510638
 21
45.651533380592809
 31
0.0
  0
LINE
  5
1CAA
  8
0
 10
2244.201249576935
 20
37.630605894663859
 30
0.0
 11
2241.2894877028039
 21
45.651533380592809
 31
0.0
  0
ARC
  5
1CAB
  8
0
 10
2236.451249576935
 20
-54.000000000006366
 30
0.0
 40
7.0
 50
133.7233410776397
 51
171.78678562255089
  0
ARC
  5
1CAC
  8
0
 10
2236.451249576935
 20
-54.000000000006366
 30
0.0
 40
7.0
 50
188.2131942002481
 51
231.78680279724071
  0
ARC
  5
1CAD
  8
0
 10
2236.451249576935
 20
-54.000000000006366
 30
0.0
 40
7.0
 50
248.213210701756
 51
291.78678929824389
  0
ARC
  5
1CAE
  8
0
 10
2236.451249576935
 20
-54.000000000006366
 30
0.0
 40
7.0
 50
308.21329116507093
 51
351.78670420363278
  0
ARC
  5
1CAF
  8
0
 10
2236.451249576935
 20
-54.000000000006366
 30
0.0
 40
7.0
 50
8.2132325913182846
 51
46.276548781003392
  0
LINE
  5
1CB0
  8
0
 10
2231.6130114510638
 20
-43.221088602678719
 30
0.0
 11
2241.289487784305
 21
-43.221088602678719
 31
0.0
  0
LINE
  5
1CB1
  8
0
 10
2228.701249576935
 20
-37.630605894677501
 30
0.0
 11
2231.6130114510638
 21
-45.651533380606452
 31
0.0
  0
LINE
  5
1CB2
  8
0
 10
2244.201249576935
 20
-37.630605894677501
 30
0.0
 11
2241.2894877028039
 21
-45.651533380606452
 31
0.0
  0
LINE
  5
1CB3
  8
0
 10
1198.751249576934
 20
31.749999999996358
 30
0.0
 11
242.201249576934
 21
31.74999999999363
 31
0.0
  0
LINE
  5
1CB5
  8
0
 10
213.4512485769246
 20
-28.000000000004551
 30
0.0
 11
226.701249576934
 21
-28.000000000004999
 31
0.0
  0
LINE
  5
1CB6
  8
0
 10
213.4512485769246
 20
27.999999999994991
 30
0.0
 11
226.701249576934
 21
27.999999999995449
 31
0.0
  0
LINE
  5
1CB7
  8
0
 10
213.4512485769246
 20
-28.000000000004551
 30
0.0
 11
213.4512485769246
 21
27.999999999994991
 31
0.0
  0
LINE
  5
1CB8
  8
0
 10
238.20402570009711
 20
60.499999999993634
 30
0.0
 11
230.69847150009619
 21
60.499999999993634
 31
0.0
  0
LINE
  5
1CB9
  8
0
 10
230.6984737000966
 20
60.500001999993401
 30
0.0
 11
226.9456966000962
 21
54.000000999993063
 31
0.0
  0
LINE
  5
1CBA
  8
0
 10
226.94569430009679
 20
54.000000999993063
 30
0.0
 11
230.6984714000973
 21
47.500000999993063
 31
0.0
  0
LINE
  5
1CBB
  8
0
 10
230.69847150009619
 20
47.499999999993634
 30
0.0
 11
238.20402570009711
 21
47.499999999993634
 31
0.0
  0
LINE
  5
1CBC
  8
0
 10
241.9568039000969
 20
54.000000999993063
 30
0.0
 11
238.20402680009639
 21
47.500000999993063
 31
0.0
  0
LINE
  5
1CBD
  8
0
 10
238.2040278000967
 20
60.50000299999374
 30
0.0
 11
241.95680490009721
 21
54.00000299999374
 31
0.0
  0
LINE
  5
1CBE
  8
0
 10
230.69847250009661
 20
-60.500000000006359
 30
0.0
 11
238.20402670009659
 21
-60.500000000006359
 31
0.0
  0
LINE
  5
1CBF
  8
0
 10
238.20402450009709
 20
-60.500002000006589
 30
0.0
 11
241.9568016000967
 21
-54.000001000006712
 31
0.0
  0
LINE
  5
1CC0
  8
0
 10
241.9568039000969
 20
-54.000001000006712
 30
0.0
 11
238.20402680009639
 21
-47.500001000006698
 31
0.0
  0
LINE
  5
1CC1
  8
0
 10
226.94569430009679
 20
-54.000001000006712
 30
0.0
 11
230.6984714000973
 21
-47.500001000006698
 31
0.0
  0
LINE
  5
1CC2
  8
0
 10
230.69847040009691
 20
-60.500003000006473
 30
0.0
 11
226.94569330009651
 21
-54.000003000006473
 31
0.0
  0
LINE
  5
1CC3
  8
0
 10
238.20402670009659
 20
-47.500000000006359
 30
0.0
 11
230.69847250009661
 21
-47.500000000006359
 31
0.0
  0
LINE
  5
1CC4
  8
0
  6
CENTER
 10
244.4512491000969
 20
-54.000000000006366
 30
0.0
 11
224.4512491000969
 21
-54.000000000006366
 31
0.0
  0
LINE
  5
1CC5
  8
0
  6
CENTER
 10
234.45124862325969
 20
-64.000000000006366
 30
0.0
 11
234.45124862325969
 21
-44.000000000006366
 31
0.0
  0
LINE
  5
1CC6
  8
0
  6
CENTER
 10
244.45125010009721
 20
53.999999999993634
 30
0.0
 11
224.45125010009721
 21
53.999999999993634
 31
0.0
  0
LINE
  5
1CC7
  8
0
  6
CENTER
 10
234.451249576934
 20
43.999999999993634
 30
0.0
 11
234.451249576934
 21
63.999999999993634
 31
0.0
  0
LINE
  5
1CC8
  8
0
 10
226.701249576934
 20
-37.630605894677501
 30
0.0
 11
226.701249576934
 21
37.630605894663859
 31
0.0
  0
LINE
  5
1CC9
  8
0
 10
242.201249576934
 20
-37.630605894677501
 30
0.0
 11
242.201249576934
 21
37.630605894663859
 31
0.0
  0
LINE
  5
1CCA
  8
0
 10
239.28948770280471
 20
-48.941200553756971
 30
0.0
 11
239.28948770280471
 21
48.941200553744238
 31
0.0
  0
ARC
  5
1CCB
  8
0
 10
234.451249576934
 20
53.999999999993634
 30
0.0
 40
7.0
 50
188.21323259131819
 51
226.27666477797561
  0
ARC
  5
1CCC
  8
0
 10
234.451249576934
 20
53.999999999993634
 30
0.0
 40
7.0
 50
128.21321541658779
 51
171.7867875859084
  0
ARC
  5
1CCD
  8
0
 10
234.451249576934
 20
53.999999999993634
 30
0.0
 40
7.0
 50
68.213210701756054
 51
111.7867892982439
  0
ARC
  5
1CCE
  8
0
 10
234.451249576934
 20
53.999999999993634
 30
0.0
 40
7.0
 50
8.2132775824388702
 51
51.786727048846899
  0
ARC
  5
1CCF
  8
0
 10
234.451249576934
 20
53.999999999993634
 30
0.0
 40
7.0
 50
313.7233410776397
 51
351.78678562255089
  0
LINE
  5
1CD0
  8
0
 10
229.61300172639491
 20
-48.941209854453518
 30
0.0
 11
229.61301196807369
 21
48.941200059275609
 31
0.0
  0
LINE
  5
1CD1
  8
0
 10
239.28948770280471
 20
43.22108860266507
 30
0.0
 11
229.61301136956439
 21
43.22108860266507
 31
0.0
  0
LINE
  5
1CD2
  8
0
 10
242.201249576934
 20
37.630605894663859
 30
0.0
 11
239.28948770280471
 21
45.651533380592809
 31
0.0
  0
LINE
  5
1CD3
  8
0
 10
226.701249576934
 20
37.630605894663859
 30
0.0
 11
229.6130114510633
 21
45.651533380592809
 31
0.0
  0
ARC
  5
1CD4
  8
0
 10
234.451249576934
 20
-54.000000000006366
 30
0.0
 40
7.0
 50
8.2132143774490807
 51
46.27665892236022
  0
ARC
  5
1CD5
  8
0
 10
234.451249576934
 20
-54.000000000006366
 30
0.0
 40
7.0
 50
308.21319720275932
 51
351.78680579975179
  0
ARC
  5
1CD6
  8
0
 10
234.451249576934
 20
-54.000000000006366
 30
0.0
 40
7.0
 50
248.213210701756
 51
291.78678929824389
  0
ARC
  5
1CD7
  8
0
 10
234.451249576934
 20
-54.000000000006366
 30
0.0
 40
7.0
 50
188.21329579636711
 51
231.78670883492899
  0
ARC
  5
1CD8
  8
0
 10
234.451249576934
 20
-54.000000000006366
 30
0.0
 40
7.0
 50
133.72345121899659
 51
171.7867674086817
  0
LINE
  5
1CD9
  8
0
 10
239.28948770280471
 20
-43.221088602678719
 30
0.0
 11
229.61301136956439
 21
-43.221088602678719
 31
0.0
  0
LINE
  5
1CDA
  8
0
 10
242.201249576934
 20
-37.630605894677501
 30
0.0
 11
239.28948770280471
 21
-45.651533380606452
 31
0.0
  0
LINE
  5
1CDB
  8
0
 10
226.701249576934
 20
-37.630605894677501
 30
0.0
 11
229.6130114510633
 21
-45.651533380606452
 31
0.0
  0
LINE
  5
1CDC
  8
0
 10
1202.4804022224671
 20
370.17147954931443
 30
0.0
 11
1268.4220969314019
 21
370.17147954931443
 31
0.0
  0
LINE
  5
1CDD
  8
0
 10
1198.751249576934
 20
376.63056140055448
 30
0.0
 11
1202.4804022224671
 21
370.17147954931443
 31
0.0
  0
LINE
  5
1CDE
  8
0
 10
1272.1512495769341
 20
379.92147954931482
 30
0.0
 11
2092.6164327759102
 21
379.92147954931482
 31
0.0
  0
LINE
  5
1CDF
  8
0
 10
2200.2860663779588
 20
379.92147954931528
 30
0.0
 11
2228.701249576935
 21
379.92147954931482
 31
0.0
  0
LINE
  5
1CE0
  8
0
 10
1205.451249576935
 20
453.17147954931482
 30
0.0
 11
1205.451249576935
 21
370.17147954931443
 31
0.0
  0
LINE
  5
1CE1
  8
0
 10
1265.4512495769341
 20
453.17147954931482
 30
0.0
 11
1265.4512495769341
 21
370.17147954931443
 31
0.0
  0
LINE
  5
1CE2
  8
0
 10
1255.701249576935
 20
370.17147954931443
 30
0.0
 11
1255.701249576935
 21
453.17147954931443
 31
0.0
  0
LINE
  5
1CE3
  8
0
 10
1260.201249576935
 20
370.17147954931443
 30
0.0
 11
1260.201249576935
 21
453.17147954931482
 31
0.0
  0
LINE
  5
1CE4
  8
0
 10
1246.701249576935
 20
370.17147954931443
 30
0.0
 11
1246.701249576935
 21
453.17147954931443
 31
0.0
  0
LINE
  5
1CE5
  8
0
 10
1251.2012495769361
 20
370.17147954931443
 30
0.0
 11
1251.2012495769361
 21
453.17147954931482
 31
0.0
  0
LINE
  5
1CE6
  8
0
 10
1219.701249576935
 20
370.17147954931443
 30
0.0
 11
1219.701249576935
 21
453.17147954931443
 31
0.0
  0
LINE
  5
1CE7
  8
0
 10
1215.201249576935
 20
370.17147954931443
 30
0.0
 11
1215.201249576935
 21
453.17147954931443
 31
0.0
  0
LINE
  5
1CE8
  8
0
 10
1210.7012495769361
 20
370.17147954931443
 30
0.0
 11
1210.7012495769361
 21
453.17147954931443
 31
0.0
  0
LINE
  5
1CE9
  8
0
 10
1224.201249576935
 20
370.17147954931443
 30
0.0
 11
1224.201249576935
 21
453.17147954931482
 31
0.0
  0
LINE
  5
1CEA
  8
0
 10
1228.7012495769361
 20
370.17147954931443
 30
0.0
 11
1228.7012495769361
 21
453.17147954931443
 31
0.0
  0
LINE
  5
1CEB
  8
0
 10
1233.201249576935
 20
370.17147954931443
 30
0.0
 11
1233.201249576935
 21
453.17147954931482
 31
0.0
  0
LINE
  5
1CEC
  8
0
 10
1237.701249576935
 20
370.17147954931443
 30
0.0
 11
1237.701249576935
 21
453.17147954931443
 31
0.0
  0
LINE
  5
1CED
  8
0
 10
1242.201249576935
 20
370.17147954931443
 30
0.0
 11
1242.2012495769341
 21
453.17147954931482
 31
0.0
  0
LINE
  5
1CEE
  8
0
 10
1198.751249576934
 20
446.7123976980746
 30
0.0
 11
1202.4804022224671
 21
453.17147954931482
 31
0.0
  0
LINE
  5
1CEF
  8
0
 10
1198.751249576934
 20
376.63056140055448
 30
0.0
 11
1198.751249576934
 21
446.7123976980746
 31
0.0
  0
LINE
  5
1CF0
  8
0
 10
1202.4804022224671
 20
453.17147954931482
 30
0.0
 11
1268.4220969314019
 21
453.17147954931482
 31
0.0
  0
LINE
  5
1CF1
  8
0
 10
1272.1512495769341
 20
443.42147954931443
 30
0.0
 11
2092.6164327759061
 21
443.4214795493121
 31
0.0
  0
LINE
  5
1CF2
  8
0
 10
2200.2860663779638
 20
443.4214795493121
 30
0.0
 11
2228.701249576935
 21
443.4214795493117
 31
0.0
  0
LINE
  5
1CF3
  8
0
 10
1202.4804022224671
 20
370.17147954931528
 30
0.0
 11
1202.4804022224671
 21
453.17147954931482
 31
0.0
  0
LINE
  5
1CF4
  8
0
 10
1272.1512495769341
 20
376.63056140055448
 30
0.0
 11
1268.4220969314019
 21
370.17147954931443
 31
0.0
  0
LINE
  5
1CF5
  8
0
 10
1272.1512495769341
 20
446.7123976980746
 30
0.0
 11
1268.4220969314019
 21
453.17147954931482
 31
0.0
  0
LINE
  5
1CF6
  8
0
 10
1272.1512495769341
 20
376.63056140055448
 30
0.0
 11
1272.1512495769341
 21
446.7123976980746
 31
0.0
  0
LINE
  5
1CF7
  8
AM_0_T3
 10
1268.4220969314019
 20
453.17147954931482
 30
0.0
 11
1268.4220969314019
 21
370.17147954931352
 31
0.0
  0
LINE
  5
1CF8
  8
0
 10
2257.4512505769449
 20
383.67147954931352
 30
0.0
 11
2244.201249576935
 21
383.67147954931301
 31
0.0
  0
LINE
  5
1CF9
  8
0
 10
2257.4512505769449
 20
439.67147954931312
 30
0.0
 11
2244.201249576935
 21
439.67147954931352
 31
0.0
  0
LINE
  5
1CFA
  8
0
 10
2257.4512505769449
 20
383.67147954931352
 30
0.0
 11
2257.4512505769449
 21
439.67147954931312
 31
0.0
  0
LINE
  5
1CFB
  8
0
 10
2244.201249576935
 20
373.92147954930442
 30
0.0
 11
2244.201249576935
 21
449.42147954931852
 31
0.0
  0
LINE
  5
1CFC
  8
0
 10
2228.701249576935
 20
373.92147954930391
 30
0.0
 11
2228.701249576935
 21
449.42147954931852
 31
0.0
  0
LINE
  5
1CFD
  8
0
 10
2231.6130114510638
 20
365.92147954930482
 30
0.0
 11
2231.6130114510638
 21
391.33820987084482
 31
0.0
  0
LINE
  5
1CFE
  8
0
 10
2231.6130114510638
 20
435.17147954931761
 30
0.0
 11
2231.6130114510638
 21
457.42147954931852
 31
0.0
  0
LINE
  5
1CFF
  8
0
 10
2241.2894970935699
 20
365.92147954930482
 30
0.0
 11
2241.2894944341551
 21
391.3382115220133
 31
0.0
  0
LINE
  5
1D00
  8
0
 10
2241.2894898477712
 20
435.17147954931761
 30
0.0
 11
2241.289487519698
 21
457.42147954931852
 31
0.0
  0
LINE
  5
1D01
  8
0
 10
1198.751249576934
 20
379.92147954931482
 30
0.0
 11
242.201249576934
 21
379.92147954931482
 31
0.0
  0
LINE
  5
1D02
  8
0
 10
1198.751249576934
 20
443.42147954931443
 30
0.0
 11
242.201249576934
 21
443.4214795493117
 31
0.0
  0
LINE
  5
1D04
  8
0
 10
213.4512485769246
 20
383.67147954931352
 30
0.0
 11
226.701249576934
 21
383.67147954931301
 31
0.0
  0
LINE
  5
1D05
  8
0
 10
213.4512485769246
 20
439.67147954931312
 30
0.0
 11
226.701249576934
 21
439.67147954931352
 31
0.0
  0
LINE
  5
1D06
  8
0
 10
213.4512485769246
 20
383.67147954931352
 30
0.0
 11
213.4512485769246
 21
439.67147954931312
 31
0.0
  0
LINE
  5
1D07
  8
AM_0_T3
 10
2228.701249576935
 20
449.42147954931852
 30
0.0
 11
2231.6130114510638
 21
457.42147954931852
 31
0.0
  0
LINE
  5
1D08
  8
AM_0_T3
 10
2244.201249576935
 20
449.42147954931852
 30
0.0
 11
2241.289487519698
 21
457.42147954931852
 31
0.0
  0
LINE
  5
1D09
  8
AM_0_T3
 10
2231.6130114510638
 20
457.42147954931852
 30
0.0
 11
2241.289487519698
 21
457.42147954931852
 31
0.0
  0
LINE
  5
1D0A
  8
AM_0_T3
 10
2228.701249576935
 20
373.92147954930391
 30
0.0
 11
2231.6130114510638
 21
365.92147954930482
 31
0.0
  0
LINE
  5
1D0B
  8
AM_0_T3
 10
2244.201249576935
 20
373.92147954930442
 30
0.0
 11
2241.289487519698
 21
365.92147954930482
 31
0.0
  0
LINE
  5
1D0C
  8
AM_0_T3
 10
2231.6130114510638
 20
365.92147954930482
 30
0.0
 11
2241.2894970935699
 21
365.92147954930482
 31
0.0
  0
LINE
  5
1D0D
  8
0
 10
2243.4512490537732
 20
396.67147954931801
 30
0.0
 11
2243.4512490537732
 21
408.67147954931801
 31
0.0
  0
LINE
  5
1D0E
  8
0
 10
2243.4512490537732
 20
408.67147954931801
 30
0.0
 11
2229.4512490537709
 21
408.67147954931801
 31
0.0
  0
LINE
  5
1D0F
  8
0
 10
2243.4512490537732
 20
426.67147954931812
 30
0.0
 11
2243.4512490537732
 21
414.67147954931801
 31
0.0
  0
LINE
  5
1D10
  8
0
 10
2243.4512490537732
 20
414.67147954931801
 30
0.0
 11
2229.4512490537718
 21
414.67147954931801
 31
0.0
  0
LINE
  5
1D11
  8
0
 10
2240.4512490537718
 20
414.67147954931801
 30
0.0
 11
2240.4512490537718
 21
408.67147954931801
 31
0.0
  0
LINE
  5
1D12
  8
0
 10
2232.4512490537718
 20
414.67147954931801
 30
0.0
 11
2232.4512490537718
 21
408.67147954931801
 31
0.0
  0
LINE
  5
1D13
  8
0
 10
2243.4512490537732
 20
426.67147954931812
 30
0.0
 11
2229.4512490537718
 21
426.67147954931852
 31
0.0
  0
LINE
  5
1D14
  8
0
 10
2232.4512490537718
 20
440.67147954931801
 30
0.0
 11
2232.4512490537718
 21
435.17147954931801
 31
0.0
  0
LINE
  5
1D15
  8
0
 10
2231.4512490537718
 20
435.17147954931801
 30
0.0
 11
2241.4512490537718
 21
435.17147954931801
 31
0.0
  0
LINE
  5
1D16
  8
0
 10
2232.4512490537718
 20
440.67147954931801
 30
0.0
 11
2240.4512490537718
 21
440.67147954931801
 31
0.0
  0
LINE
  5
1D17
  8
0
 10
2230.4512490537732
 20
434.17147954931812
 30
0.0
 11
2230.4512490537732
 21
433.17147954931801
 31
0.0
  0
LINE
  5
1D18
  8
0
 10
2242.4512490537718
 20
434.17147954931812
 30
0.0
 11
2242.4512490537718
 21
433.17147954931801
 31
0.0
  0
LINE
  5
1D19
  8
0
 10
2242.9512490537718
 20
433.17147954931801
 30
0.0
 11
2229.9512490537718
 21
433.17147954931801
 31
0.0
  0
LINE
  5
1D1A
  8
0
 10
2242.9512490537718
 20
433.17147954931801
 30
0.0
 11
2242.9512490537718
 21
426.67147954931812
 31
0.0
  0
LINE
  5
1D1B
  8
0
 10
2229.9512490537718
 20
433.17147954931801
 30
0.0
 11
2229.9512490537718
 21
426.67147954931812
 31
0.0
  0
LINE
  5
1D1C
  8
0
 10
2240.4512490537718
 20
440.67147954931801
 30
0.0
 11
2240.4512490537718
 21
435.17147954931801
 31
0.0
  0
LINE
  5
1D1D
  8
0
  6
CENTER
 10
2236.4512490537718
 20
442.32281454931803
 30
0.0
 11
2236.4512490537718
 21
385.28296454931842
 31
0.0
  0
LINE
  5
1D1E
  8
0
 10
2233.2012490537718
 20
391.17147954931801
 30
0.0
 11
2239.7012490537718
 21
391.17147954931801
 31
0.0
  0
LINE
  5
1D1F
  8
0
 10
2229.9512490537718
 20
391.89637354931801
 30
0.0
 11
2229.9512490537718
 21
396.67147954931801
 31
0.0
  0
LINE
  5
1D20
  8
0
 10
2242.9512490537718
 20
391.89637354931801
 30
0.0
 11
2242.9512490537718
 21
396.67147954931801
 31
0.0
  0
LINE
  5
1D21
  8
0
 10
2229.4512490537718
 20
396.67147954931801
 30
0.0
 11
2243.4512490537732
 21
396.67147954931801
 31
0.0
  0
ARC
  5
1D22
  8
0
 10
2231.4512490537718
 20
434.17147954931812
 30
0.0
 40
1.0
 50
89.999989999998988
 51
179.99999599996829
  0
ARC
  5
1D23
  8
0
 10
2241.4512490537718
 20
434.17147954931812
 30
0.0
 40
1.0
 50
0.0
 51
90.000005008937407
  0
ARC
  5
1D24
  8
0
 10
2239.7012490537718
 20
425.5234845493182
 30
0.0
 40
7.647994999999999
 50
64.852630000036257
 51
115.1473750000074
  0
ARC
  5
1D25
  8
0
 10
2233.2012490537718
 20
425.5234845493182
 30
0.0
 40
7.647994999999999
 50
64.852630000036257
 51
115.1473679999861
  0
ARC
  5
1D26
  8
0
 10
2239.7012490537718
 20
434.31947454931827
 30
0.0
 40
7.647994999999999
 50
244.85263000003621
 51
295.1473699999637
  0
ARC
  5
1D27
  8
0
 10
2233.2012490537718
 20
434.31947454931827
 30
0.0
 40
7.647994999999999
 50
244.85263000003621
 51
295.1473699999637
  0
ARC
  5
1D28
  8
0
 10
2233.2012490537718
 20
398.81947454931827
 30
0.0
 40
7.6479945000000011
 50
244.85263000003621
 51
295.1473699999637
  0
ARC
  5
1D29
  8
0
 10
2239.7012490537718
 20
398.81947454931827
 30
0.0
 40
7.6479945000000011
 50
244.85263000003621
 51
295.1473699999637
  0
LINE
  5
1D2A
  8
0
 10
2229.4512490537718
 20
396.67147954931801
 30
0.0
 11
2229.4512490537709
 21
408.67147954931801
 31
0.0
  0
LINE
  5
1D2B
  8
0
 10
2229.4512490537718
 20
426.67147954931852
 30
0.0
 11
2229.4512490537718
 21
414.67147954931801
 31
0.0
  0
LINE
  5
1D2C
  8
0
  6
CENTER
 10
2146.4512495769341
 20
313.67147954931761
 30
0.0
 11
2146.451249576935
 21
509.67147954931761
 31
0.0
  0
LINE
  5
1D2E
  8
0
  6
CENTER
 10
324.45124957693582
 20
-105.0000000000109
 30
0.0
 11
324.45124957693582
 21
-0.0000000000059117
 31
0.0
  0
LINE
  5
1D2F
  8
0
 10
341.45124957693582
 20
-81.000000000010445
 30
0.0
 11
341.45124957693582
 21
-31.750000000000451
 31
0.0
  0
LINE
  5
1D30
  8
0
 10
307.45124957693582
 20
-81.000000000010445
 30
0.0
 11
307.45124957693582
 21
-31.750000000000451
 31
0.0
  0
LINE
  5
1D31
  8
0
  6
CENTER
 10
324.451249576934
 20
313.67147954931761
 30
0.0
 11
324.451249576934
 21
509.67147954931761
 31
0.0
  0
TEXT
  5
1D32
  8
0
 10
841.4036305293148
 20
538.28139750375328
 30
0.0
 40
50.0
  1
2.5SX2000L-25AX1S
 72
     4
 11
1235.4512495769341
 21
563.28139750375328
 31
0.0
  0
LINE
  5
1E3C
  8
0
  6
CENTER
 10
2128.4200266566781
 20
429.70270246957438
 30
0.0
 11
2100.8428621904031
 21
457.27986693584978
 31
0.0
  0
LINE
  5
1E3E
  8
0
  6
CENTER
 10
2128.4200266566781
 20
393.64025662906079
 30
0.0
 11
2100.8428621904031
 21
366.06309216278532
 31
0.0
  0
LINE
  5
1E3F
  8
0
  6
CENTER
 10
2164.4824724971918
 20
429.70270246957438
 30
0.0
 11
2192.0596369634668
 21
457.27986693584978
 31
0.0
  0
LINE
  5
1E42
  8
0
  6
CENTER
 10
2164.4824724971918
 20
393.64025662906079
 30
0.0
 11
2192.0596369634668
 21
366.06309216278532
 31
0.0
  0
ARC
  5
1E44
  8
AM_0_T3
 10
324.45124957693582
 20
-58.565340758596449
 30
0.0
 40
31.749999999994252
 50
57.62671402087048
 51
122.37328597912951
  0
LINE
  5
1E45
  8
0
 10
2208.9512495769341
 20
95.000000000003638
 30
0.0
 11
2208.9512495769341
 21
81.000000000003624
 31
0.0
  0
LINE
  5
1E46
  8
0
  6
CENTER
 10
2191.4512495769341
 20
104.0000000000045
 30
0.0
 11
2191.4512495769341
 21
71.000000000004547
 31
0.0
  0
LINE
  5
1E47
  8
0
  6
CENTER
 10
2101.4512495769341
 20
104.0000000000045
 30
0.0
 11
2101.4512495769341
 21
71.000000000004547
 31
0.0
  0
LINE
  5
1E48
  8
0
 10
2083.9512495769341
 20
81.000000000004533
 30
0.0
 11
2083.9512495769341
 21
95.000000000004533
 31
0.0
  0
LINE
  5
1E49
  8
0
 10
2083.9512495769341
 20
95.000000000004533
 30
0.0
 11
2208.9512495769341
 21
95.000000000003638
 31
0.0
  0
LINE
  5
1E4A
  8
0
 10
2208.9512495769341
 20
81.000000000003624
 30
0.0
 11
2083.9512495769341
 21
81.000000000004533
 31
0.0
  0
LINE
  5
1E4F
  8
0
  6
CENTER
 10
2146.4512495769341
 20
105.00000000000399
 30
0.0
 11
2146.4512495769341
 21
-0.0000000000009095
 31
0.0
  0
LINE
  5
1E50
  8
0
 10
2129.4512495769341
 20
81.000000000003624
 30
0.0
 11
2129.4512495769341
 21
31.74999999999363
 31
0.0
  0
LINE
  5
1E51
  8
0
 10
2163.4512495769341
 20
81.000000000003624
 30
0.0
 11
2163.4512495769341
 21
31.74999999999363
 31
0.0
  0
LINE
  5
1E52
  8
0
 10
1272.1512495769341
 20
31.749999999996358
 30
0.0
 11
2129.4512495769341
 21
31.74999999999363
 31
0.0
  0
LINE
  5
1E53
  8
0
 10
2163.4512495769341
 20
31.74999999999363
 30
0.0
 11
2228.701249576935
 21
31.74999999999363
 31
0.0
  0
ARC
  5
1E54
  8
0
 10
324.451249576934
 20
411.67147954931761
 30
0.0
 40
62.5
 50
30.53070233867404
 51
149.4692976613259
  0
ARC
  5
1E55
  8
0
 10
324.451249576934
 20
411.67147954931761
 30
0.0
 40
62.5
 50
210.5307023386965
 51
329.46929766130347
  0
ARC
  5
1E56
  8
0
  6
CENTER
 10
324.451249576934
 20
411.67147954931761
 30
0.0
 40
45.0
 50
44.874444031819948
 51
135.12555596818001
  0
ARC
  5
1E57
  8
0
  6
CENTER
 10
324.451249576934
 20
411.67147954931761
 30
0.0
 40
45.0
 50
224.87444403183829
 51
315.12555596816162
  0
ARC
  5
1E58
  8
0
 10
356.27105473032861
 20
443.49128470271211
 30
0.0
 40
9.5
 50
359.57899192954409
 51
180.4210080704558
  0
LINE
  5
1E59
  8
0
  6
CENTER
 10
342.48247249719037
 20
429.70270246957438
 30
0.0
 11
370.05963696346578
 21
457.27986693584978
 31
0.0
  0
ARC
  5
1E5A
  8
0
 10
356.27105473032861
 20
379.851674395923
 30
0.0
 40
9.5
 50
179.57899192959621
 51
0.4210080704037258
  0
LINE
  5
1E5B
  8
0
  6
CENTER
 10
342.48247249719037
 20
393.64025662906079
 30
0.0
 11
370.05963696346578
 21
366.06309216278532
 31
0.0
  0
LINE
  5
1E5C
  8
0
  6
CENTER
 10
306.42002665667673
 20
429.70270246957438
 30
0.0
 11
278.84286219040132
 21
457.27986693584978
 31
0.0
  0
ARC
  5
1E5D
  8
0
 10
292.63144442353951
 20
443.49128470271211
 30
0.0
 40
9.5
 50
359.57899192954409
 51
180.4210080704558
  0
ARC
  5
1E5E
  8
0
 10
292.63144442353951
 20
379.851674395923
 30
0.0
 40
9.5
 50
179.57899192959621
 51
0.4210080704037258
  0
LINE
  5
1E5F
  8
0
  6
CENTER
 10
306.42002665667673
 20
393.64025662906079
 30
0.0
 11
278.84286219040132
 21
366.06309216278532
 31
0.0
  0
LINE
  5
1E8B
  8
0
 10
226.701249576934
 20
373.92147954930442
 30
0.0
 11
226.701249576934
 21
449.42147954931852
 31
0.0
  0
LINE
  5
1E8C
  8
0
 10
242.201249576934
 20
373.92147954930391
 30
0.0
 11
242.201249576934
 21
449.42147954931852
 31
0.0
  0
LINE
  5
1E8D
  8
0
 10
239.28948770280471
 20
365.92147954930482
 30
0.0
 11
239.28948770280471
 21
391.33820987084482
 31
0.0
  0
LINE
  5
1E8E
  8
0
 10
239.28948770280471
 20
435.17147954931761
 30
0.0
 11
239.28948770280471
 21
457.42147954931852
 31
0.0
  0
LINE
  5
1E8F
  8
0
 10
229.61300206029861
 20
365.92147954930482
 30
0.0
 11
229.61300471971381
 21
391.3382115220133
 31
0.0
  0
LINE
  5
1E90
  8
0
 10
229.61300930609829
 20
435.17147954931761
 30
0.0
 11
229.61301163416999
 21
457.42147954931852
 31
0.0
  0
LINE
  5
1E91
  8
AM_0_T3
 10
242.201249576934
 20
449.42147954931852
 30
0.0
 11
239.28948770280471
 21
457.42147954931852
 31
0.0
  0
LINE
  5
1E92
  8
AM_0_T3
 10
226.701249576934
 20
449.42147954931852
 30
0.0
 11
229.61301163416999
 21
457.42147954931852
 31
0.0
  0
LINE
  5
1E93
  8
AM_0_T3
 10
239.28948770280471
 20
457.42147954931852
 30
0.0
 11
229.61301163416999
 21
457.42147954931852
 31
0.0
  0
LINE
  5
1E94
  8
AM_0_T3
 10
242.201249576934
 20
373.92147954930391
 30
0.0
 11
239.28948770280471
 21
365.92147954930482
 31
0.0
  0
LINE
  5
1E95
  8
AM_0_T3
 10
226.701249576934
 20
373.92147954930442
 30
0.0
 11
229.61301163416999
 21
365.92147954930482
 31
0.0
  0
LINE
  5
1E96
  8
AM_0_T3
 10
239.28948770280471
 20
365.92147954930482
 30
0.0
 11
229.61300206029861
 21
365.92147954930482
 31
0.0
  0
LINE
  5
1E97
  8
0
 10
227.45125010009721
 20
396.67147954931801
 30
0.0
 11
227.45125010009721
 21
408.67147954931801
 31
0.0
  0
LINE
  5
1E98
  8
0
 10
227.45125010009721
 20
408.67147954931801
 30
0.0
 11
241.45125010009721
 21
408.67147954931801
 31
0.0
  0
LINE
  5
1E99
  8
0
 10
227.45125010009721
 20
426.67147954931812
 30
0.0
 11
227.45125010009721
 21
414.67147954931801
 31
0.0
  0
LINE
  5
1E9A
  8
0
 10
227.45125010009721
 20
414.67147954931801
 30
0.0
 11
241.45125010009721
 21
414.67147954931801
 31
0.0
  0
LINE
  5
1E9B
  8
0
 10
230.45125010009721
 20
414.67147954931801
 30
0.0
 11
230.45125010009721
 21
408.67147954931801
 31
0.0
  0
LINE
  5
1E9C
  8
0
 10
238.45125010009721
 20
414.67147954931801
 30
0.0
 11
238.45125010009721
 21
408.67147954931801
 31
0.0
  0
LINE
  5
1E9D
  8
0
 10
227.45125010009721
 20
426.67147954931812
 30
0.0
 11
241.45125010009721
 21
426.67147954931852
 31
0.0
  0
LINE
  5
1E9E
  8
0
 10
238.45125010009721
 20
440.67147954931801
 30
0.0
 11
238.45125010009721
 21
435.17147954931801
 31
0.0
  0
LINE
  5
1E9F
  8
0
 10
239.45125010009721
 20
435.17147954931801
 30
0.0
 11
229.45125010009721
 21
435.17147954931801
 31
0.0
  0
LINE
  5
1EA0
  8
0
 10
238.45125010009721
 20
440.67147954931801
 30
0.0
 11
230.45125010009721
 21
440.67147954931801
 31
0.0
  0
LINE
  5
1EA1
  8
0
 10
240.45125010009721
 20
434.17147954931812
 30
0.0
 11
240.45125010009721
 21
433.17147954931801
 31
0.0
  0
LINE
  5
1EA2
  8
0
 10
228.45125010009721
 20
434.17147954931812
 30
0.0
 11
228.45125010009721
 21
433.17147954931801
 31
0.0
  0
LINE
  5
1EA3
  8
0
 10
227.95125010009721
 20
433.17147954931801
 30
0.0
 11
240.95125010009721
 21
433.17147954931801
 31
0.0
  0
LINE
  5
1EA4
  8
0
 10
227.95125010009721
 20
433.17147954931801
 30
0.0
 11
227.95125010009721
 21
426.67147954931812
 31
0.0
  0
LINE
  5
1EA5
  8
0
 10
240.95125010009721
 20
433.17147954931801
 30
0.0
 11
240.95125010009721
 21
426.67147954931812
 31
0.0
  0
LINE
  5
1EA6
  8
0
 10
230.45125010009721
 20
440.67147954931801
 30
0.0
 11
230.45125010009721
 21
435.17147954931801
 31
0.0
  0
LINE
  5
1EA7
  8
0
  6
CENTER
 10
234.45125010009721
 20
442.32281454931803
 30
0.0
 11
234.45125010009721
 21
385.28296454931842
 31
0.0
  0
LINE
  5
1EA8
  8
0
 10
237.70125010009721
 20
391.17147954931801
 30
0.0
 11
231.20125010009721
 21
391.17147954931801
 31
0.0
  0
LINE
  5
1EA9
  8
0
 10
240.95125010009721
 20
391.89637354931801
 30
0.0
 11
240.95125010009721
 21
396.67147954931801
 31
0.0
  0
LINE
  5
1EAA
  8
0
 10
227.95125010009721
 20
391.89637354931801
 30
0.0
 11
227.95125010009721
 21
396.67147954931801
 31
0.0
  0
LINE
  5
1EAB
  8
0
 10
241.45125010009721
 20
396.67147954931801
 30
0.0
 11
227.45125010009721
 21
396.67147954931801
 31
0.0
  0
ARC
  5
1EAC
  8
0
 10
239.45125010009721
 20
434.17147954931812
 30
0.0
 40
1.0
 50
0.0000040000316687
 51
90.000010000001026
  0
ARC
  5
1EAD
  8
0
 10
229.45125010009721
 20
434.17147954931812
 30
0.0
 40
1.0
 50
89.999994991062593
 51
180.0
  0
ARC
  5
1EAE
  8
0
 10
231.20125010009721
 20
425.5234845493182
 30
0.0
 40
7.647994999999999
 50
64.852624999992557
 51
115.1473699999637
  0
ARC
  5
1EAF
  8
0
 10
237.70125010009721
 20
425.5234845493182
 30
0.0
 40
7.647994999999999
 50
64.852632000013784
 51
115.1473699999637
  0
ARC
  5
1EB0
  8
0
 10
231.20125010009721
 20
434.31947454931827
 30
0.0
 40
7.647994999999999
 50
244.85263000003621
 51
295.1473699999637
  0
ARC
  5
1EB1
  8
0
 10
237.70125010009721
 20
434.31947454931827
 30
0.0
 40
7.647994999999999
 50
244.85263000003621
 51
295.1473699999637
  0
ARC
  5
1EB2
  8
0
 10
237.70125010009721
 20
398.81947454931827
 30
0.0
 40
7.6479945000000011
 50
244.85263000003621
 51
295.1473699999637
  0
ARC
  5
1EB3
  8
0
 10
231.20125010009721
 20
398.81947454931827
 30
0.0
 40
7.6479945000000011
 50
244.85263000003621
 51
295.1473699999637
  0
LINE
  5
1EB4
  8
0
 10
241.45125010009721
 20
396.67147954931801
 30
0.0
 11
241.45125010009721
 21
408.67147954931801
 31
0.0
  0
LINE
  5
1EB5
  8
0
 10
241.45125010009721
 20
426.67147954931852
 30
0.0
 11
241.45125010009721
 21
414.67147954931801
 31
0.0
  0
ARC
  5
1EE1
  8
AM_0_T3
 10
2146.4512495769341
 20
58.565340758589628
 30
0.0
 40
31.749999999994252
 50
237.62671402087039
 51
302.37328597912949
  0
LINE
  5
2566
  8
0
  6
CENTER
 10
188.30250685587899
 20
411.67147954931352
 30
0.0
 11
2282.5999922979909
 21
411.67147954931801
 31
0.0
  0
LINE
  5
2567
  8
0
 10
198.86907646238069
 20
-23.975680005640239
 30
0.0
 11
198.86907646238069
 21
0.9756800056284191
 31
0.0
  0
LINE
  5
2568
  8
0
 10
191.45124957693491
 20
13.749999999994079
 30
0.0
 11
191.45124957693491
 21
-36.750000000005912
 31
0.0
  0
LINE
  5
2569
  8
0
 10
194.30124957693531
 20
12.925224941690431
 30
0.0
 11
194.3012495769344
 21
-35.925224941702247
 31
0.0
  0
LINE
  5
256A
  8
0
  6
CENTER
 10
188.30250685587899
 20
-11.50000000000591
 30
0.0
 11
219.48225944315161
 21
-11.50000000000591
 31
0.0
  0
LINE
  5
256B
  8
0
 10
200.26949109339509
 20
1.1999999999943609
 30
0.0
 11
213.4512485769246
 21
1.1999999999943609
 31
0.0
  0
ARC
  5
256C
  8
0
 10
200.26949109339509
 20
3.1999999999943611
 30
0.0
 40
2.0
 50
200.0000000000226
 51
270.0
1001
GENIUS_GENOBJ-N-FIL_13
1002
{
1000
OWNER
1000
GEN
1002
}
1001
GENIUS_GENODEF_13
1002
{
1000
HIER
1070
     0
1002
}
1002
{
1000
MANEDIT
1070
     0
1002
}
1002
{
1000
NOSEL
1070
     0
1002
}
1002
{
1000
BEHIND
1070
     0
1002
}
1002
{
1000
OTHER
1070
     0
1002
}
1002
{
1000
REACTOR
1002
}
  0
LINE
  5
256D
  8
0
 10
191.45124957693491
 20
13.749999999994079
 30
0.0
 11
193.74108354636701
 21
13.749999999994079
 31
0.0
  0
LINE
  5
256F
  8
0
 10
194.49283764299611
 20
13.22361611465476
 30
0.0
 11
198.39010585182311
 21
2.5159597133424541
 31
0.0
  0
ARC
  5
2570
  8
0
 10
193.74108354636701
 20
12.949999999994359
 30
0.0
 40
0.8
 50
20.000000000022631
 51
90.0
1001
GENIUS_GENOBJ-N-FIL_13
1002
{
1000
OWNER
1000
GEN
1002
}
1001
GENIUS_GENODEF_13
1002
{
1000
HIER
1070
     0
1002
}
1002
{
1000
MANEDIT
1070
     0
1002
}
1002
{
1000
NOSEL
1070
     0
1002
}
1002
{
1000
BEHIND
1070
     0
1002
}
1002
{
1000
OTHER
1070
     0
1002
}
1002
{
1000
REACTOR
1002
}
  0
LINE
  5
2571
  8
0
 10
200.26949109339509
 20
-24.20000000000573
 30
0.0
 11
213.4512485769246
 21
-24.200000000006181
 31
0.0
  0
ARC
  5
2572
  8
0
 10
200.26949109339509
 20
-26.200000000005719
 30
0.0
 40
2.0
 50
90.0
 51
159.99999999997729
1001
GENIUS_GENOBJ-N-FIL_13
1002
{
1000
OWNER
1000
GEN
1002
}
1001
GENIUS_GENODEF_13
1002
{
1000
HIER
1070
     0
1002
}
1002
{
1000
MANEDIT
1070
     0
1002
}
1002
{
1000
NOSEL
1070
     0
1002
}
1002
{
1000
BEHIND
1070
     0
1002
}
1002
{
1000
OTHER
1070
     0
1002
}
1002
{
1000
REACTOR
1002
}
  0
LINE
  5
2573
  8
0
 10
191.45124957693491
 20
-36.750000000005912
 30
0.0
 11
193.74108354636701
 21
-36.750000000005912
 31
0.0
  0
LINE
  5
2574
  8
0
 10
194.4928376429952
 20
-36.223616114666576
 30
0.0
 11
198.39010585182311
 21
-25.51595971335427
 31
0.0
  0
ARC
  5
2575
  8
0
 10
193.74108354636701
 20
-35.950000000006177
 30
0.0
 40
0.8
 50
270.0
 51
339.99999999997732
1001
GENIUS_GENOBJ-N-FIL_13
1002
{
1000
OWNER
1000
GEN
1002
}
1001
GENIUS_GENODEF_13
1002
{
1000
HIER
1070
     0
1002
}
1002
{
1000
MANEDIT
1070
     0
1002
}
1002
{
1000
NOSEL
1070
     0
1002
}
1002
{
1000
BEHIND
1070
     0
1002
}
1002
{
1000
OTHER
1070
     0
1002
}
1002
{
1000
REACTOR
1002
}
  0
LINE
  5
2576
  8
0
 10
2272.0334226914888
 20
23.975680005634779
 30
0.0
 11
2272.0334226914888
 21
-0.9756800056347856
 31
0.0
  0
LINE
  5
2577
  8
0
 10
2279.451249576935
 20
-13.75
 30
0.0
 11
2279.451249576935
 21
36.75
 31
0.0
  0
LINE
  5
2578
  8
0
 10
2276.6012495769342
 20
-12.92522494169588
 30
0.0
 11
2276.6012495769351
 21
35.925224941695888
 31
0.0
  0
LINE
  5
2579
  8
0
  6
CENTER
 10
2282.5999922979909
 20
11.5
 30
0.0
 11
2251.4202397107179
 21
11.5
 31
0.0
  0
LINE
  5
257A
  8
0
 10
2270.6330080604739
 20
-1.1999999999998181
 30
0.0
 11
2257.4512505769449
 21
-1.1999999999998181
 31
0.0
  0
ARC
  5
257B
  8
0
 10
2270.6330080604739
 20
-3.1999999999998181
 30
0.0
 40
2.0
 50
20.000000000022631
 51
90.0
1001
GENIUS_GENOBJ-N-FIL_13
1002
{
1000
OWNER
1000
GEN
1002
}
1001
GENIUS_GENODEF_13
1002
{
1000
HIER
1070
     0
1002
}
1002
{
1000
MANEDIT
1070
     0
1002
}
1002
{
1000
NOSEL
1070
     0
1002
}
1002
{
1000
BEHIND
1070
     0
1002
}
1002
{
1000
OTHER
1070
     0
1002
}
1002
{
1000
REACTOR
1002
}
  0
LINE
  5
257C
  8
0
 10
2279.451249576935
 20
-13.75
 30
0.0
 11
2277.1614156075029
 21
-13.75
 31
0.0
  0
LINE
  5
257E
  8
0
 10
2276.4096615108729
 20
-13.22361611466067
 30
0.0
 11
2272.5123933020468
 21
-2.5159597133488201
 31
0.0
  0
ARC
  5
257F
  8
0
 10
2277.1614156075029
 20
-12.949999999999809
 30
0.0
 40
0.8
 50
200.0000000000226
 51
270.0
1001
GENIUS_GENOBJ-N-FIL_13
1002
{
1000
OWNER
1000
GEN
1002
}
1001
GENIUS_GENODEF_13
1002
{
1000
HIER
1070
     0
1002
}
1002
{
1000
MANEDIT
1070
     0
1002
}
1002
{
1000
NOSEL
1070
     0
1002
}
1002
{
1000
BEHIND
1070
     0
1002
}
1002
{
1000
OTHER
1070
     0
1002
}
1002
{
1000
REACTOR
1002
}
  0
LINE
  5
2580
  8
0
 10
2270.6330080604739
 20
24.199999999999822
 30
0.0
 11
2257.4512505769449
 21
24.199999999999822
 31
0.0
  0
ARC
  5
2581
  8
0
 10
2270.6330080604739
 20
26.199999999999811
 30
0.0
 40
2.0
 50
270.0
 51
339.99999999997732
1001
GENIUS_GENOBJ-N-FIL_13
1002
{
1000
OWNER
1000
GEN
1002
}
1001
GENIUS_GENODEF_13
1002
{
1000
HIER
1070
     0
1002
}
1002
{
1000
MANEDIT
1070
     0
1002
}
1002
{
1000
NOSEL
1070
     0
1002
}
1002
{
1000
BEHIND
1070
     0
1002
}
1002
{
1000
OTHER
1070
     0
1002
}
1002
{
1000
REACTOR
1002
}
  0
LINE
  5
2582
  8
0
 10
2279.451249576935
 20
36.75
 30
0.0
 11
2277.1614156075029
 21
36.75
 31
0.0
  0
LINE
  5
2583
  8
0
 10
2276.4096615108751
 20
36.22361611466021
 30
0.0
 11
2272.5123933020468
 21
25.515959713348821
 31
0.0
  0
ARC
  5
2584
  8
0
 10
2277.1614156075029
 20
35.949999999999811
 30
0.0
 40
0.8
 50
90.0
 51
159.99999999997729
1001
GENIUS_GENOBJ-N-FIL_13
1002
{
1000
OWNER
1000
GEN
1002
}
1001
GENIUS_GENODEF_13
1002
{
1000
HIER
1070
     0
1002
}
1002
{
1000
MANEDIT
1070
     0
1002
}
1002
{
1000
NOSEL
1070
     0
1002
}
1002
{
1000
BEHIND
1070
     0
1002
}
1002
{
1000
OTHER
1070
     0
1002
}
1002
{
1000
REACTOR
1002
}
  0
LINE
  5
2585
  8
0
 10
2272.0334226914888
 20
424.14715955495279
 30
0.0
 11
2272.0334226914888
 21
399.19579954368322
 31
0.0
  0
LINE
  5
2586
  8
0
 10
2279.451249576935
 20
386.42147954931801
 30
0.0
 11
2279.451249576935
 21
436.92147954931812
 31
0.0
  0
LINE
  5
2587
  8
0
 10
2276.6012495769342
 20
387.24625460762212
 30
0.0
 11
2276.6012495769351
 21
436.0967044910139
 31
0.0
  0
LINE
  5
2588
  8
0
 10
2270.6330080604739
 20
398.97147954931819
 30
0.0
 11
2257.4512505769449
 21
398.97147954931819
 31
0.0
  0
ARC
  5
2589
  8
0
 10
2270.6330080604739
 20
396.97147954931819
 30
0.0
 40
2.0
 50
19.999999999998149
 51
90.0
1001
GENIUS_GENOBJ-N-FIL_13
1002
{
1000
OWNER
1000
GEN
1002
}
1001
GENIUS_GENODEF_13
1002
{
1000
HIER
1070
     0
1002
}
1002
{
1000
MANEDIT
1070
     0
1002
}
1002
{
1000
NOSEL
1070
     0
1002
}
1002
{
1000
BEHIND
1070
     0
1002
}
1002
{
1000
OTHER
1070
     0
1002
}
1002
{
1000
REACTOR
1002
}
  0
LINE
  5
258A
  8
0
 10
2279.451249576935
 20
386.42147954931801
 30
0.0
 11
2277.1614156075029
 21
386.42147954931801
 31
0.0
  0
LINE
  5
258C
  8
0
 10
2276.4096615108729
 20
386.94786343465779
 30
0.0
 11
2272.5123933020468
 21
397.65551983596919
 31
0.0
  0
ARC
  5
258D
  8
0
 10
2277.1614156075029
 20
387.22147954931819
 30
0.0
 40
0.8
 50
199.9999999999981
 51
270.0
1001
GENIUS_GENOBJ-N-FIL_13
1002
{
1000
OWNER
1000
GEN
1002
}
1001
GENIUS_GENODEF_13
1002
{
1000
HIER
1070
     0
1002
}
1002
{
1000
MANEDIT
1070
     0
1002
}
1002
{
1000
NOSEL
1070
     0
1002
}
1002
{
1000
BEHIND
1070
     0
1002
}
1002
{
1000
OTHER
1070
     0
1002
}
1002
{
1000
REACTOR
1002
}
  0
LINE
  5
258E
  8
0
 10
2270.6330080604739
 20
424.37147954931783
 30
0.0
 11
2257.4512505769449
 21
424.37147954931783
 31
0.0
  0
ARC
  5
258F
  8
0
 10
2270.6330080604739
 20
426.37147954931788
 30
0.0
 40
2.0
 50
270.0
 51
340.00000000000188
1001
GENIUS_GENOBJ-N-FIL_13
1002
{
1000
OWNER
1000
GEN
1002
}
1001
GENIUS_GENODEF_13
1002
{
1000
HIER
1070
     0
1002
}
1002
{
1000
MANEDIT
1070
     0
1002
}
1002
{
1000
NOSEL
1070
     0
1002
}
1002
{
1000
BEHIND
1070
     0
1002
}
1002
{
1000
OTHER
1070
     0
1002
}
1002
{
1000
REACTOR
1002
}
  0
LINE
  5
2590
  8
0
 10
2279.451249576935
 20
436.92147954931812
 30
0.0
 11
2277.1614156075029
 21
436.92147954931812
 31
0.0
  0
LINE
  5
2591
  8
0
 10
2276.4096615108751
 20
436.39509566397822
 30
0.0
 11
2272.5123933020468
 21
425.68743926266683
 31
0.0
  0
ARC
  5
2592
  8
0
 10
2277.1614156075029
 20
436.12147954931788
 30
0.0
 40
0.8
 50
90.0
 51
159.99999999997729
1001
GENIUS_GENOBJ-N-FIL_13
1002
{
1000
OWNER
1000
GEN
1002
}
1001
GENIUS_GENODEF_13
1002
{
1000
HIER
1070
     0
1002
}
1002
{
1000
MANEDIT
1070
     0
1002
}
1002
{
1000
NOSEL
1070
     0
1002
}
1002
{
1000
BEHIND
1070
     0
1002
}
1002
{
1000
OTHER
1070
     0
1002
}
1002
{
1000
REACTOR
1002
}
  0
LINE
  5
2593
  8
0
 10
198.86907646238069
 20
399.19579954367867
 30
0.0
 11
198.86907646238069
 21
424.1471595549483
 31
0.0
  0
LINE
  5
2594
  8
0
 10
191.45124957693491
 20
436.9214795493134
 30
0.0
 11
191.45124957693491
 21
386.42147954931352
 31
0.0
  0
LINE
  5
2595
  8
0
 10
194.30124957693531
 20
436.09670449100929
 30
0.0
 11
194.3012495769344
 21
387.24625460761757
 31
0.0
  0
LINE
  5
2596
  8
0
 10
200.26949109339509
 20
424.37147954931328
 30
0.0
 11
213.4512485769246
 21
424.37147954931328
 31
0.0
  0
ARC
  5
2597
  8
0
 10
200.26949109339509
 20
426.37147954931328
 30
0.0
 40
2.0
 50
200.0000000000226
 51
270.0
1001
GENIUS_GENOBJ-N-FIL_13
1002
{
1000
OWNER
1000
GEN
1002
}
1001
GENIUS_GENODEF_13
1002
{
1000
HIER
1070
     0
1002
}
1002
{
1000
MANEDIT
1070
     0
1002
}
1002
{
1000
NOSEL
1070
     0
1002
}
1002
{
1000
BEHIND
1070
     0
1002
}
1002
{
1000
OTHER
1070
     0
1002
}
1002
{
1000
REACTOR
1002
}
  0
LINE
  5
2598
  8
0
 10
191.45124957693491
 20
436.9214795493134
 30
0.0
 11
193.74108354636701
 21
436.9214795493134
 31
0.0
  0
LINE
  5
259A
  8
0
 10
194.49283764299611
 20
436.39509566397459
 30
0.0
 11
198.39010585182311
 21
425.68743926266228
 31
0.0
  0
ARC
  5
259B
  8
0
 10
193.74108354636701
 20
436.12147954931328
 30
0.0
 40
0.8
 50
20.000000000022631
 51
90.0
1001
GENIUS_GENOBJ-N-FIL_13
1002
{
1000
OWNER
1000
GEN
1002
}
1001
GENIUS_GENODEF_13
1002
{
1000
HIER
1070
     0
1002
}
1002
{
1000
MANEDIT
1070
     0
1002
}
1002
{
1000
NOSEL
1070
     0
1002
}
1002
{
1000
BEHIND
1070
     0
1002
}
1002
{
1000
OTHER
1070
     0
1002
}
1002
{
1000
REACTOR
1002
}
  0
LINE
  5
259C
  8
0
 10
200.26949109339509
 20
398.97147954931359
 30
0.0
 11
213.4512485769246
 21
398.97147954931359
 31
0.0
  0
ARC
  5
259D
  8
0
 10
200.26949109339509
 20
396.97147954931359
 30
0.0
 40
2.0
 50
90.0
 51
159.99999999997729
1001
GENIUS_GENOBJ-N-FIL_13
1002
{
1000
OWNER
1000
GEN
1002
}
1001
GENIUS_GENODEF_13
1002
{
1000
HIER
1070
     0
1002
}
1002
{
1000
MANEDIT
1070
     0
1002
}
1002
{
1000
NOSEL
1070
     0
1002
}
1002
{
1000
BEHIND
1070
     0
1002
}
1002
{
1000
OTHER
1070
     0
1002
}
1002
{
1000
REACTOR
1002
}
  0
LINE
  5
259E
  8
0
 10
191.45124957693491
 20
386.42147954931352
 30
0.0
 11
193.74108354636701
 21
386.42147954931352
 31
0.0
  0
LINE
  5
259F
  8
0
 10
194.4928376429952
 20
386.9478634346533
 30
0.0
 11
198.39010585182311
 21
397.6555198359647
 31
0.0
  0
ARC
  5
25A0
  8
0
 10
193.74108354636701
 20
387.2214795493137
 30
0.0
 40
0.8
 50
270.0
 51
339.99999999997732
1001
GENIUS_GENOBJ-N-FIL_13
1002
{
1000
OWNER
1000
GEN
1002
}
1001
GENIUS_GENODEF_13
1002
{
1000
HIER
1070
     0
1002
}
1002
{
1000
MANEDIT
1070
     0
1002
}
1002
{
1000
NOSEL
1070
     0
1002
}
1002
{
1000
BEHIND
1070
     0
1002
}
1002
{
1000
OTHER
1070
     0
1002
}
1002
{
1000
REACTOR
1002
}
  0
LINE
  5
25E2
  8
0
  6
CENTER
 10
2261.067530157191
 20
0.0
 30
0.0
 11
209.8349689966789
 21
-0.0000000000063665
 31
0.0
  0
CIRCLE
  5
6387
  8
0
 10
2146.451249576935
 20
411.67147954931761
 30
0.0
 40
62.5
  0
CIRCLE
  5
6388
  8
0
  6
CENTER
 10
2146.451249576935
 20
411.67147954931761
 30
0.0
 40
45.0
  0
CIRCLE
  5
6389
  8
0
 10
2114.63144442354
 20
443.49128470271211
 30
0.0
 40
9.5
  0
CIRCLE
  5
638A
  8
0
 10
2114.63144442354
 20
379.851674395923
 30
0.0
 40
9.5
  0
CIRCLE
  5
638B
  8
0
 10
2178.2710547303291
 20
443.49128470271211
 30
0.0
 40
9.5
  0
CIRCLE
  5
638C
  8
0
 10
2178.2710547303291
 20
379.851674395923
 30
0.0
 40
9.5
  0
CIRCLE
  5
638D
  8
AM_0_T3
 10
2146.451249576935
 20
411.67147954931761
 30
0.0
 40
17.0
  0
LINE
  5
6631
  8
0
 10
3.0
 20
-61.0
 30
0.0
 11
2.9999999999990901
 21
-36.571148757087478
 31
0.0
  0
LINE
  5
6632
  8
0
 10
15.0
 20
-61.0
 30
0.0
 11
15.0
 21
-43.221088000000229
 31
0.0
  0
LINE
  5
6633
  8
0
 10
15.0
 20
-61.0
 30
0.0
 11
3.0
 21
-61.0
 31
0.0
  0
LINE
  5
6634
  8
0
 10
-15.0
 20
-61.0
 30
0.0
 11
-15.0
 21
-43.221088000000229
 31
0.0
  0
LINE
  5
6635
  8
0
 10
-15.0
 20
-61.0
 30
0.0
 11
-3.0
 21
-61.0
 31
0.0
  0
LINE
  5
6636
  8
0
 10
-3.0
 20
-61.0
 30
0.0
 11
-3.0000000000009091
 21
-36.57114875708703
 31
0.0
  0
LINE
  5
6637
  8
0
 10
-3.0
 20
-58.0
 30
0.0
 11
3.0
 21
-58.0
 31
0.0
  0
LINE
  5
6638
  8
0
 10
-3.0
 20
-50.0
 30
0.0
 11
3.0
 21
-50.0
 31
0.0
  0
LINE
  5
6639
  8
0
 10
15.0
 20
61.0
 30
0.0
 11
3.0
 21
61.0
 31
0.0
  0
LINE
  5
663A
  8
0
 10
3.0
 20
61.0
 30
0.0
 11
3.0
 21
35.62390500000037
 31
0.0
  0
LINE
  5
663B
  8
0
 10
-15.0
 20
61.0
 30
0.0
 11
-3.0
 21
61.0
 31
0.0
  0
LINE
  5
663C
  8
0
 10
-3.0
 20
61.0
 30
0.0
 11
-3.0
 21
35.62390500000037
 31
0.0
  0
LINE
  5
663D
  8
0
 10
-3.0
 20
58.0
 30
0.0
 11
3.0
 21
58.0
 31
0.0
  0
LINE
  5
663E
  8
0
 10
-3.0
 20
50.0
 30
0.0
 11
3.0
 21
50.0
 31
0.0
  0
LINE
  5
663F
  8
0
 10
-15.0
 20
61.0
 30
0.0
 11
-15.0
 21
43.221088000000229
 31
0.0
  0
LINE
  5
6640
  8
0
 10
-29.0
 20
50.0
 30
0.0
 11
-23.5
 21
50.0
 31
0.0
  0
LINE
  5
6641
  8
0
 10
-23.5
 20
49.0
 30
0.0
 11
-23.5
 21
59.0
 31
0.0
  0
LINE
  5
6642
  8
0
 10
-29.0
 20
50.0
 30
0.0
 11
-29.0
 21
58.0
 31
0.0
  0
LINE
  5
6643
  8
0
 10
-22.5
 20
48.0
 30
0.0
 11
-21.499999999999989
 21
48.0
 31
0.0
  0
LINE
  5
6644
  8
0
 10
-22.5
 20
60.0
 30
0.0
 11
-21.499999999999989
 21
60.0
 31
0.0
  0
LINE
  5
6645
  8
0
 10
-21.499999999999989
 20
60.5
 30
0.0
 11
-21.499999999999989
 21
47.5
 31
0.0
  0
LINE
  5
6646
  8
0
 10
-21.499999999999989
 20
60.5
 30
0.0
 11
-15.0
 21
60.5
 31
0.0
  0
LINE
  5
6647
  8
0
 10
-21.499999999999989
 20
47.5
 30
0.0
 11
-15.0
 21
47.5
 31
0.0
  0
LINE
  5
6648
  8
0
 10
-29.0
 20
58.0
 30
0.0
 11
-23.5
 21
58.0
 31
0.0
  0
LINE
  5
6649
  8
0
  6
CENTER
 10
-30.651335000000469
 20
54.0
 30
0.0
 11
26.388514999999639
 21
54.0
 31
0.0
  0
LINE
  5
664A
  8
0
 10
20.5
 20
-50.75
 30
0.0
 11
20.5
 21
-57.25
 31
0.0
  0
LINE
  5
664B
  8
0
 10
19.775106000000051
 20
-47.5
 30
0.0
 11
15.0
 21
-47.5
 31
0.0
  0
LINE
  5
664C
  8
0
 10
19.775106000000051
 20
-60.5
 30
0.0
 11
15.0
 21
-60.5
 31
0.0
  0
LINE
  5
664D
  8
0
 10
-29.0
 20
-50.0
 30
0.0
 11
-23.5
 21
-50.0
 31
0.0
  0
LINE
  5
664E
  8
0
 10
-23.5
 20
-49.0
 30
0.0
 11
-23.5
 21
-59.0
 31
0.0
  0
LINE
  5
664F
  8
0
 10
-29.0
 20
-50.0
 30
0.0
 11
-29.0
 21
-58.0
 31
0.0
  0
LINE
  5
6650
  8
0
 10
-22.5
 20
-48.0
 30
0.0
 11
-21.499999999999989
 21
-48.0
 31
0.0
  0
LINE
  5
6651
  8
0
 10
-22.5
 20
-60.0
 30
0.0
 11
-21.499999999999989
 21
-60.0
 31
0.0
  0
LINE
  5
6652
  8
0
 10
-21.499999999999989
 20
-60.5
 30
0.0
 11
-21.499999999999989
 21
-47.5
 31
0.0
  0
LINE
  5
6653
  8
0
 10
-21.499999999999989
 20
-60.5
 30
0.0
 11
-15.0
 21
-60.5
 31
0.0
  0
LINE
  5
6654
  8
0
 10
-21.499999999999989
 20
-47.5
 30
0.0
 11
-15.0
 21
-47.5
 31
0.0
  0
LINE
  5
6655
  8
0
 10
-29.0
 20
-58.0
 30
0.0
 11
-23.5
 21
-58.0
 31
0.0
  0
LINE
  5
6656
  8
0
  6
CENTER
 10
-30.651335000000469
 20
-54.0
 30
0.0
 11
27.01125299999967
 21
-54.0
 31
0.0
  0
LINE
  5
6657
  8
0
 10
20.5
 20
50.75
 30
0.0
 11
20.5
 21
57.25
 31
0.0
  0
LINE
  5
6658
  8
0
 10
19.775106000000051
 20
47.5
 30
0.0
 11
15.0
 21
47.5
 31
0.0
  0
LINE
  5
6659
  8
0
 10
19.775106000000051
 20
60.5
 30
0.0
 11
15.0
 21
60.5
 31
0.0
  0
LINE
  5
665A
  8
0
 10
15.0
 20
43.221088000000229
 30
0.0
 11
15.0
 21
61.0
 31
0.0
  0
ARC
  5
665B
  8
0
 10
0.0
 20
0.0
 30
0.0
 40
45.75
 50
273.7597999999735
 51
90.0
  0
ARC
  5
665C
  8
0
 10
0.0
 20
0.0
 30
0.0
 40
35.75
 50
289.98211604244591
 51
85.186299999973102
  0
ARC
  5
665D
  8
0
 10
0.0
 20
0.0
 30
0.0
 40
37.75
 50
274.81369799996452
 51
90.0
  0
ARC
  5
665E
  8
0
 10
0.0
 20
0.0
 30
0.0
 40
35.75
 50
94.813700000026884
 51
250.01788395755401
  0
ARC
  5
665F
  8
0
 10
0.0
 20
0.0
 30
0.0
 40
37.75
 50
94.813700000026884
 51
265.18630399999182
  0
ARC
  5
6660
  8
0
 10
0.0
 20
0.0
 30
0.0
 40
45.75
 50
93.759799999973637
 51
266.24020200004679
  0
ARC
  5
6661
  8
0
 10
-22.5
 20
49.0
 30
0.0
 40
1.0
 50
179.99998999999889
 51
269.99999599991622
  0
ARC
  5
6662
  8
0
 10
-22.5
 20
59.0
 30
0.0
 40
1.0
 50
90.0
 51
180.00000500893739
  0
ARC
  5
6663
  8
0
 10
-13.85200500000064
 20
57.25
 30
0.0
 40
7.647994999999999
 50
154.85263000003621
 51
205.1473750000074
  0
ARC
  5
6664
  8
0
 10
-13.85200500000064
 20
50.75
 30
0.0
 40
7.647994999999999
 50
154.85263000003621
 51
205.1473679999751
  0
ARC
  5
6665
  8
0
 10
-22.647995000000261
 20
57.25
 30
0.0
 40
7.647994999999999
 50
334.85263000003619
 51
25.14736999996374
  0
ARC
  5
6666
  8
0
 10
-22.647995000000261
 20
50.75
 30
0.0
 40
7.647994999999999
 50
334.85263000003619
 51
25.14736999996374
  0
ARC
  5
6667
  8
0
 10
12.85200499999973
 20
-50.75
 30
0.0
 40
7.6479945000000011
 50
334.85263000003619
 51
25.14736999996374
  0
ARC
  5
6668
  8
0
 10
12.85200499999973
 20
-57.25
 30
0.0
 40
7.6479945000000011
 50
334.85263000003619
 51
25.14736999996374
  0
ARC
  5
6669
  8
0
 10
-22.5
 20
-49.0
 30
0.0
 40
1.0
 50
90.0
 51
180.00000500893739
  0
ARC
  5
666A
  8
0
 10
-22.5
 20
-59.0
 30
0.0
 40
1.0
 50
179.99998999999889
 51
269.99999599991622
  0
ARC
  5
666B
  8
0
 10
-13.85200500000064
 20
-57.25
 30
0.0
 40
7.647994999999999
 50
154.85261999999599
 51
205.14737199999951
  0
ARC
  5
666C
  8
0
 10
-13.85200500000064
 20
-50.75
 30
0.0
 40
7.647994999999999
 50
154.85263000003621
 51
205.14737199999951
  0
ARC
  5
666D
  8
0
 10
-22.647995000000261
 20
-57.25
 30
0.0
 40
7.647994999999999
 50
334.85263000003619
 51
25.14736999996374
  0
ARC
  5
666E
  8
0
 10
-22.647995000000261
 20
-50.75
 30
0.0
 40
7.647994999999999
 50
334.85263000003619
 51
25.14736999996374
  0
ARC
  5
666F
  8
0
 10
12.85200499999973
 20
50.75
 30
0.0
 40
7.6479945000000011
 50
334.85263000003619
 51
25.14736999996374
  0
ARC
  5
6670
  8
0
 10
12.85200499999973
 20
57.25
 30
0.0
 40
7.6479945000000011
 50
334.85263000003619
 51
25.14736999996374
  0
LINE
  5
6671
  8
0
  6
CENTER
 10
0.0
 20
-103.0000000000045
 30
0.0
 11
0.0
 21
103.0000000000049
 31
0.0
  0
LINE
  5
6672
  8
0
  6
CENTER
 10
-61.036160705143622
 20
0.0
 30
0.0
 11
61.036160705143622
 21
0.0
 31
0.0
  0
ARC
  5
6673
  8
AM_0_T3
 10
0.0
 20
0.0
 30
0.0
 40
27.999999999995229
 50
334.35813633835289
 51
205.64186366164699
  0
LINE
  5
6674
  8
0
 10
62.5
 20
95.000000000003169
 30
0.0
 11
62.5
 21
81.000000000003183
 31
0.0
  0
LINE
  5
6675
  8
0
  6
CENTER
 10
45.0
 20
104.00000000000399
 30
0.0
 11
45.0
 21
71.000000000004093
 31
0.0
  0
LINE
  5
6676
  8
0
  6
CENTER
 10
-45.0
 20
104.00000000000399
 30
0.0
 11
-45.0
 21
71.000000000004093
 31
0.0
  0
LINE
  5
6677
  8
0
 10
-62.5
 20
81.000000000004093
 30
0.0
 11
-62.5
 21
95.000000000004107
 31
0.0
  0
LINE
  5
6678
  8
0
 10
-62.5
 20
95.000000000004107
 30
0.0
 11
62.5
 21
95.000000000003169
 31
0.0
  0
LINE
  5
6679
  8
0
 10
62.5
 20
81.000000000003183
 30
0.0
 11
-62.5
 21
81.000000000004093
 31
0.0
  0
LINE
  5
667A
  8
0
 10
-17.0
 20
81.000000000003183
 30
0.0
 11
-17.0
 21
60.5
 31
0.0
  0
LINE
  5
667B
  8
0
 10
-17.0
 20
47.5
 30
0.0
 11
-17.0
 21
42.47425690933278
 31
0.0
  0
LINE
  5
667C
  8
0
 10
17.0
 20
81.000000000003183
 30
0.0
 11
17.0
 21
60.5
 31
0.0
  0
LINE
  5
667D
  8
0
 10
17.0
 20
47.5
 30
0.0
 11
17.0
 21
42.474256909332333
 31
0.0
  0
LINE
  5
667E
  8
0
 10
-62.5
 20
-95.000000000003638
 30
0.0
 11
-62.5
 21
-81.000000000003624
 31
0.0
  0
LINE
  5
667F
  8
0
  6
CENTER
 10
-45.0
 20
-104.0000000000045
 30
0.0
 11
-45.0
 21
-71.000000000004547
 31
0.0
  0
LINE
  5
6680
  8
0
  6
CENTER
 10
45.0
 20
-104.0000000000045
 30
0.0
 11
45.0
 21
-71.000000000004547
 31
0.0
  0
LINE
  5
6681
  8
0
 10
62.5
 20
-81.000000000004533
 30
0.0
 11
62.5
 21
-95.000000000004533
 31
0.0
  0
LINE
  5
6682
  8
0
 10
62.5
 20
-95.000000000004533
 30
0.0
 11
-62.5
 21
-95.000000000003638
 31
0.0
  0
LINE
  5
6683
  8
0
 10
-62.5
 20
-81.000000000003624
 30
0.0
 11
62.5
 21
-81.000000000004533
 31
0.0
  0
LINE
  5
6684
  8
0
 10
17.0
 20
-81.000000000003624
 30
0.0
 11
17.0
 21
-60.499999999999538
 31
0.0
  0
LINE
  5
6685
  8
0
 10
17.0
 20
-47.5
 30
0.0
 11
17.0
 21
-42.47425690933278
 31
0.0
  0
LINE
  5
6686
  8
0
 10
-17.0
 20
-81.000000000003624
 30
0.0
 11
-17.0
 21
-60.500000000000462
 31
0.0
  0
LINE
  5
6687
  8
0
 10
-17.0
 20
-47.500000000000448
 30
0.0
 11
-16.999999999999091
 21
-42.474256909333228
 31
0.0
  0
LINE
  5
6688
  8
0
  6
CENTER
 10
-30.518080352571811
 20
-11.5
 30
0.0
 11
30.518080352571811
 21
-11.5
 31
0.0
  0
CIRCLE
  5
6689
  8
AM_0_T3
 10
0.0
 20
-11.5
 30
0.0
 40
25.25
  0
CIRCLE
  5
668A
  8
AM_0_T3
 10
0.0
 20
-11.5
 30
0.0
 40
12.70000000000004
  0
ENDSEC
  0
EOF
