  0
SECTION
  2
HEADER
  9
$ACADVER
  1
AC1009
  9
$INSBASE
 10
0.0
 20
0.0
 30
0.0
  9
$EXTMIN
 10
-61.036160705143622
 20
-105.0000000000118
 30
0.0
  9
$EXTMAX
 10
2279.3458123922101
 20
588.2813975037534
 30
0.0
  9
$LIMMIN
 10
0.0
 20
0.0
  9
$LIMMAX
 10
420.0
 20
297.0
  9
$ORTHOMODE
 70
     0
  9
$REGENMODE
 70
     1
  9
$FILLMODE
 70
     1
  9
$QTEXTMODE
 70
     0
  9
$MIRRTEXT
 70
     1
  9
$DRAGMODE
 70
     2
  9
$LTSCALE
 40
1.0
  9
$OSMODE
 70
    37
  9
$ATTMODE
 70
     1
  9
$TEXTSIZE
 40
73.985717453579113
  9
$TRACEWID
 40
1.0
  9
$TEXTSTYLE
  7
STANDARD
  9
$CLAYER
  8
0
  9
$CELTYPE
  6
BYLAYER
  9
$CECOLOR
 62
   256
  9
$DIMSCALE
 40
1.0
  9
$DIMASZ
 40
3.0
  9
$DIMEXO
 40
1.0
  9
$DIMDLI
 40
10.0
  9
$DIMRND
 40
0.0
  9
$DIMDLE
 40
0.0
  9
$DIMEXE
 40
1.0
  9
$DIMTP
 40
0.1
  9
$DIMTM
 40
0.1
  9
$DIMTXT
 40
30.0
  9
$DIMCEN
 40
0.0
  9
$DIMTSZ
 40
0.0
  9
$DIMTOL
 70
     0
  9
$DIMLIM
 70
     0
  9
$DIMTIH
 70
     0
  9
$DIMTOH
 70
     0
  9
$DIMSE1
 70
     0
  9
$DIMSE2
 70
     0
  9
$DIMTAD
 70
     3
  9
$DIMZIN
 70
     8
  9
$DIMBLK
  1
OPEN
  9
$DIMASO
 70
     1
  9
$DIMSHO
 70
     1
  9
$DIMPOST
  1

  9
$DIMAPOST
  1
"
  9
$DIMALT
 70
     0
  9
$DIMALTD
 70
     2
  9
$DIMALTF
 40
0.0393701
  9
$DIMLFAC
 40
1.0
  9
$DIMTOFL
 70
     1
  9
$DIMTVP
 40
0.0
  9
$DIMTIX
 70
     0
  9
$DIMSOXD
 70
     0
  9
$DIMSAH
 70
     0
  9
$DIMBLK1
  1

  9
$DIMBLK2
  1

  9
$DIMSTYLE
  2
TSK
  9
$DIMCLRD
 70
   256
  9
$DIMCLRE
 70
   256
  9
$DIMCLRT
 70
     2
  9
$DIMTFAC
 40
0.71
  9
$DIMGAP
 40
1.5
  9
$LUNITS
 70
     2
  9
$LUPREC
 70
     8
  9
$SKETCHINC
 40
1.0
  9
$FILLETRAD
 40
0.0
  9
$AUNITS
 70
     0
  9
$AUPREC
 70
     8
  9
$MENU
  1
.
  9
$ELEVATION
 40
0.0
  9
$PELEVATION
 40
0.0
  9
$THICKNESS
 40
0.0
  9
$LIMCHECK
 70
     0
  9
$BLIPMODE
 70
     0
  9
$CHAMFERA
 40
2.5
  9
$CHAMFERB
 40
2.5
  9
$SKPOLY
 70
     0
  9
$TDCREATE
 40
2454739.7204081588
  9
$TDUPDATE
 40
2454748.5624585291
  9
$TDINDWG
 40
0.2617092014
  9
$TDUSRTIMER
 40
0.2617092014
  9
$USRTIMER
 70
     1
  9
$ANGBASE
 50
0.0
  9
$ANGDIR
 70
     1
  9
$PDMODE
 70
     0
  9
$PDSIZE
 40
0.0
  9
$PLINEWID
 40
0.0
  9
$COORDS
 70
     1
  9
$SPLFRAME
 70
     0
  9
$SPLINETYPE
 70
     6
  9
$SPLINESEGS
 70
     8
  9
$ATTDIA
 70
     0
  9
$ATTREQ
 70
     1
  9
$HANDLING
 70
 22529
  9
$HANDSEED
  5
6728
  9
$SURFTAB1
 70
     6
  9
$SURFTAB2
 70
     6
  9
$SURFTYPE
 70
     6
  9
$SURFU
 70
     6
  9
$SURFV
 70
     6
  9
$UCSNAME
  2

  9
$UCSORG
 10
0.0
 20
0.0
 30
0.0
  9
$UCSXDIR
 10
1.0
 20
0.0
 30
0.0
  9
$UCSYDIR
 10
0.0
 20
1.0
 30
0.0
  9
$PUCSNAME
  2

  9
$PUCSORG
 10
0.0
 20
0.0
 30
0.0
  9
$PUCSXDIR
 10
1.0
 20
0.0
 30
0.0
  9
$PUCSYDIR
 10
0.0
 20
1.0
 30
0.0
  9
$USERI1
 70
     0
  9
$USERI2
 70
     0
  9
$USERI3
 70
     0
  9
$USERI4
 70
     0
  9
$USERI5
 70
     0
  9
$USERR1
 40
0.0
  9
$USERR2
 40
0.0
  9
$USERR3
 40
0.0
  9
$USERR4
 40
0.0
  9
$USERR5
 40
0.0
  9
$WORLDVIEW
 70
     1
  9
$SHADEDGE
 70
     3
  9
$SHADEDIF
 70
    70
  9
$TILEMODE
 70
     1
  9
$MAXACTVP
 70
    48
  9
$PLIMCHECK
 70
     0
  9
$PEXTMIN
 10
1.0000000000000000E+020
 20
1.0000000000000000E+020
 30
1.0000000000000000E+020
  9
$PEXTMAX
 10
-1.0000000000000000E+020
 20
-1.0000000000000000E+020
 30
-1.0000000000000000E+020
  9
$PLIMMIN
 10
0.0
 20
0.0
  9
$PLIMMAX
 10
420.0
 20
297.0
  9
$UNITMODE
 70
     0
  9
$VISRETAIN
 70
     1
  9
$PLINEGEN
 70
     0
  9
$PSLTSCALE
 70
     1
  0
ENDSEC
  0
SECTION
  2
TABLES
  0
TABLE
  2
VPORT
 70
     2
  0
VPORT
  2
*ACTIVE
 70
     0
 10
0.0
 20
0.0
 11
1.0
 21
1.0
 12
1312.7307549215971
 22
241.637489245007
 13
0.0
 23
0.0
 14
2.5
 24
2.5
 15
10.0
 25
10.0
 16
0.0
 26
0.0
 36
1.0
 17
0.0
 27
0.0
 37
0.0
 40
1535.5393244859711
 41
1.797004991680532
 42
50.0
 43
0.0
 44
0.0
 50
0.0
 51
0.0
 71
     0
 72
   100
 73
     1
 74
     3
 75
     0
 76
     0
 77
     0
 78
     0
  0
ENDTAB
  0
TABLE
  2
LTYPE
 70
     2
  0
LTYPE
  2
CONTINUOUS
 70
     0
  3
Solid line
 72
    65
 73
     0
 40
0.0
  0
LTYPE
  2
CENTER
 70
     0
  3
__ . __
 72
    65
 73
     4
 40
7.0
 49
4.0
 49
-1.0
 49
1.0
 49
-1.0
  0
ENDTAB
  0
TABLE
  2
LAYER
 70
     2
  0
LAYER
  2
0
 70
     0
 62
     7
  6
CONTINUOUS
  0
LAYER
  2
AM_0_T3
 70
     0
 62
     7
  6
CONTINUOUS
  0
ENDTAB
  0
TABLE
  2
STYLE
 70
     2
  0
STYLE
  2
STANDARD
 70
     0
 40
0.0
 41
0.7
 50
0.0
 71
     0
 42
73.985717453579113
  3
romans.shx
  4
bigfont.shx
  0
STYLE
  2
TSKDIM
 70
     0
 40
0.0
 41
0.75
 50
0.0
 71
     0
 42
4.0
  3
romans.shx
  4
EXTFONT.SHX
  0
ENDTAB
  0
TABLE
  2
VIEW
 70
     0
  0
ENDTAB
  0
TABLE
  2
UCS
 70
     0
  0
ENDTAB
  0
TABLE
  2
APPID
 70
    41
  0
APPID
  2
ACAD
 70
     0
  0
APPID
  2
MCAD_NO_VIS
 70
     0
  0
APPID
  2
ACAD_TEMP_GRAPHIC
 70
     0
  0
APPID
  2
ACATTRIBSERVICES
 70
     0
  0
APPID
  2
AD_DRAW
 70
     0
  0
APPID
  2
DESIGNERASSEMBLIES
 70
     0
  0
APPID
  2
ASURF_PCURVE_APPNAME
 70
     0
  0
APPID
  2
ACADM_DIM_EDIT
 70
     0
  0
APPID
  2
GENIUS_GENDIM_13
 70
     0
  0
APPID
  2
GENIUS_GENDTOL_13
 70
     0
  0
APPID
  2
GENIUS_GE3DTOL_13
 70
     0
  0
APPID
  2
AMG_3D2D_5_0
 70
     0
  0
APPID
  2
AMDT_DM_ADJ
 70
     0
  0
APPID
  2
CK_MATE-SERIES
 70
     0
  0
APPID
  2
GEVID1042077799
 70
     0
  0
APPID
  2
GEVMK
 70
     0
  0
APPID
  2
GEVDC
 70
     0
  0
APPID
  2
GENIUS_GENBH_13
 70
     0
  0
APPID
  2
GENIUS_GENOLIS_13
 70
     0
  0
APPID
  2
GENIUS_GENOENT_13
 70
     0
  0
APPID
  2
GENIUS_GENODEF_13
 70
     0
  0
APPID
  2
GENIUS_GENOBJ-NBEHI-BHF_13
 70
     0
  0
APPID
  2
GENIUS_GENOREF_13
 70
     0
  0
APPID
  2
GENIUS_GENOBJ-NBEHI-BHB_13
 70
     0
  0
APPID
  2
GEVID1042183772
 70
     0
  0
APPID
  2
GEVID1042183773
 70
     0
  0
APPID
  2
GEVID1042183774
 70
     0
  0
APPID
  2
DCO15
 70
     0
  0
APPID
  2
ACAD_DSTYLE_DIMARC_LENGTH_
 70
     0
  0
APPID
  2
ACAD_DSTYLE_DIMJOGGED_JOGA
 70
     0
  0
APPID
  2
ACAD_MLEADERVER
 70
     0
  0
APPID
  2
ACAD_DSTYLE_DIMJAG
 70
     0
  0
APPID
  2
ACAD_DSTYLE_DIMTALN
 70
     0
  0
APPID
  2
ACAD_PSEXT
 70
     0
  0
APPID
  2
ACAD_EXEMPT_FROM_CAD_STANDARDS
 70
     0
  0
APPID
  2
ACAD_DSTYLE_DIMINSPECT
 70
     0
  0
APPID
  2
ACAD_DSTYLE_DIMANGULAR_EXT
 70
     0
  0
APPID
  2
GENIUS_GENOBJ-N-FIL_13
 70
     0
  0
APPID
  2
ACAD_DSTYLE_DIM_LINETYPE
 70
     0
  0
APPID
  2
ACAD_DSTYLE_DIM_EXT1_LINETYPE
 70
     0
  0
APPID
  2
ACAD_DSTYLE_DIM_EXT2_LINETYPE
 70
     0
  0
ENDTAB
  0
TABLE
  2
DIMSTYLE
 70
     1
  0
DIMSTYLE
  2
TSK
 70
     0
  3

  4
"
  5
OPEN
  6

  7

 40
1.0
 41
3.0
 42
1.0
 43
10.0
 44
1.0
 45
0.0
 46
0.0
 47
0.1
 48
0.1
140
30.0
141
0.0
142
0.0
143
0.0393701
144
1.0
145
0.0
146
0.71
147
1.5
 71
     0
 72
     0
 73
     0
 74
     0
 75
     0
 76
     0
 77
     3
 78
     8
170
     0
171
     2
172
     1
173
     0
174
     0
175
     0
176
   256
177
   256
178
     2
  0
ENDTAB
  0
ENDSEC
  0
SECTION
  2
BLOCKS
  0
BLOCK
  8
0
  2
$MODEL_SPACE
 70
     0
 10
0.0
 20
0.0
 30
0.0
  3
$MODEL_SPACE
  1

  0
ENDBLK
  5
21
  8
0
  0
BLOCK
 67
     1
  8
0
  2
$PAPER_SPACE
 70
     0
 10
0.0
 20
0.0
 30
0.0
  3
$PAPER_SPACE
  1

  0
ENDBLK
  5
1D
 67
     1
  8
0
  0
BLOCK
  8
0
  2
_OPEN
 70
     0
 10
0.0
 20
0.0
 30
0.0
  3
_OPEN
  1

  0
LINE
  5
15A
  8
0
  6
BYBLOCK
 62
     0
 10
-1.0
 20
0.1666666666666666
 30
0.0
 11
0.0
 21
0.0
 31
0.0
  0
LINE
  5
15B
  8
0
  6
BYBLOCK
 62
     0
 10
-1.0
 20
-0.1666666666666666
 30
0.0
 11
0.0
 21
0.0
 31
0.0
  0
LINE
  5
15C
  8
0
  6
BYBLOCK
 62
     0
 10
0.0
 20
0.0
 30
0.0
 11
-1.0
 21
0.0
 31
0.0
  0
ENDBLK
  5
15E
  8
0
  0
ENDSEC
  0
SECTION
  2
ENTITIES
  0
LINE
  5
2038
  8
0
  6
CENTER
 10
2160.5933852006642
 20
425.81361517304867
 30
0.0
 11
2185.342122542193
 21
450.56235251457832
 31
0.0
  0
LINE
  5
203A
  8
0
  6
CENTER
 10
2132.3091139532021
 20
425.81361517304867
 30
0.0
 11
2107.5603766116719
 21
450.56235251457832
 31
0.0
  0
LINE
  5
203F
  8
0
  6
CENTER
 10
2132.3091139532021
 20
397.5293439255874
 30
0.0
 11
2107.5603766116719
 21
372.78060658405769
 31
0.0
  0
LINE
  5
2041
  8
0
  6
CENTER
 10
2160.5933852006642
 20
397.5293439255874
 30
0.0
 11
2185.342122542193
 21
372.78060658405769
 31
0.0
  0
LINE
  5
2042
  8
0
 10
274.451249576934
 20
-81.000000000011823
 30
0.0
 11
374.451249576934
 21
-81.000000000011823
 31
0.0
  0
LINE
  5
2043
  8
0
 10
374.451249576934
 20
-95.000000000011823
 30
0.0
 11
274.451249576934
 21
-95.000000000012733
 31
0.0
  0
LINE
  5
2044
  8
0
  6
CENTER
 10
361.951249576934
 20
-104.0000000000118
 30
0.0
 11
361.951249576934
 21
-71.000000000011823
 31
0.0
  0
LINE
  5
2047
  8
0
 10
374.451249576934
 20
-81.000000000011823
 30
0.0
 11
374.451249576934
 21
-95.000000000011823
 31
0.0
  0
LINE
  5
2048
  8
0
  6
CENTER
 10
286.951249576934
 20
-104.0000000000118
 30
0.0
 11
286.951249576934
 21
-71.000000000011823
 31
0.0
  0
LINE
  5
204B
  8
0
 10
274.451249576934
 20
-95.000000000012733
 30
0.0
 11
274.451249576934
 21
-81.000000000011823
 31
0.0
  0
LINE
  5
219E
  8
0
 10
1202.480402222465
 20
-41.500000000003631
 30
0.0
 11
1268.422096931401
 21
-41.500000000003631
 31
0.0
  0
LINE
  5
219F
  8
0
 10
1198.7512495769331
 20
-35.040918148763012
 30
0.0
 11
1202.480402222465
 21
-41.500000000003631
 31
0.0
  0
LINE
  5
21A0
  8
0
 10
1272.151249576933
 20
-31.750000000002721
 30
0.0
 11
2228.7012495769341
 21
-31.750000000002721
 31
0.0
  0
LINE
  5
21A1
  8
0
 10
1205.4512495769341
 20
41.499999999997272
 30
0.0
 11
1205.4512495769341
 21
-41.500000000003631
 31
0.0
  0
LINE
  5
21A2
  8
0
 10
1265.451249576932
 20
41.499999999997272
 30
0.0
 11
1265.451249576932
 21
-41.500000000003631
 31
0.0
  0
LINE
  5
21A3
  8
0
 10
1255.7012495769341
 20
-41.500000000003631
 30
0.0
 11
1255.7012495769341
 21
41.499999999996362
 31
0.0
  0
LINE
  5
21A4
  8
0
 10
1260.2012495769341
 20
-41.500000000003631
 30
0.0
 11
1260.2012495769341
 21
41.499999999997272
 31
0.0
  0
LINE
  5
21A5
  8
0
 10
1246.7012495769341
 20
-41.500000000003631
 30
0.0
 11
1246.7012495769341
 21
41.499999999996362
 31
0.0
  0
LINE
  5
21A6
  8
0
 10
1251.2012495769341
 20
-41.500000000003631
 30
0.0
 11
1251.2012495769341
 21
41.499999999997272
 31
0.0
  0
LINE
  5
21A7
  8
0
 10
1219.7012495769341
 20
-41.500000000003631
 30
0.0
 11
1219.7012495769341
 21
41.499999999996362
 31
0.0
  0
LINE
  5
21A8
  8
0
 10
1215.2012495769341
 20
-41.500000000003631
 30
0.0
 11
1215.2012495769341
 21
41.499999999996362
 31
0.0
  0
LINE
  5
21A9
  8
0
 10
1210.7012495769341
 20
-41.500000000003631
 30
0.0
 11
1210.7012495769341
 21
41.499999999996362
 31
0.0
  0
LINE
  5
21AA
  8
0
 10
1224.2012495769341
 20
-41.500000000003631
 30
0.0
 11
1224.2012495769341
 21
41.499999999997272
 31
0.0
  0
LINE
  5
21AB
  8
0
 10
1228.7012495769341
 20
-41.500000000003631
 30
0.0
 11
1228.7012495769341
 21
41.499999999996362
 31
0.0
  0
LINE
  5
21AC
  8
0
 10
1233.2012495769341
 20
-41.500000000003631
 30
0.0
 11
1233.2012495769341
 21
41.499999999997272
 31
0.0
  0
LINE
  5
21AD
  8
0
 10
1237.7012495769341
 20
-41.500000000003631
 30
0.0
 11
1237.7012495769341
 21
41.499999999996362
 31
0.0
  0
LINE
  5
21AE
  8
0
 10
1242.2012495769341
 20
-41.500000000003631
 30
0.0
 11
1242.201249576932
 21
41.499999999997272
 31
0.0
  0
LINE
  5
21AF
  8
0
 10
1198.7512495769331
 20
35.040918148756639
 30
0.0
 11
1202.480402222465
 21
41.499999999997272
 31
0.0
  0
LINE
  5
21B0
  8
0
 10
1198.7512495769331
 20
-35.040918148763012
 30
0.0
 11
1198.7512495769331
 21
35.040918148756639
 31
0.0
  0
LINE
  5
21B1
  8
0
 10
1202.480402222465
 20
41.499999999997272
 30
0.0
 11
1268.422096931401
 21
41.499999999997272
 31
0.0
  0
LINE
  5
21B2
  8
0
 10
1198.7512495769331
 20
-31.750000000003631
 30
0.0
 11
338.05124957693249
 21
-31.750000000000909
 31
0.0
  0
LINE
  5
21B3
  8
0
 10
310.85124957693358
 20
-31.75
 30
0.0
 11
242.20124957693221
 21
-31.750000000000909
 31
0.0
  0
LINE
  5
21B4
  8
0
 10
1202.480402222465
 20
-41.500000000002728
 30
0.0
 11
1202.480402222465
 21
41.499999999997272
 31
0.0
  0
LINE
  5
21B5
  8
0
 10
1272.151249576933
 20
-35.040918148763012
 30
0.0
 11
1268.422096931401
 21
-41.500000000003631
 31
0.0
  0
LINE
  5
21B6
  8
0
 10
1272.151249576933
 20
35.040918148756639
 30
0.0
 11
1268.422096931401
 21
41.499999999997272
 31
0.0
  0
LINE
  5
21B7
  8
0
 10
1272.151249576933
 20
-35.040918148763012
 30
0.0
 11
1272.151249576933
 21
35.040918148756639
 31
0.0
  0
LINE
  5
21B8
  8
AM_0_T3
 10
1268.422096931401
 20
41.499999999997272
 30
0.0
 11
1268.422096931401
 21
-41.500000000004547
 31
0.0
  0
LINE
  5
21B9
  8
0
 10
2257.451250576943
 20
-28.000000000004551
 30
0.0
 11
2244.2012495769341
 21
-28.000000000004551
 31
0.0
  0
LINE
  5
21BA
  8
0
 10
2257.451250576943
 20
27.999999999995449
 30
0.0
 11
2244.2012495769341
 21
27.999999999995449
 31
0.0
  0
LINE
  5
21BB
  8
0
 10
2257.451250576943
 20
-28.000000000004551
 30
0.0
 11
2257.451250576943
 21
27.999999999995449
 31
0.0
  0
LINE
  5
21FF
  8
0
 10
2232.69847345377
 20
60.499999999993634
 30
0.0
 11
2240.20402765377
 21
60.499999999993634
 31
0.0
  0
LINE
  5
2200
  8
0
 10
2240.204025453771
 20
60.500001999993401
 30
0.0
 11
2243.9568025537701
 21
54.000000999993063
 31
0.0
  0
LINE
  5
2201
  8
0
 10
2243.956804853769
 20
54.000000999993063
 30
0.0
 11
2240.2040277537699
 21
47.500000999993063
 31
0.0
  0
LINE
  5
2202
  8
0
 10
2240.20402765377
 20
47.499999999993634
 30
0.0
 11
2232.69847345377
 21
47.499999999993634
 31
0.0
  0
LINE
  5
2203
  8
0
 10
2228.9456952537689
 20
54.000000999993063
 30
0.0
 11
2232.6984723537689
 21
47.500000999993063
 31
0.0
  0
LINE
  5
2204
  8
0
 10
2232.6984713537709
 20
60.50000299999374
 30
0.0
 11
2228.9456942537699
 21
54.00000299999374
 31
0.0
  0
LINE
  5
2205
  8
0
 10
2240.2040266537688
 20
-60.500000000006359
 30
0.0
 11
2232.6984724537701
 21
-60.500000000006359
 31
0.0
  0
LINE
  5
2206
  8
0
 10
2232.698474653771
 20
-60.500002000006141
 30
0.0
 11
2228.9456975537701
 21
-54.000001000006712
 31
0.0
  0
LINE
  5
2207
  8
0
 10
2228.9456952537689
 20
-54.000001000006712
 30
0.0
 11
2232.6984723537689
 21
-47.500001000006698
 31
0.0
  0
LINE
  5
2208
  8
0
 10
2243.956804853769
 20
-54.000001000006712
 30
0.0
 11
2240.2040277537699
 21
-47.500001000006698
 31
0.0
  0
LINE
  5
2209
  8
0
 10
2240.2040287537711
 20
-60.500003000006473
 30
0.0
 11
2243.9568058537689
 21
-54.000003000006473
 31
0.0
  0
LINE
  5
220A
  8
0
 10
2232.6984724537701
 20
-47.500000000006359
 30
0.0
 11
2240.2040266537688
 21
-47.500000000006359
 31
0.0
  0
LINE
  5
220B
  8
0
  6
CENTER
 10
2226.4512500537712
 20
-54.000000000006366
 30
0.0
 11
2246.4512500537712
 21
-54.000000000006366
 31
0.0
  0
LINE
  5
220C
  8
0
  6
CENTER
 10
2236.4512505306079
 20
-64.000000000006366
 30
0.0
 11
2236.4512505306079
 21
-44.000000000006366
 31
0.0
  0
LINE
  5
220D
  8
0
  6
CENTER
 10
2226.45124905377
 20
53.999999999993634
 30
0.0
 11
2246.4512490537709
 21
53.999999999993634
 31
0.0
  0
LINE
  5
220E
  8
0
  6
CENTER
 10
2236.4512495769332
 20
43.999999999993634
 30
0.0
 11
2236.4512495769332
 21
63.999999999993634
 31
0.0
  0
LINE
  5
220F
  8
0
 10
2244.2012495769341
 20
-37.630605894677501
 30
0.0
 11
2244.2012495769341
 21
37.630605894663859
 31
0.0
  0
LINE
  5
2210
  8
0
 10
2228.7012495769341
 20
-37.630605894677501
 30
0.0
 11
2228.7012495769341
 21
37.630605894663859
 31
0.0
  0
LINE
  5
2213
  8
0
 10
2231.6130114510629
 20
-48.941200553756971
 30
0.0
 11
2231.6130114510629
 21
48.941200553744238
 31
0.0
  0
ARC
  5
2214
  8
0
 10
2236.4512495769332
 20
53.999999999993634
 30
0.0
 40
7.0
 50
313.72333522202422
 51
351.78676740868173
  0
ARC
  5
2215
  8
0
 10
2236.4512495769332
 20
53.999999999993634
 30
0.0
 40
7.0
 50
8.2132124140657794
 51
51.786784583428279
  0
ARC
  5
2216
  8
0
 10
2236.4512495769332
 20
53.999999999993634
 30
0.0
 40
7.0
 50
68.213210701756054
 51
111.7867892982439
  0
ARC
  5
2217
  8
0
 10
2236.4512495769332
 20
53.999999999993634
 30
0.0
 40
7.0
 50
128.2132729511531
 51
171.7867224175869
  0
ARC
  5
2218
  8
0
 10
2236.4512495769332
 20
53.999999999993634
 30
0.0
 40
7.0
 50
188.21321437744899
 51
226.2766589223782
  0
LINE
  5
2219
  8
0
 10
2241.2894974274732
 20
-48.941209854453518
 30
0.0
 11
2241.289487185793
 21
48.941200059275609
 31
0.0
  0
LINE
  5
221A
  8
0
 10
2231.6130114510629
 20
43.22108860266507
 30
0.0
 11
2241.2894877843019
 21
43.22108860266507
 31
0.0
  0
LINE
  5
221B
  8
0
 10
2228.7012495769341
 20
37.630605894663859
 30
0.0
 11
2231.6130114510629
 21
45.651533380592809
 31
0.0
  0
LINE
  5
221C
  8
0
 10
2244.2012495769341
 20
37.630605894663859
 30
0.0
 11
2241.2894877028029
 21
45.651533380592809
 31
0.0
  0
ARC
  5
221D
  8
0
 10
2236.4512495769332
 20
-54.000000000006366
 30
0.0
 40
7.0
 50
133.72334107762171
 51
171.78678562255089
  0
ARC
  5
221E
  8
0
 10
2236.4512495769332
 20
-54.000000000006366
 30
0.0
 40
7.0
 50
188.2131942002481
 51
231.78680279724071
  0
ARC
  5
221F
  8
0
 10
2236.4512495769332
 20
-54.000000000006366
 30
0.0
 40
7.0
 50
248.2132107017076
 51
291.78678929824389
  0
ARC
  5
2220
  8
0
 10
2236.4512495769332
 20
-54.000000000006366
 30
0.0
 40
7.0
 50
308.21329116507093
 51
351.78670420365859
  0
ARC
  5
2221
  8
0
 10
2236.4512495769332
 20
-54.000000000006366
 30
0.0
 40
7.0
 50
8.2132325913182846
 51
46.276548780985379
  0
LINE
  5
2222
  8
0
 10
2231.6130114510629
 20
-43.221088602678719
 30
0.0
 11
2241.2894877843019
 21
-43.221088602678719
 31
0.0
  0
LINE
  5
2223
  8
0
 10
2228.7012495769341
 20
-37.630605894677501
 30
0.0
 11
2231.6130114510629
 21
-45.651533380606452
 31
0.0
  0
LINE
  5
2224
  8
0
 10
2244.2012495769341
 20
-37.630605894677501
 30
0.0
 11
2241.2894877028029
 21
-45.651533380606452
 31
0.0
  0
LINE
  5
2225
  8
0
 10
1198.7512495769331
 20
31.749999999996358
 30
0.0
 11
242.20124957693221
 21
31.74999999999363
 31
0.0
  0
LINE
  5
2226
  8
0
  6
CENTER
 10
2277.8385539091478
 20
0.0
 30
0.0
 11
193.06394524471571
 21
-0.0000000000063665
 31
0.0
  0
LINE
  5
2227
  8
0
 10
213.45124857692269
 20
-28.000000000004551
 30
0.0
 11
226.70124957693221
 21
-28.000000000004551
 31
0.0
  0
LINE
  5
2228
  8
0
 10
213.45124857692269
 20
27.999999999995449
 30
0.0
 11
226.70124957693221
 21
27.999999999995449
 31
0.0
  0
LINE
  5
2229
  8
0
 10
213.45124857692269
 20
-28.000000000004551
 30
0.0
 11
213.45124857692269
 21
27.999999999995449
 31
0.0
  0
LINE
  5
222A
  8
0
 10
238.20402570009529
 20
60.499999999993634
 30
0.0
 11
230.6984715000944
 21
60.499999999993634
 31
0.0
  0
LINE
  5
222B
  8
0
 10
230.69847370009481
 20
60.500001999993401
 30
0.0
 11
226.94569660009441
 21
54.000000999993063
 31
0.0
  0
LINE
  5
222C
  8
0
 10
226.945694300095
 20
54.000000999993063
 30
0.0
 11
230.69847140009551
 21
47.500000999993063
 31
0.0
  0
LINE
  5
222D
  8
0
 10
230.6984715000944
 20
47.499999999993634
 30
0.0
 11
238.20402570009529
 21
47.499999999993634
 31
0.0
  0
LINE
  5
222E
  8
0
 10
241.95680390009511
 20
54.000000999993063
 30
0.0
 11
238.2040268000946
 21
47.500000999993063
 31
0.0
  0
LINE
  5
222F
  8
0
 10
238.20402780009491
 20
60.50000299999374
 30
0.0
 11
241.95680490009539
 21
54.00000299999374
 31
0.0
  0
LINE
  5
2230
  8
0
 10
230.69847250009479
 20
-60.500000000006359
 30
0.0
 11
238.20402670009571
 21
-60.500000000006359
 31
0.0
  0
LINE
  5
2231
  8
0
 10
238.2040245000953
 20
-60.500002000006141
 30
0.0
 11
241.9568016000957
 21
-54.000001000006712
 31
0.0
  0
LINE
  5
2232
  8
0
 10
241.95680390009511
 20
-54.000001000006712
 30
0.0
 11
238.2040268000946
 21
-47.500001000006698
 31
0.0
  0
LINE
  5
2233
  8
0
 10
226.945694300095
 20
-54.000001000006712
 30
0.0
 11
230.69847140009551
 21
-47.500001000006698
 31
0.0
  0
LINE
  5
2234
  8
0
 10
230.69847040009509
 20
-60.500003000006473
 30
0.0
 11
226.94569330009469
 21
-54.000003000006473
 31
0.0
  0
LINE
  5
2235
  8
0
 10
238.20402670009571
 20
-47.500000000006359
 30
0.0
 11
230.69847250009479
 21
-47.500000000006359
 31
0.0
  0
LINE
  5
2236
  8
0
  6
CENTER
 10
244.45124910009511
 20
-54.000000000006366
 30
0.0
 11
224.451249100095
 21
-54.000000000006366
 31
0.0
  0
LINE
  5
2237
  8
0
  6
CENTER
 10
234.4512486232579
 20
-64.000000000006366
 30
0.0
 11
234.4512486232579
 21
-44.000000000006366
 31
0.0
  0
LINE
  5
2238
  8
0
  6
CENTER
 10
244.45125010009539
 20
53.999999999993634
 30
0.0
 11
224.45125010009539
 21
53.999999999993634
 31
0.0
  0
LINE
  5
2239
  8
0
  6
CENTER
 10
234.45124957693221
 20
43.999999999993634
 30
0.0
 11
234.45124957693221
 21
63.999999999993634
 31
0.0
  0
LINE
  5
223A
  8
0
 10
226.70124957693221
 20
-37.630605894677501
 30
0.0
 11
226.70124957693221
 21
37.630605894663859
 31
0.0
  0
LINE
  5
223B
  8
0
 10
242.20124957693221
 20
-37.630605894677501
 30
0.0
 11
242.20124957693221
 21
37.630605894663859
 31
0.0
  0
LINE
  5
223C
  8
0
 10
239.28948770280289
 20
-48.941200553756971
 30
0.0
 11
239.28948770280289
 21
48.941200553744238
 31
0.0
  0
ARC
  5
223D
  8
0
 10
234.45124957693221
 20
53.999999999993634
 30
0.0
 40
7.0
 50
188.21323259131819
 51
226.27666477797561
  0
ARC
  5
223E
  8
0
 10
234.45124957693221
 20
53.999999999993634
 30
0.0
 40
7.0
 50
128.2132154165717
 51
171.78678758593421
  0
ARC
  5
223F
  8
0
 10
234.45124957693221
 20
53.999999999993634
 30
0.0
 40
7.0
 50
68.213210701756054
 51
111.7867892982439
  0
ARC
  5
2240
  8
0
 10
234.45124957693221
 20
53.999999999993634
 30
0.0
 40
7.0
 50
8.2132775824130864
 51
51.786727048846899
  0
ARC
  5
2241
  8
0
 10
234.45124957693221
 20
53.999999999993634
 30
0.0
 40
7.0
 50
313.7233410776218
 51
351.78678562255089
  0
LINE
  5
2242
  8
0
 10
229.61300172639309
 20
-48.941209854453518
 30
0.0
 11
229.61301196807099
 21
48.941200059275609
 31
0.0
  0
LINE
  5
2243
  8
0
 10
239.28948770280289
 20
43.22108860266507
 30
0.0
 11
229.61301136956169
 21
43.22108860266507
 31
0.0
  0
LINE
  5
2244
  8
0
 10
242.20124957693221
 20
37.630605894663859
 30
0.0
 11
239.28948770280289
 21
45.651533380592809
 31
0.0
  0
LINE
  5
2245
  8
0
 10
226.70124957693221
 20
37.630605894663859
 30
0.0
 11
229.61301145106151
 21
45.651533380592809
 31
0.0
  0
ARC
  5
2246
  8
0
 10
234.45124957693221
 20
-54.000000000006366
 30
0.0
 40
7.0
 50
8.2132143774490807
 51
46.276658922378218
  0
ARC
  5
2247
  8
0
 10
234.45124957693221
 20
-54.000000000006366
 30
0.0
 40
7.0
 50
308.21319720275932
 51
351.78680579975179
  0
ARC
  5
2248
  8
0
 10
234.45124957693221
 20
-54.000000000006366
 30
0.0
 40
7.0
 50
248.213210701756
 51
291.78678929824389
  0
ARC
  5
2249
  8
0
 10
234.45124957693221
 20
-54.000000000006366
 30
0.0
 40
7.0
 50
188.21329579634121
 51
231.78670883492899
  0
ARC
  5
224A
  8
0
 10
234.45124957693221
 20
-54.000000000006366
 30
0.0
 40
7.0
 50
133.72345121901461
 51
171.7867674086817
  0
LINE
  5
224B
  8
0
 10
239.28948770280289
 20
-43.221088602678719
 30
0.0
 11
229.61301136956169
 21
-43.221088602678719
 31
0.0
  0
LINE
  5
224C
  8
0
 10
242.20124957693221
 20
-37.630605894677501
 30
0.0
 11
239.28948770280289
 21
-45.651533380606452
 31
0.0
  0
LINE
  5
224D
  8
0
 10
226.70124957693221
 20
-37.630605894677501
 30
0.0
 11
229.61301145106151
 21
-45.651533380606452
 31
0.0
  0
LINE
  5
224E
  8
0
 10
1202.480402222465
 20
370.17147954931443
 30
0.0
 11
1268.422096931401
 21
370.17147954931443
 31
0.0
  0
LINE
  5
224F
  8
0
 10
1198.7512495769331
 20
376.630561400555
 30
0.0
 11
1202.480402222465
 21
370.17147954931443
 31
0.0
  0
LINE
  5
2250
  8
0
 10
1272.151249576933
 20
379.92147954931528
 30
0.0
 11
2107.825642785584
 21
379.92147954931528
 31
0.0
  0
LINE
  5
2251
  8
0
 10
2185.0768563682809
 20
379.92147954931528
 30
0.0
 11
2228.7012495769341
 21
379.92147954931528
 31
0.0
  0
LINE
  5
2252
  8
0
 10
1205.4512495769341
 20
453.17147954931528
 30
0.0
 11
1205.4512495769341
 21
370.17147954931443
 31
0.0
  0
LINE
  5
2253
  8
0
 10
1265.451249576932
 20
453.17147954931528
 30
0.0
 11
1265.451249576932
 21
370.17147954931443
 31
0.0
  0
LINE
  5
2254
  8
0
 10
1255.7012495769341
 20
370.17147954931443
 30
0.0
 11
1255.7012495769341
 21
453.17147954931443
 31
0.0
  0
LINE
  5
2255
  8
0
 10
1260.2012495769341
 20
370.17147954931443
 30
0.0
 11
1260.2012495769341
 21
453.17147954931528
 31
0.0
  0
LINE
  5
2256
  8
0
 10
1246.7012495769341
 20
370.17147954931443
 30
0.0
 11
1246.7012495769341
 21
453.17147954931443
 31
0.0
  0
LINE
  5
2257
  8
0
 10
1251.2012495769341
 20
370.17147954931443
 30
0.0
 11
1251.2012495769341
 21
453.17147954931528
 31
0.0
  0
LINE
  5
2258
  8
0
 10
1219.7012495769341
 20
370.17147954931443
 30
0.0
 11
1219.7012495769341
 21
453.17147954931443
 31
0.0
  0
LINE
  5
2259
  8
0
 10
1215.2012495769341
 20
370.17147954931443
 30
0.0
 11
1215.2012495769341
 21
453.17147954931443
 31
0.0
  0
LINE
  5
225A
  8
0
 10
1210.7012495769341
 20
370.17147954931443
 30
0.0
 11
1210.7012495769341
 21
453.17147954931443
 31
0.0
  0
LINE
  5
225B
  8
0
 10
1224.2012495769341
 20
370.17147954931443
 30
0.0
 11
1224.2012495769341
 21
453.17147954931528
 31
0.0
  0
LINE
  5
225C
  8
0
 10
1228.7012495769341
 20
370.17147954931443
 30
0.0
 11
1228.7012495769341
 21
453.17147954931443
 31
0.0
  0
LINE
  5
225D
  8
0
 10
1233.2012495769341
 20
370.17147954931443
 30
0.0
 11
1233.2012495769341
 21
453.17147954931528
 31
0.0
  0
LINE
  5
225E
  8
0
 10
1237.7012495769341
 20
370.17147954931443
 30
0.0
 11
1237.7012495769341
 21
453.17147954931443
 31
0.0
  0
LINE
  5
225F
  8
0
 10
1242.2012495769341
 20
370.17147954931443
 30
0.0
 11
1242.201249576932
 21
453.17147954931528
 31
0.0
  0
LINE
  5
2260
  8
0
 10
1198.7512495769331
 20
446.7123976980746
 30
0.0
 11
1202.480402222465
 21
453.17147954931528
 31
0.0
  0
LINE
  5
2261
  8
0
 10
1198.7512495769331
 20
376.630561400555
 30
0.0
 11
1198.7512495769331
 21
446.7123976980746
 31
0.0
  0
LINE
  5
2262
  8
0
 10
1202.480402222465
 20
453.17147954931528
 30
0.0
 11
1268.422096931401
 21
453.17147954931528
 31
0.0
  0
LINE
  5
2263
  8
0
 10
1272.151249576933
 20
443.42147954931443
 30
0.0
 11
2107.825642785579
 21
443.42147954931261
 31
0.0
  0
LINE
  5
2264
  8
0
 10
2185.0768563682859
 20
443.42147954931352
 30
0.0
 11
2228.7012495769341
 21
443.4214795493117
 31
0.0
  0
LINE
  5
2265
  8
0
 10
1202.480402222465
 20
370.17147954931528
 30
0.0
 11
1202.480402222465
 21
453.17147954931528
 31
0.0
  0
LINE
  5
2266
  8
0
 10
1272.151249576933
 20
376.630561400555
 30
0.0
 11
1268.422096931401
 21
370.17147954931443
 31
0.0
  0
LINE
  5
2267
  8
0
 10
1272.151249576933
 20
446.7123976980746
 30
0.0
 11
1268.422096931401
 21
453.17147954931528
 31
0.0
  0
LINE
  5
2268
  8
0
 10
1272.151249576933
 20
376.630561400555
 30
0.0
 11
1272.151249576933
 21
446.7123976980746
 31
0.0
  0
LINE
  5
2269
  8
AM_0_T3
 10
1268.422096931401
 20
453.17147954931528
 30
0.0
 11
1268.422096931401
 21
370.17147954931352
 31
0.0
  0
LINE
  5
226A
  8
0
 10
2257.451250576943
 20
383.67147954931352
 30
0.0
 11
2244.2012495769341
 21
383.67147954931352
 31
0.0
  0
LINE
  5
226B
  8
0
 10
2257.451250576943
 20
439.67147954931352
 30
0.0
 11
2244.2012495769341
 21
439.67147954931352
 31
0.0
  0
LINE
  5
226C
  8
0
 10
2257.451250576943
 20
383.67147954931352
 30
0.0
 11
2257.451250576943
 21
439.67147954931352
 31
0.0
  0
LINE
  5
226D
  8
0
 10
2244.2012495769341
 20
373.92147954930442
 30
0.0
 11
2244.2012495769341
 21
449.42147954931892
 31
0.0
  0
LINE
  5
226E
  8
0
 10
2228.7012495769341
 20
373.92147954930442
 30
0.0
 11
2228.7012495769341
 21
449.42147954931892
 31
0.0
  0
LINE
  5
226F
  8
0
 10
2231.6130114510629
 20
365.92147954930527
 30
0.0
 11
2231.6130114510629
 21
391.33820987084522
 31
0.0
  0
LINE
  5
2270
  8
0
 10
2231.6130114510629
 20
435.17147954931801
 30
0.0
 11
2231.6130114510629
 21
457.42147954931892
 31
0.0
  0
LINE
  5
2271
  8
0
 10
2241.2894970935681
 20
365.92147954930527
 30
0.0
 11
2241.2894944341529
 21
391.33821152201381
 31
0.0
  0
LINE
  5
2272
  8
0
 10
2241.2894898477689
 20
435.17147954931801
 30
0.0
 11
2241.2894875196962
 21
457.42147954931892
 31
0.0
  0
LINE
  5
2273
  8
0
 10
1198.7512495769331
 20
379.92147954931528
 30
0.0
 11
242.20124957693221
 21
379.92147954931528
 31
0.0
  0
LINE
  5
2274
  8
0
 10
1198.7512495769331
 20
443.42147954931443
 30
0.0
 11
242.20124957693221
 21
443.4214795493117
 31
0.0
  0
LINE
  5
2275
  8
0
  6
CENTER
 10
2277.8385539091478
 20
411.67147954931801
 30
0.0
 11
193.06394524471571
 21
411.67147954931158
 31
0.0
  0
LINE
  5
2276
  8
0
 10
213.45124857692269
 20
383.67147954931352
 30
0.0
 11
226.70124957693221
 21
383.67147954931352
 31
0.0
  0
LINE
  5
2277
  8
0
 10
213.45124857692269
 20
439.67147954931352
 30
0.0
 11
226.70124957693221
 21
439.67147954931352
 31
0.0
  0
LINE
  5
2278
  8
0
 10
213.45124857692269
 20
383.67147954931352
 30
0.0
 11
213.45124857692269
 21
439.67147954931352
 31
0.0
  0
LINE
  5
2279
  8
AM_0_T3
 10
2228.7012495769341
 20
449.42147954931892
 30
0.0
 11
2231.6130114510629
 21
457.42147954931892
 31
0.0
  0
LINE
  5
227A
  8
AM_0_T3
 10
2244.2012495769341
 20
449.42147954931892
 30
0.0
 11
2241.2894875196962
 21
457.42147954931892
 31
0.0
  0
LINE
  5
227B
  8
AM_0_T3
 10
2231.6130114510629
 20
457.42147954931892
 30
0.0
 11
2241.2894875196962
 21
457.42147954931892
 31
0.0
  0
LINE
  5
227C
  8
AM_0_T3
 10
2228.7012495769341
 20
373.92147954930442
 30
0.0
 11
2231.6130114510629
 21
365.92147954930527
 31
0.0
  0
LINE
  5
227D
  8
AM_0_T3
 10
2244.2012495769341
 20
373.92147954930442
 30
0.0
 11
2241.2894875196962
 21
365.92147954930527
 31
0.0
  0
LINE
  5
227E
  8
AM_0_T3
 10
2231.6130114510629
 20
365.92147954930527
 30
0.0
 11
2241.2894970935681
 21
365.92147954930527
 31
0.0
  0
LINE
  5
227F
  8
0
 10
2243.4512490537709
 20
396.67147954931801
 30
0.0
 11
2243.4512490537709
 21
408.67147954931801
 31
0.0
  0
LINE
  5
2280
  8
0
 10
2243.4512490537709
 20
408.67147954931801
 30
0.0
 11
2229.4512490537709
 21
408.67147954931801
 31
0.0
  0
LINE
  5
2281
  8
0
 10
2243.4512490537709
 20
426.67147954931812
 30
0.0
 11
2243.4512490537709
 21
414.67147954931801
 31
0.0
  0
LINE
  5
2282
  8
0
 10
2243.4512490537709
 20
414.67147954931801
 30
0.0
 11
2229.4512490537709
 21
414.67147954931801
 31
0.0
  0
LINE
  5
2283
  8
0
 10
2240.4512490537709
 20
414.67147954931801
 30
0.0
 11
2240.4512490537709
 21
408.67147954931801
 31
0.0
  0
LINE
  5
2284
  8
0
 10
2232.4512490537709
 20
414.67147954931801
 30
0.0
 11
2232.4512490537709
 21
408.67147954931801
 31
0.0
  0
LINE
  5
2285
  8
0
 10
2243.4512490537709
 20
426.67147954931812
 30
0.0
 11
2229.4512490537709
 21
426.67147954931892
 31
0.0
  0
LINE
  5
2286
  8
0
 10
2232.4512490537709
 20
440.67147954931801
 30
0.0
 11
2232.4512490537709
 21
435.17147954931801
 31
0.0
  0
LINE
  5
2287
  8
0
 10
2231.45124905377
 20
435.17147954931801
 30
0.0
 11
2241.4512490537709
 21
435.17147954931801
 31
0.0
  0
LINE
  5
2288
  8
0
 10
2232.4512490537709
 20
440.67147954931801
 30
0.0
 11
2240.4512490537709
 21
440.67147954931801
 31
0.0
  0
LINE
  5
2289
  8
0
 10
2230.4512490537709
 20
434.17147954931812
 30
0.0
 11
2230.4512490537709
 21
433.17147954931801
 31
0.0
  0
LINE
  5
228A
  8
0
 10
2242.45124905377
 20
434.17147954931812
 30
0.0
 11
2242.45124905377
 21
433.17147954931801
 31
0.0
  0
LINE
  5
228B
  8
0
 10
2242.9512490537709
 20
433.17147954931801
 30
0.0
 11
2229.95124905377
 21
433.17147954931801
 31
0.0
  0
LINE
  5
228C
  8
0
 10
2242.9512490537709
 20
433.17147954931801
 30
0.0
 11
2242.9512490537709
 21
426.67147954931812
 31
0.0
  0
LINE
  5
228D
  8
0
 10
2229.95124905377
 20
433.17147954931801
 30
0.0
 11
2229.95124905377
 21
426.67147954931812
 31
0.0
  0
LINE
  5
228E
  8
0
 10
2240.4512490537709
 20
440.67147954931801
 30
0.0
 11
2240.4512490537709
 21
435.17147954931801
 31
0.0
  0
LINE
  5
228F
  8
0
  6
CENTER
 10
2236.4512490537709
 20
442.32281454931848
 30
0.0
 11
2236.4512490537709
 21
385.28296454931842
 31
0.0
  0
LINE
  5
2290
  8
0
 10
2233.2012490537709
 20
391.17147954931801
 30
0.0
 11
2239.7012490537709
 21
391.17147954931801
 31
0.0
  0
LINE
  5
2291
  8
0
 10
2229.95124905377
 20
391.89637354931801
 30
0.0
 11
2229.95124905377
 21
396.67147954931801
 31
0.0
  0
LINE
  5
2292
  8
0
 10
2242.9512490537709
 20
391.89637354931801
 30
0.0
 11
2242.9512490537709
 21
396.67147954931801
 31
0.0
  0
LINE
  5
2293
  8
0
 10
2229.4512490537709
 20
396.67147954931801
 30
0.0
 11
2243.4512490537709
 21
396.67147954931801
 31
0.0
  0
ARC
  5
2294
  8
0
 10
2231.45124905377
 20
434.17147954931812
 30
0.0
 40
1.0
 50
89.999989999998988
 51
179.99999599996829
  0
ARC
  5
2295
  8
0
 10
2241.4512490537709
 20
434.17147954931812
 30
0.0
 40
1.0
 50
0.0
 51
90.000005008937407
  0
ARC
  5
2296
  8
0
 10
2239.7012490537709
 20
425.52348454931871
 30
0.0
 40
7.647994999999999
 50
64.852630000036257
 51
115.1473750000074
  0
ARC
  5
2297
  8
0
 10
2233.2012490537709
 20
425.52348454931871
 30
0.0
 40
7.647994999999999
 50
64.852630000036257
 51
115.1473679999751
  0
ARC
  5
2298
  8
0
 10
2239.7012490537709
 20
434.31947454931827
 30
0.0
 40
7.647994999999999
 50
244.85263000003621
 51
295.1473699999637
  0
ARC
  5
2299
  8
0
 10
2233.2012490537709
 20
434.31947454931827
 30
0.0
 40
7.647994999999999
 50
244.85263000003621
 51
295.1473699999637
  0
ARC
  5
229A
  8
0
 10
2233.2012490537709
 20
398.81947454931827
 30
0.0
 40
7.6479945000000011
 50
244.85263000003621
 51
295.1473699999637
  0
ARC
  5
229B
  8
0
 10
2239.7012490537709
 20
398.81947454931827
 30
0.0
 40
7.6479945000000011
 50
244.85263000003621
 51
295.1473699999637
  0
LINE
  5
229C
  8
0
 10
2229.4512490537709
 20
396.67147954931801
 30
0.0
 11
2229.4512490537709
 21
408.67147954931801
 31
0.0
  0
LINE
  5
229D
  8
0
 10
2229.4512490537709
 20
426.67147954931892
 30
0.0
 11
2229.4512490537709
 21
414.67147954931801
 31
0.0
  0
LINE
  5
229E
  8
0
  6
CENTER
 10
2146.4512495769318
 20
346.97004502532121
 30
0.0
 11
2146.4512495769341
 21
476.3729140733148
 31
0.0
  0
LINE
  5
22A0
  8
0
  6
CENTER
 10
324.451249576934
 20
-105.0000000000118
 30
0.0
 11
324.451249576934
 21
-0.0000000000063665
 31
0.0
  0
LINE
  5
22A1
  8
0
 10
338.05124957693249
 20
-81.000000000011823
 30
0.0
 11
338.05124957693249
 21
-31.750000000000909
 31
0.0
  0
LINE
  5
22A2
  8
0
 10
310.85124957693358
 20
-81.000000000011823
 30
0.0
 11
310.85124957693358
 21
-31.75
 31
0.0
  0
TEXT
  5
22A3
  8
0
 10
817.59410671978935
 20
538.28139750375328
 30
0.0
 40
50.0
  1
2.5SX2000L-20AX15A
 72
     4
 11
1235.451249576932
 21
563.28139750375328
 31
0.0
  0
LINE
  5
2321
  8
0
 10
226.70124957693221
 20
373.92147954930442
 30
0.0
 11
226.70124957693221
 21
449.42147954931892
 31
0.0
  0
LINE
  5
2322
  8
0
 10
242.20124957693221
 20
373.92147954930442
 30
0.0
 11
242.20124957693221
 21
449.42147954931892
 31
0.0
  0
LINE
  5
2323
  8
0
 10
239.28948770280289
 20
365.92147954930527
 30
0.0
 11
239.28948770280289
 21
391.33820987084522
 31
0.0
  0
LINE
  5
2324
  8
0
 10
239.28948770280289
 20
435.17147954931801
 30
0.0
 11
239.28948770280289
 21
457.42147954931892
 31
0.0
  0
LINE
  5
2325
  8
0
 10
229.6130020602977
 20
365.92147954930527
 30
0.0
 11
229.61300471971111
 21
391.33821152201381
 31
0.0
  0
LINE
  5
2326
  8
0
 10
229.61300930609639
 20
435.17147954931801
 30
0.0
 11
229.6130116341682
 21
457.42147954931892
 31
0.0
  0
LINE
  5
2327
  8
AM_0_T3
 10
242.20124957693221
 20
449.42147954931892
 30
0.0
 11
239.28948770280289
 21
457.42147954931892
 31
0.0
  0
LINE
  5
2328
  8
AM_0_T3
 10
226.70124957693221
 20
449.42147954931892
 30
0.0
 11
229.6130116341682
 21
457.42147954931892
 31
0.0
  0
LINE
  5
2329
  8
AM_0_T3
 10
239.28948770280289
 20
457.42147954931892
 30
0.0
 11
229.6130116341682
 21
457.42147954931892
 31
0.0
  0
LINE
  5
232A
  8
AM_0_T3
 10
242.20124957693221
 20
373.92147954930442
 30
0.0
 11
239.28948770280289
 21
365.92147954930527
 31
0.0
  0
LINE
  5
232B
  8
AM_0_T3
 10
226.70124957693221
 20
373.92147954930442
 30
0.0
 11
229.6130116341682
 21
365.92147954930527
 31
0.0
  0
LINE
  5
232C
  8
AM_0_T3
 10
239.28948770280289
 20
365.92147954930527
 30
0.0
 11
229.6130020602977
 21
365.92147954930527
 31
0.0
  0
LINE
  5
232D
  8
0
 10
227.45125010009539
 20
396.67147954931801
 30
0.0
 11
227.45125010009539
 21
408.67147954931801
 31
0.0
  0
LINE
  5
232E
  8
0
 10
227.45125010009539
 20
408.67147954931801
 30
0.0
 11
241.45125010009539
 21
408.67147954931801
 31
0.0
  0
LINE
  5
232F
  8
0
 10
227.45125010009539
 20
426.67147954931812
 30
0.0
 11
227.45125010009539
 21
414.67147954931801
 31
0.0
  0
LINE
  5
2330
  8
0
 10
227.45125010009539
 20
414.67147954931801
 30
0.0
 11
241.45125010009539
 21
414.67147954931801
 31
0.0
  0
LINE
  5
2331
  8
0
 10
230.45125010009539
 20
414.67147954931801
 30
0.0
 11
230.45125010009539
 21
408.67147954931801
 31
0.0
  0
LINE
  5
2332
  8
0
 10
238.45125010009539
 20
414.67147954931801
 30
0.0
 11
238.45125010009539
 21
408.67147954931801
 31
0.0
  0
LINE
  5
2333
  8
0
 10
227.45125010009539
 20
426.67147954931812
 30
0.0
 11
241.45125010009539
 21
426.67147954931892
 31
0.0
  0
LINE
  5
2334
  8
0
 10
238.45125010009539
 20
440.67147954931801
 30
0.0
 11
238.45125010009539
 21
435.17147954931801
 31
0.0
  0
LINE
  5
2335
  8
0
 10
239.45125010009539
 20
435.17147954931801
 30
0.0
 11
229.45125010009539
 21
435.17147954931801
 31
0.0
  0
LINE
  5
2336
  8
0
 10
238.45125010009539
 20
440.67147954931801
 30
0.0
 11
230.45125010009539
 21
440.67147954931801
 31
0.0
  0
LINE
  5
2337
  8
0
 10
240.45125010009539
 20
434.17147954931812
 30
0.0
 11
240.45125010009539
 21
433.17147954931801
 31
0.0
  0
LINE
  5
2338
  8
0
 10
228.45125010009539
 20
434.17147954931812
 30
0.0
 11
228.45125010009539
 21
433.17147954931801
 31
0.0
  0
LINE
  5
2339
  8
0
 10
227.95125010009539
 20
433.17147954931801
 30
0.0
 11
240.95125010009539
 21
433.17147954931801
 31
0.0
  0
LINE
  5
233A
  8
0
 10
227.95125010009539
 20
433.17147954931801
 30
0.0
 11
227.95125010009539
 21
426.67147954931812
 31
0.0
  0
LINE
  5
233B
  8
0
 10
240.95125010009539
 20
433.17147954931801
 30
0.0
 11
240.95125010009539
 21
426.67147954931812
 31
0.0
  0
LINE
  5
233C
  8
0
 10
230.45125010009539
 20
440.67147954931801
 30
0.0
 11
230.45125010009539
 21
435.17147954931801
 31
0.0
  0
LINE
  5
233D
  8
0
  6
CENTER
 10
234.45125010009539
 20
442.32281454931848
 30
0.0
 11
234.45125010009539
 21
385.28296454931842
 31
0.0
  0
LINE
  5
233E
  8
0
 10
237.70125010009539
 20
391.17147954931801
 30
0.0
 11
231.20125010009539
 21
391.17147954931801
 31
0.0
  0
LINE
  5
233F
  8
0
 10
240.95125010009539
 20
391.89637354931801
 30
0.0
 11
240.95125010009539
 21
396.67147954931801
 31
0.0
  0
LINE
  5
2340
  8
0
 10
227.95125010009539
 20
391.89637354931801
 30
0.0
 11
227.95125010009539
 21
396.67147954931801
 31
0.0
  0
LINE
  5
2341
  8
0
 10
241.45125010009539
 20
396.67147954931801
 30
0.0
 11
227.45125010009539
 21
396.67147954931801
 31
0.0
  0
ARC
  5
2342
  8
0
 10
239.45125010009539
 20
434.17147954931812
 30
0.0
 40
1.0
 50
0.0000040000316687
 51
90.000010000001026
  0
ARC
  5
2343
  8
0
 10
229.45125010009539
 20
434.17147954931812
 30
0.0
 40
1.0
 50
89.999994991062593
 51
180.0
  0
ARC
  5
2344
  8
0
 10
231.20125010009539
 20
425.52348454931871
 30
0.0
 40
7.647994999999999
 50
64.852624999992557
 51
115.1473699999637
  0
ARC
  5
2345
  8
0
 10
237.70125010009539
 20
425.52348454931871
 30
0.0
 40
7.647994999999999
 50
64.852632000024855
 51
115.1473699999637
  0
ARC
  5
2346
  8
0
 10
231.20125010009539
 20
434.31947454931827
 30
0.0
 40
7.647994999999999
 50
244.85263000003621
 51
295.1473699999637
  0
ARC
  5
2347
  8
0
 10
237.70125010009539
 20
434.31947454931827
 30
0.0
 40
7.647994999999999
 50
244.85263000003621
 51
295.1473699999637
  0
ARC
  5
2348
  8
0
 10
237.70125010009539
 20
398.81947454931827
 30
0.0
 40
7.6479945000000011
 50
244.85263000003621
 51
295.1473699999637
  0
ARC
  5
2349
  8
0
 10
231.20125010009539
 20
398.81947454931827
 30
0.0
 40
7.6479945000000011
 50
244.85263000003621
 51
295.1473699999637
  0
LINE
  5
234A
  8
0
 10
241.45125010009539
 20
396.67147954931801
 30
0.0
 11
241.45125010009539
 21
408.67147954931801
 31
0.0
  0
LINE
  5
234B
  8
0
 10
241.45125010009539
 20
426.67147954931892
 30
0.0
 11
241.45125010009539
 21
414.67147954931801
 31
0.0
  0
ARC
  5
234D
  8
AM_0_T3
 10
324.45124957693218
 20
-60.439762982638058
 30
0.0
 40
31.749999999998138
 50
64.637332180865442
 51
115.36266781906509
  0
LINE
  5
2367
  8
0
  6
CENTER
 10
310.30911395320072
 20
425.8136151730377
 30
0.0
 11
285.56037661167278
 21
450.56235251456741
 31
0.0
  0
ARC
  5
2368
  8
0
 10
324.45124957693218
 20
411.671479549308
 30
0.0
 40
50.0
 50
39.419984467064161
 51
140.58001553293579
  0
ARC
  5
2369
  8
0
 10
324.45124957693218
 20
411.671479549308
 30
0.0
 40
50.0
 50
219.4199844670641
 51
320.58001553293582
  0
LINE
  5
236A
  8
0
  6
CENTER
 10
338.5933852006637
 20
425.81361517303861
 30
0.0
 11
363.34212254219159
 21
450.56235251456837
 31
0.0
  0
ARC
  5
236B
  8
0
  6
CENTER
 10
324.45124957693218
 20
411.671479549308
 30
0.0
 40
37.5
 50
57.850947573951061
 51
122.1490524260489
  0
ARC
  5
236C
  8
0
  6
CENTER
 10
324.45124957693218
 20
411.671479549308
 30
0.0
 40
37.5
 50
237.850947573951
 51
302.14905242604891
  0
ARC
  5
236D
  8
0
 10
350.9677538714277
 20
438.18798384380352
 30
0.0
 40
7.5
 50
44.250717304283661
 51
135.74928269571629
  0
ARC
  5
236E
  8
0
 10
297.93474528243672
 20
438.18798384380261
 30
0.0
 40
7.5
 50
44.250717304283661
 51
135.74928269571629
  0
ARC
  5
236F
  8
0
 10
350.9677538714277
 20
385.15497525481248
 30
0.0
 40
7.5
 50
224.2507173041362
 51
315.74928269586371
  0
LINE
  5
2370
  8
0
  6
CENTER
 10
338.5933852006637
 20
397.52934392557739
 30
0.0
 11
363.34212254219341
 21
372.78060658404769
 31
0.0
  0
ARC
  5
2371
  8
0
 10
297.93474528243672
 20
385.15497525481157
 30
0.0
 40
7.5
 50
224.2507173041362
 51
315.74928269586371
  0
LINE
  5
2372
  8
0
  6
CENTER
 10
310.30911395320072
 20
397.52934392557648
 30
0.0
 11
285.56037661167278
 21
372.78060658404678
 31
0.0
  0
LINE
  5
2373
  8
0
  6
CENTER
 10
324.45124957693218
 20
346.97004502532121
 30
0.0
 11
324.45124957693218
 21
476.3729140733148
 31
0.0
  0
LINE
  5
2374
  8
0
 10
2196.4512495769318
 20
81.000000000004533
 30
0.0
 11
2096.4512495769318
 21
81.000000000004533
 31
0.0
  0
LINE
  5
2375
  8
0
 10
2096.4512495769318
 20
95.000000000004533
 30
0.0
 11
2196.4512495769318
 21
95.000000000005457
 31
0.0
  0
LINE
  5
2376
  8
0
  6
CENTER
 10
2108.9512495769318
 20
104.0000000000045
 30
0.0
 11
2108.9512495769318
 21
71.000000000004547
 31
0.0
  0
LINE
  5
2379
  8
0
 10
2096.4512495769318
 20
81.000000000004533
 30
0.0
 11
2096.4512495769318
 21
95.000000000004533
 31
0.0
  0
LINE
  5
237A
  8
0
  6
CENTER
 10
2183.9512495769318
 20
104.0000000000045
 30
0.0
 11
2183.9512495769318
 21
71.000000000004547
 31
0.0
  0
LINE
  5
237D
  8
0
 10
2196.4512495769318
 20
95.000000000005457
 30
0.0
 11
2196.4512495769318
 21
81.000000000004533
 31
0.0
  0
LINE
  5
237E
  8
0
  6
CENTER
 10
2146.4512495769318
 20
105.0000000000045
 30
0.0
 11
2146.4512495769318
 21
-0.0000000000009095
 31
0.0
  0
LINE
  5
237F
  8
0
 10
2132.8512495769319
 20
81.000000000004533
 30
0.0
 11
2132.8512495769319
 21
31.74999999999363
 31
0.0
  0
LINE
  5
2380
  8
0
 10
2160.0512495769322
 20
81.000000000004533
 30
0.0
 11
2160.0512495769322
 21
31.74999999999272
 31
0.0
  0
ARC
  5
2381
  8
AM_0_T3
 10
2146.4512495769341
 20
60.439762982630782
 30
0.0
 40
31.749999999998138
 50
244.6373321808654
 51
295.36266781908739
  0
LINE
  5
2382
  8
0
 10
1272.151249576933
 20
31.749999999996358
 30
0.0
 11
2132.8512495769319
 21
31.74999999999363
 31
0.0
  0
LINE
  5
2383
  8
0
 10
2160.0512495769322
 20
31.74999999999272
 30
0.0
 11
2228.7012495769341
 21
31.74999999999363
 31
0.0
  0
LINE
  5
264E
  8
0
 10
194.451249576934
 20
3.1999999999934512
 30
0.0
 11
194.451249576934
 21
-30.800000000006548
 31
0.0
  0
LINE
  5
264F
  8
0
 10
197.3012495769344
 20
2.4207734875317319
 30
0.0
 11
197.3012495769344
 21
-30.020773487544819
 31
0.0
  0
LINE
  5
2650
  8
0
 10
196.7410835463651
 20
3.1999999999934512
 30
0.0
 11
194.451249576934
 21
3.1999999999934512
 31
0.0
  0
LINE
  5
2651
  8
0
 10
200.9400815940898
 20
-2.9500000000061841
 30
0.0
 11
213.45124857692269
 21
-2.9500000000070941
 31
0.0
  0
LINE
  5
2652
  8
0
 10
199.5397444307236
 20
-24.64995868110509
 30
0.0
 11
199.5397444307236
 21
-2.9500413189080059
 31
0.0
  0
LINE
  5
2653
  8
0
 10
197.49283764299429
 20
2.6736161146536679
 30
0.0
 11
199.06069635251879
 21
-1.634040286658091
 31
0.0
  0
ARC
  5
2654
  8
0
 10
196.7410835463651
 20
2.3999999999932689
 30
0.0
 40
0.8
 50
20.00000000004712
 51
90.0
1001
GENIUS_GENODEF_13
1002
{
1000
HIER
1070
     0
1002
}
1002
{
1000
MANEDIT
1070
     0
1002
}
1002
{
1000
NOSEL
1070
     0
1002
}
1002
{
1000
BEHIND
1070
     0
1002
}
1002
{
1000
OTHER
1070
     0
1002
}
1002
{
1000
REACTOR
1002
}
1001
GENIUS_GENOBJ-N-FIL_13
1002
{
1000
OWNER
1000
GEN
1002
}
  0
ARC
  5
2655
  8
0
 10
200.9400815940898
 20
-0.9500000000061845
 30
0.0
 40
2.0
 50
200.00000000004709
 51
270.0
1001
GENIUS_GENODEF_13
1002
{
1000
HIER
1070
     0
1002
}
1002
{
1000
MANEDIT
1070
     0
1002
}
1002
{
1000
NOSEL
1070
     0
1002
}
1002
{
1000
BEHIND
1070
     0
1002
}
1002
{
1000
OTHER
1070
     0
1002
}
1002
{
1000
REACTOR
1002
}
1001
GENIUS_GENOBJ-N-FIL_13
1002
{
1000
OWNER
1000
GEN
1002
}
  0
LINE
  5
2656
  8
0
 10
196.7410835463651
 20
-30.800000000006548
 30
0.0
 11
194.451249576934
 21
-30.800000000006548
 31
0.0
  0
LINE
  5
2657
  8
0
 10
200.9400815940898
 20
-24.650000000006909
 30
0.0
 11
213.45124857692269
 21
-24.650000000006909
 31
0.0
  0
LINE
  5
2658
  8
0
 10
197.49283764299429
 20
-30.273616114667671
 30
0.0
 11
199.06069635251879
 21
-25.965959713355002
 31
0.0
  0
ARC
  5
2659
  8
0
 10
196.7410835463651
 20
-30.000000000006359
 30
0.0
 40
0.8
 50
270.0
 51
339.99999999995282
1001
GENIUS_GENODEF_13
1002
{
1000
HIER
1070
     0
1002
}
1002
{
1000
MANEDIT
1070
     0
1002
}
1002
{
1000
NOSEL
1070
     0
1002
}
1002
{
1000
BEHIND
1070
     0
1002
}
1002
{
1000
OTHER
1070
     0
1002
}
1002
{
1000
REACTOR
1002
}
1001
GENIUS_GENOBJ-N-FIL_13
1002
{
1000
OWNER
1000
GEN
1002
}
  0
ARC
  5
265A
  8
0
 10
200.9400815940898
 20
-26.650000000006909
 30
0.0
 40
2.0
 50
90.0
 51
159.99999999995279
1001
GENIUS_GENODEF_13
1002
{
1000
HIER
1070
     0
1002
}
1002
{
1000
MANEDIT
1070
     0
1002
}
1002
{
1000
NOSEL
1070
     0
1002
}
1002
{
1000
BEHIND
1070
     0
1002
}
1002
{
1000
OTHER
1070
     0
1002
}
1002
{
1000
REACTOR
1002
}
1001
GENIUS_GENOBJ-N-FIL_13
1002
{
1000
OWNER
1000
GEN
1002
}
  0
LINE
  5
265B
  8
0
 10
2276.4512495769341
 20
-3.2000000000007272
 30
0.0
 11
2276.4512495769341
 21
30.799999999999269
 31
0.0
  0
LINE
  5
265C
  8
0
 10
2273.6012495769328
 20
-2.4207734875380988
 30
0.0
 11
2273.6012495769328
 21
30.02077348753846
 31
0.0
  0
LINE
  5
265D
  8
0
  6
CENTER
 10
2279.3458123922101
 20
13.799999999999271
 30
0.0
 11
2256.7933566166989
 21
13.799999999999271
 31
0.0
  0
LINE
  5
265E
  8
0
 10
2274.161415607502
 20
-3.2000000000007272
 30
0.0
 11
2276.4512495769341
 21
-3.2000000000007272
 31
0.0
  0
LINE
  5
265F
  8
0
 10
2269.9624175597778
 20
2.9499999999998181
 30
0.0
 11
2257.4512505769449
 21
2.9499999999998181
 31
0.0
  0
LINE
  5
2660
  8
0
 10
2271.362754723144
 20
24.649958681097811
 30
0.0
 11
2271.362754723144
 21
2.950041318901639
 31
0.0
  0
LINE
  5
2661
  8
0
 10
2273.4096615108729
 20
-2.6736161146609438
 30
0.0
 11
2271.8418028013489
 21
1.634040286650815
 31
0.0
  0
ARC
  5
2662
  8
0
 10
2274.161415607502
 20
-2.4000000000005448
 30
0.0
 40
0.8
 50
199.9999999999981
 51
270.0
1001
GENIUS_GENODEF_13
1002
{
1000
HIER
1070
     0
1002
}
1002
{
1000
MANEDIT
1070
     0
1002
}
1002
{
1000
NOSEL
1070
     0
1002
}
1002
{
1000
BEHIND
1070
     0
1002
}
1002
{
1000
OTHER
1070
     0
1002
}
1002
{
1000
REACTOR
1002
}
1001
GENIUS_GENOBJ-N-FIL_13
1002
{
1000
OWNER
1000
GEN
1002
}
  0
ARC
  5
2663
  8
0
 10
2269.9624175597778
 20
0.9499999999998181
 30
0.0
 40
2.0
 50
19.999999999998149
 51
90.0
1001
GENIUS_GENODEF_13
1002
{
1000
HIER
1070
     0
1002
}
1002
{
1000
MANEDIT
1070
     0
1002
}
1002
{
1000
NOSEL
1070
     0
1002
}
1002
{
1000
BEHIND
1070
     0
1002
}
1002
{
1000
OTHER
1070
     0
1002
}
1002
{
1000
REACTOR
1002
}
1001
GENIUS_GENOBJ-N-FIL_13
1002
{
1000
OWNER
1000
GEN
1002
}
  0
LINE
  5
2664
  8
0
 10
2274.161415607502
 20
30.799999999999269
 30
0.0
 11
2276.4512495769341
 21
30.799999999999269
 31
0.0
  0
LINE
  5
2665
  8
0
 10
2269.9624175597778
 20
24.649999999999629
 30
0.0
 11
2257.4512505769449
 21
24.649999999999629
 31
0.0
  0
LINE
  5
2666
  8
0
 10
2273.4096615108729
 20
30.273616114660388
 30
0.0
 11
2271.8418028013489
 21
25.965959713348632
 31
0.0
  0
ARC
  5
2667
  8
0
 10
2274.161415607502
 20
30.0
 30
0.0
 40
0.8
 50
90.0
 51
160.00000000000179
1001
GENIUS_GENODEF_13
1002
{
1000
HIER
1070
     0
1002
}
1002
{
1000
MANEDIT
1070
     0
1002
}
1002
{
1000
NOSEL
1070
     0
1002
}
1002
{
1000
BEHIND
1070
     0
1002
}
1002
{
1000
OTHER
1070
     0
1002
}
1002
{
1000
REACTOR
1002
}
1001
GENIUS_GENOBJ-N-FIL_13
1002
{
1000
OWNER
1000
GEN
1002
}
  0
ARC
  5
2668
  8
0
 10
2269.9624175597778
 20
26.649999999999629
 30
0.0
 40
2.0
 50
270.0
 51
340.00000000000188
1001
GENIUS_GENODEF_13
1002
{
1000
HIER
1070
     0
1002
}
1002
{
1000
MANEDIT
1070
     0
1002
}
1002
{
1000
NOSEL
1070
     0
1002
}
1002
{
1000
BEHIND
1070
     0
1002
}
1002
{
1000
OTHER
1070
     0
1002
}
1002
{
1000
REACTOR
1002
}
1001
GENIUS_GENOBJ-N-FIL_13
1002
{
1000
OWNER
1000
GEN
1002
}
  0
LINE
  5
2669
  8
0
 10
2276.4512495769341
 20
394.67147954931801
 30
0.0
 11
2276.4512495769341
 21
428.67147954931801
 31
0.0
  0
LINE
  5
266A
  8
0
 10
2273.6012495769328
 20
395.45070606177973
 30
0.0
 11
2273.6012495769328
 21
427.89225303685629
 31
0.0
  0
LINE
  5
266B
  8
0
 10
2274.161415607502
 20
394.67147954931801
 30
0.0
 11
2276.4512495769341
 21
394.67147954931801
 31
0.0
  0
LINE
  5
266C
  8
0
 10
2269.9624175597778
 20
400.82147954931861
 30
0.0
 11
2257.4512505769449
 21
400.82147954931861
 31
0.0
  0
LINE
  5
266D
  8
0
 10
2271.362754723144
 20
422.52143823041661
 30
0.0
 11
2271.362754723144
 21
400.82152086821941
 31
0.0
  0
LINE
  5
266E
  8
0
 10
2273.4096615108729
 20
395.19786343465779
 30
0.0
 11
2271.8418028013489
 21
399.50551983596949
 31
0.0
  0
ARC
  5
266F
  8
0
 10
2274.161415607502
 20
395.47147954931819
 30
0.0
 40
0.8
 50
199.9999999999981
 51
270.0
1001
GENIUS_GENODEF_13
1002
{
1000
HIER
1070
     0
1002
}
1002
{
1000
MANEDIT
1070
     0
1002
}
1002
{
1000
NOSEL
1070
     0
1002
}
1002
{
1000
BEHIND
1070
     0
1002
}
1002
{
1000
OTHER
1070
     0
1002
}
1002
{
1000
REACTOR
1002
}
1001
GENIUS_GENOBJ-N-FIL_13
1002
{
1000
OWNER
1000
GEN
1002
}
  0
ARC
  5
2670
  8
0
 10
2269.9624175597778
 20
398.82147954931861
 30
0.0
 40
2.0
 50
19.999999999998149
 51
90.0
1001
GENIUS_GENODEF_13
1002
{
1000
HIER
1070
     0
1002
}
1002
{
1000
MANEDIT
1070
     0
1002
}
1002
{
1000
NOSEL
1070
     0
1002
}
1002
{
1000
BEHIND
1070
     0
1002
}
1002
{
1000
OTHER
1070
     0
1002
}
1002
{
1000
REACTOR
1002
}
1001
GENIUS_GENOBJ-N-FIL_13
1002
{
1000
OWNER
1000
GEN
1002
}
  0
LINE
  5
2671
  8
0
 10
2274.161415607502
 20
428.67147954931801
 30
0.0
 11
2276.4512495769341
 21
428.67147954931801
 31
0.0
  0
LINE
  5
2672
  8
0
 10
2269.9624175597778
 20
422.52147954931843
 30
0.0
 11
2257.4512505769449
 21
422.52147954931843
 31
0.0
  0
LINE
  5
2673
  8
0
 10
2273.4096615108729
 20
428.14509566397822
 30
0.0
 11
2271.8418028013489
 21
423.83743926266652
 31
0.0
  0
ARC
  5
2674
  8
0
 10
2274.161415607502
 20
427.87147954931783
 30
0.0
 40
0.8
 50
90.0
 51
160.00000000000179
1001
GENIUS_GENODEF_13
1002
{
1000
HIER
1070
     0
1002
}
1002
{
1000
MANEDIT
1070
     0
1002
}
1002
{
1000
NOSEL
1070
     0
1002
}
1002
{
1000
BEHIND
1070
     0
1002
}
1002
{
1000
OTHER
1070
     0
1002
}
1002
{
1000
REACTOR
1002
}
1001
GENIUS_GENOBJ-N-FIL_13
1002
{
1000
OWNER
1000
GEN
1002
}
  0
ARC
  5
2675
  8
0
 10
2269.9624175597778
 20
424.52147954931843
 30
0.0
 40
2.0
 50
270.0
 51
339.99999999995282
1001
GENIUS_GENODEF_13
1002
{
1000
HIER
1070
     0
1002
}
1002
{
1000
MANEDIT
1070
     0
1002
}
1002
{
1000
NOSEL
1070
     0
1002
}
1002
{
1000
BEHIND
1070
     0
1002
}
1002
{
1000
OTHER
1070
     0
1002
}
1002
{
1000
REACTOR
1002
}
1001
GENIUS_GENOBJ-N-FIL_13
1002
{
1000
OWNER
1000
GEN
1002
}
  0
LINE
  5
2676
  8
0
 10
194.451249576934
 20
428.67147954931352
 30
0.0
 11
194.451249576934
 21
394.67147954931352
 31
0.0
  0
LINE
  5
2677
  8
0
 10
197.3012495769344
 20
427.89225303685168
 30
0.0
 11
197.3012495769344
 21
395.45070606177518
 31
0.0
  0
LINE
  5
2678
  8
0
 10
196.7410835463651
 20
428.67147954931352
 30
0.0
 11
194.451249576934
 21
428.67147954931352
 31
0.0
  0
LINE
  5
2679
  8
0
 10
200.9400815940898
 20
422.52147954931388
 30
0.0
 11
213.45124857692269
 21
422.52147954931291
 31
0.0
  0
LINE
  5
267A
  8
0
 10
199.5397444307236
 20
400.82152086821492
 30
0.0
 11
199.5397444307236
 21
422.52143823041212
 31
0.0
  0
LINE
  5
267B
  8
0
 10
197.49283764299429
 20
428.14509566397368
 30
0.0
 11
199.06069635251879
 21
423.83743926266192
 31
0.0
  0
ARC
  5
267C
  8
0
 10
196.7410835463651
 20
427.87147954931328
 30
0.0
 40
0.8
 50
20.00000000004712
 51
90.0
1001
GENIUS_GENODEF_13
1002
{
1000
HIER
1070
     0
1002
}
1002
{
1000
MANEDIT
1070
     0
1002
}
1002
{
1000
NOSEL
1070
     0
1002
}
1002
{
1000
BEHIND
1070
     0
1002
}
1002
{
1000
OTHER
1070
     0
1002
}
1002
{
1000
REACTOR
1002
}
1001
GENIUS_GENOBJ-N-FIL_13
1002
{
1000
OWNER
1000
GEN
1002
}
  0
ARC
  5
267D
  8
0
 10
200.9400815940898
 20
424.52147954931382
 30
0.0
 40
2.0
 50
200.00000000004709
 51
270.0
1001
GENIUS_GENODEF_13
1002
{
1000
HIER
1070
     0
1002
}
1002
{
1000
MANEDIT
1070
     0
1002
}
1002
{
1000
NOSEL
1070
     0
1002
}
1002
{
1000
BEHIND
1070
     0
1002
}
1002
{
1000
OTHER
1070
     0
1002
}
1002
{
1000
REACTOR
1002
}
1001
GENIUS_GENOBJ-N-FIL_13
1002
{
1000
OWNER
1000
GEN
1002
}
  0
LINE
  5
267E
  8
0
 10
196.7410835463651
 20
394.67147954931352
 30
0.0
 11
194.451249576934
 21
394.67147954931352
 31
0.0
  0
LINE
  5
267F
  8
0
 10
200.9400815940898
 20
400.8214795493131
 30
0.0
 11
213.45124857692269
 21
400.8214795493131
 31
0.0
  0
LINE
  5
2680
  8
0
 10
197.49283764299429
 20
395.19786343465239
 30
0.0
 11
199.06069635251879
 21
399.505519835965
 31
0.0
  0
ARC
  5
2681
  8
0
 10
196.7410835463651
 20
395.4714795493137
 30
0.0
 40
0.8
 50
270.0
 51
339.99999999995282
1001
GENIUS_GENODEF_13
1002
{
1000
HIER
1070
     0
1002
}
1002
{
1000
MANEDIT
1070
     0
1002
}
1002
{
1000
NOSEL
1070
     0
1002
}
1002
{
1000
BEHIND
1070
     0
1002
}
1002
{
1000
OTHER
1070
     0
1002
}
1002
{
1000
REACTOR
1002
}
1001
GENIUS_GENOBJ-N-FIL_13
1002
{
1000
OWNER
1000
GEN
1002
}
  0
ARC
  5
2682
  8
0
 10
200.9400815940898
 20
398.8214795493131
 30
0.0
 40
2.0
 50
90.0
 51
159.99999999995279
1001
GENIUS_GENODEF_13
1002
{
1000
HIER
1070
     0
1002
}
1002
{
1000
MANEDIT
1070
     0
1002
}
1002
{
1000
NOSEL
1070
     0
1002
}
1002
{
1000
BEHIND
1070
     0
1002
}
1002
{
1000
OTHER
1070
     0
1002
}
1002
{
1000
REACTOR
1002
}
1001
GENIUS_GENOBJ-N-FIL_13
1002
{
1000
OWNER
1000
GEN
1002
}
  0
CIRCLE
  5
638F
  8
0
 10
2146.4512495769341
 20
411.67147954931801
 30
0.0
 40
50.0
  0
CIRCLE
  5
6390
  8
0
  6
CENTER
 10
2146.4512495769341
 20
411.67147954931801
 30
0.0
 40
37.5
  0
CIRCLE
  5
6391
  8
0
 10
2119.9347452824359
 20
438.18798384381353
 30
0.0
 40
7.5
  0
CIRCLE
  5
6392
  8
0
 10
2172.9677538714268
 20
438.18798384381353
 30
0.0
 40
7.5
  0
CIRCLE
  5
6393
  8
0
 10
2119.9347452824359
 20
385.1549752548226
 30
0.0
 40
7.5
  0
CIRCLE
  5
6394
  8
0
 10
2172.9677538714268
 20
385.1549752548226
 30
0.0
 40
7.5
  0
CIRCLE
  5
63A3
  8
AM_0_T3
 10
2146.4512495769318
 20
411.67147954931801
 30
0.0
 40
13.5999999999999
  0
LINE
  5
6631
  8
0
 10
3.0
 20
-61.0
 30
0.0
 11
3.0
 21
-35.623904999999461
 31
0.0
  0
LINE
  5
6632
  8
0
 10
15.0
 20
-61.0
 30
0.0
 11
15.0
 21
-43.221088000000229
 31
0.0
  0
LINE
  5
6633
  8
0
 10
15.0
 20
-61.0
 30
0.0
 11
3.0
 21
-61.0
 31
0.0
  0
LINE
  5
6634
  8
0
 10
-15.0
 20
-61.0
 30
0.0
 11
-15.0
 21
-43.221088000000229
 31
0.0
  0
LINE
  5
6635
  8
0
 10
-15.0
 20
-61.0
 30
0.0
 11
-3.0
 21
-61.0
 31
0.0
  0
LINE
  5
6636
  8
0
 10
-3.0
 20
-61.0
 30
0.0
 11
-3.0
 21
-35.623904999999461
 31
0.0
  0
LINE
  5
6637
  8
0
 10
-3.0
 20
-58.0
 30
0.0
 11
3.0
 21
-58.0
 31
0.0
  0
LINE
  5
6638
  8
0
 10
-3.0
 20
-50.0
 30
0.0
 11
3.0
 21
-50.0
 31
0.0
  0
LINE
  5
6639
  8
0
 10
15.0
 20
61.0
 30
0.0
 11
3.0
 21
61.0
 31
0.0
  0
LINE
  5
663A
  8
0
 10
3.0
 20
61.0
 30
0.0
 11
3.0
 21
35.62390500000037
 31
0.0
  0
LINE
  5
663B
  8
0
 10
-15.0
 20
61.0
 30
0.0
 11
-3.0
 21
61.0
 31
0.0
  0
LINE
  5
663C
  8
0
 10
-3.0
 20
61.0
 30
0.0
 11
-3.0
 21
35.62390500000037
 31
0.0
  0
LINE
  5
663D
  8
0
 10
-3.0
 20
58.0
 30
0.0
 11
3.0
 21
58.0
 31
0.0
  0
LINE
  5
663E
  8
0
 10
-3.0
 20
50.0
 30
0.0
 11
3.0
 21
50.0
 31
0.0
  0
LINE
  5
663F
  8
0
 10
-15.0
 20
61.0
 30
0.0
 11
-15.0
 21
43.221088000000229
 31
0.0
  0
LINE
  5
6640
  8
0
 10
-29.0
 20
50.0
 30
0.0
 11
-23.5
 21
50.0
 31
0.0
  0
LINE
  5
6641
  8
0
 10
-23.5
 20
49.0
 30
0.0
 11
-23.5
 21
59.0
 31
0.0
  0
LINE
  5
6642
  8
0
 10
-29.0
 20
50.0
 30
0.0
 11
-29.0
 21
58.0
 31
0.0
  0
LINE
  5
6643
  8
0
 10
-22.5
 20
48.0
 30
0.0
 11
-21.499999999999989
 21
48.0
 31
0.0
  0
LINE
  5
6644
  8
0
 10
-22.5
 20
60.0
 30
0.0
 11
-21.499999999999989
 21
60.0
 31
0.0
  0
LINE
  5
6645
  8
0
 10
-21.499999999999989
 20
60.5
 30
0.0
 11
-21.499999999999989
 21
47.5
 31
0.0
  0
LINE
  5
6646
  8
0
 10
-21.499999999999989
 20
60.5
 30
0.0
 11
-15.0
 21
60.5
 31
0.0
  0
LINE
  5
6647
  8
0
 10
-21.499999999999989
 20
47.5
 30
0.0
 11
-15.0
 21
47.5
 31
0.0
  0
LINE
  5
6648
  8
0
 10
-29.0
 20
58.0
 30
0.0
 11
-23.5
 21
58.0
 31
0.0
  0
LINE
  5
6649
  8
0
  6
CENTER
 10
-30.651335000000469
 20
54.0
 30
0.0
 11
26.38851499999873
 21
54.0
 31
0.0
  0
LINE
  5
664A
  8
0
 10
20.5
 20
-50.75
 30
0.0
 11
20.5
 21
-57.25
 31
0.0
  0
LINE
  5
664B
  8
0
 10
19.77510600000096
 20
-47.5
 30
0.0
 11
15.0
 21
-47.5
 31
0.0
  0
LINE
  5
664C
  8
0
 10
19.77510600000096
 20
-60.5
 30
0.0
 11
15.0
 21
-60.5
 31
0.0
  0
LINE
  5
664D
  8
0
 10
-29.0
 20
-50.0
 30
0.0
 11
-23.5
 21
-50.0
 31
0.0
  0
LINE
  5
664E
  8
0
 10
-23.5
 20
-49.0
 30
0.0
 11
-23.5
 21
-59.0
 31
0.0
  0
LINE
  5
664F
  8
0
 10
-29.0
 20
-50.0
 30
0.0
 11
-29.0
 21
-58.0
 31
0.0
  0
LINE
  5
6650
  8
0
 10
-22.5
 20
-48.0
 30
0.0
 11
-21.499999999999989
 21
-48.0
 31
0.0
  0
LINE
  5
6651
  8
0
 10
-22.5
 20
-60.0
 30
0.0
 11
-21.499999999999989
 21
-60.0
 31
0.0
  0
LINE
  5
6652
  8
0
 10
-21.499999999999989
 20
-60.5
 30
0.0
 11
-21.499999999999989
 21
-47.5
 31
0.0
  0
LINE
  5
6653
  8
0
 10
-21.499999999999989
 20
-60.5
 30
0.0
 11
-15.0
 21
-60.5
 31
0.0
  0
LINE
  5
6654
  8
0
 10
-21.499999999999989
 20
-47.5
 30
0.0
 11
-15.0
 21
-47.5
 31
0.0
  0
LINE
  5
6655
  8
0
 10
-29.0
 20
-58.0
 30
0.0
 11
-23.5
 21
-58.0
 31
0.0
  0
LINE
  5
6656
  8
0
  6
CENTER
 10
-30.651335000000469
 20
-54.0
 30
0.0
 11
27.011253000000568
 21
-54.0
 31
0.0
  0
LINE
  5
6657
  8
0
 10
20.5
 20
50.75
 30
0.0
 11
20.5
 21
57.25
 31
0.0
  0
LINE
  5
6658
  8
0
 10
19.77510600000096
 20
47.5
 30
0.0
 11
15.0
 21
47.5
 31
0.0
  0
LINE
  5
6659
  8
0
 10
19.77510600000096
 20
60.5
 30
0.0
 11
15.0
 21
60.5
 31
0.0
  0
LINE
  5
665A
  8
0
 10
15.0
 20
43.221088000000229
 30
0.0
 11
15.0
 21
61.0
 31
0.0
  0
ARC
  5
665B
  8
0
 10
0.0
 20
0.0
 30
0.0
 40
45.75
 50
273.7597999999735
 51
90.0
  0
ARC
  5
665C
  8
0
 10
0.0
 20
0.0
 30
0.0
 40
35.75
 50
274.81369799986061
 51
85.186299999973102
  0
ARC
  5
665D
  8
0
 10
0.0
 20
0.0
 30
0.0
 40
37.75
 50
274.81369799986061
 51
90.0
  0
ARC
  5
665E
  8
0
 10
0.0
 20
0.0
 30
0.0
 40
35.75
 50
94.813700000026884
 51
265.18630400009789
  0
ARC
  5
665F
  8
0
 10
0.0
 20
0.0
 30
0.0
 40
37.75
 50
94.813700000026884
 51
265.18630400009789
  0
ARC
  5
6660
  8
0
 10
0.0
 20
0.0
 30
0.0
 40
45.75
 50
93.759799999973637
 51
266.24020199994447
  0
ARC
  5
6661
  8
0
 10
-22.5
 20
49.0
 30
0.0
 40
1.0
 50
179.99998999994679
 51
269.99999600002042
  0
ARC
  5
6662
  8
0
 10
-22.5
 20
59.0
 30
0.0
 40
1.0
 50
90.0
 51
180.00000500893739
  0
ARC
  5
6663
  8
0
 10
-13.85200500000064
 20
57.25
 30
0.0
 40
7.647994999999999
 50
154.85262999998901
 51
205.1473750000074
  0
ARC
  5
6664
  8
0
 10
-13.85200500000064
 20
50.75
 30
0.0
 40
7.647994999999999
 50
154.85262999998901
 51
205.14736800004439
  0
ARC
  5
6665
  8
0
 10
-22.647994999999352
 20
57.25
 30
0.0
 40
7.647994999999999
 50
334.85262999998901
 51
25.14737000001092
  0
ARC
  5
6666
  8
0
 10
-22.647994999999352
 20
50.75
 30
0.0
 40
7.647994999999999
 50
334.85262999998901
 51
25.14737000001092
  0
ARC
  5
6667
  8
0
 10
12.85200500000064
 20
-50.75
 30
0.0
 40
7.6479945000000011
 50
334.85262999998901
 51
25.14737000001092
  0
ARC
  5
6668
  8
0
 10
12.85200500000064
 20
-57.25
 30
0.0
 40
7.6479945000000011
 50
334.85262999998901
 51
25.14737000001092
  0
ARC
  5
6669
  8
0
 10
-22.5
 20
-49.0
 30
0.0
 40
1.0
 50
90.0
 51
180.00000500893739
  0
ARC
  5
666A
  8
0
 10
-22.5
 20
-59.0
 30
0.0
 40
1.0
 50
179.99998999994679
 51
269.99999600002042
  0
ARC
  5
666B
  8
0
 10
-13.85200500000064
 20
-57.25
 30
0.0
 40
7.647994999999999
 50
154.85261999999599
 51
205.14737199999951
  0
ARC
  5
666C
  8
0
 10
-13.85200500000064
 20
-50.75
 30
0.0
 40
7.647994999999999
 50
154.85262999998901
 51
205.14737199999951
  0
ARC
  5
666D
  8
0
 10
-22.647994999999352
 20
-57.25
 30
0.0
 40
7.647994999999999
 50
334.85262999998901
 51
25.14737000001092
  0
ARC
  5
666E
  8
0
 10
-22.647994999999352
 20
-50.75
 30
0.0
 40
7.647994999999999
 50
334.85262999998901
 51
25.14737000001092
  0
ARC
  5
666F
  8
0
 10
12.85200500000064
 20
50.75
 30
0.0
 40
7.6479945000000011
 50
334.85262999998901
 51
25.14737000001092
  0
ARC
  5
6670
  8
0
 10
12.85200500000064
 20
57.25
 30
0.0
 40
7.6479945000000011
 50
334.85262999998901
 51
25.14737000001092
  0
LINE
  5
6671
  8
0
  6
CENTER
 10
0.0
 20
-103.0000000000045
 30
0.0
 11
0.0
 21
103.0000000000045
 31
0.0
  0
LINE
  5
6672
  8
0
  6
CENTER
 10
-61.036160705143622
 20
0.0
 30
0.0
 11
61.036160705143622
 21
0.0
 31
0.0
  0
ARC
  5
6673
  8
AM_0_T3
 10
0.0
 20
0.0
 30
0.0
 40
27.999999999995229
 50
297.50673843883737
 51
242.4932615611624
  0
LINE
  5
6674
  8
0
 10
-50.0
 20
-81.000000000004533
 30
0.0
 11
50.0
 21
-81.000000000004533
 31
0.0
  0
LINE
  5
6675
  8
0
 10
50.0
 20
-95.000000000004533
 30
0.0
 11
-50.0
 21
-95.000000000005457
 31
0.0
  0
LINE
  5
6676
  8
0
  6
CENTER
 10
37.5
 20
-104.0000000000045
 30
0.0
 11
37.5
 21
-71.000000000004547
 31
0.0
  0
LINE
  5
6677
  8
0
 10
50.0
 20
-81.000000000004533
 30
0.0
 11
50.0
 21
-95.000000000004533
 31
0.0
  0
LINE
  5
6678
  8
0
  6
CENTER
 10
-37.5
 20
-104.0000000000045
 30
0.0
 11
-37.5
 21
-71.000000000004547
 31
0.0
  0
LINE
  5
6679
  8
0
 10
-50.0
 20
-95.000000000005457
 30
0.0
 11
-50.0
 21
-81.000000000004533
 31
0.0
  0
LINE
  5
667A
  8
0
 10
13.60000000000036
 20
-81.000000000004533
 30
0.0
 11
13.60000000000036
 21
-61.0
 31
0.0
  0
LINE
  5
667B
  8
0
 10
-13.60000000000036
 20
-81.000000000004533
 30
0.0
 11
-13.60000000000036
 21
-61.0
 31
0.0
  0
LINE
  5
667C
  8
0
 10
-50.0
 20
81.000000000004533
 30
0.0
 11
50.0
 21
81.000000000004533
 31
0.0
  0
LINE
  5
667D
  8
0
 10
50.0
 20
95.000000000004533
 30
0.0
 11
-50.0
 21
95.000000000005457
 31
0.0
  0
LINE
  5
667E
  8
0
  6
CENTER
 10
37.5
 20
104.0000000000045
 30
0.0
 11
37.5
 21
71.000000000004547
 31
0.0
  0
LINE
  5
667F
  8
0
 10
50.0
 20
81.000000000004533
 30
0.0
 11
50.0
 21
95.000000000004533
 31
0.0
  0
LINE
  5
6680
  8
0
  6
CENTER
 10
-37.5
 20
104.0000000000045
 30
0.0
 11
-37.5
 21
71.000000000004547
 31
0.0
  0
LINE
  5
6681
  8
0
 10
-50.0
 20
95.000000000005457
 30
0.0
 11
-50.0
 21
81.000000000004533
 31
0.0
  0
LINE
  5
6682
  8
0
 10
13.60000000000036
 20
81.000000000004533
 30
0.0
 11
13.60000000000036
 21
61.0
 31
0.0
  0
LINE
  5
6683
  8
0
 10
-13.60000000000036
 20
81.000000000004533
 30
0.0
 11
-13.60000000000036
 21
61.0
 31
0.0
  0
LINE
  5
6684
  8
0
  6
CENTER
 10
-21.809530600176
 20
-13.799999999999271
 30
0.0
 11
21.809530600176
 21
-13.799999999999271
 31
0.0
  0
CIRCLE
  5
6685
  8
AM_0_T3
 10
0.0
 20
-13.799999999999271
 30
0.0
 40
17.0
  0
CIRCLE
  5
6686
  8
AM_0_T3
 10
0.0
 20
-13.799999999999271
 30
0.0
 40
10.85000000000036
  0
ENDSEC
  0
EOF
