  0
SECTION
  2
HEADER
  9
$ACADVER
  1
AC1009
  9
$INSBASE
 10
0.0
 20
0.0
 30
0.0
  9
$EXTMIN
 10
-61.036160705143857
 20
-104.9999999999972
 30
0.0
  9
$EXTMAX
 10
2282.5999922979918
 20
588.28139750376795
 30
0.0
  9
$LIMMIN
 10
0.0
 20
0.0
  9
$LIMMAX
 10
420.0
 20
297.0
  9
$ORTHOMODE
 70
     0
  9
$REGENMODE
 70
     1
  9
$FILLMODE
 70
     1
  9
$QTEXTMODE
 70
     0
  9
$MIRRTEXT
 70
     1
  9
$DRAGMODE
 70
     2
  9
$LTSCALE
 40
1.0
  9
$OSMODE
 70
    37
  9
$ATTMODE
 70
     1
  9
$TEXTSIZE
 40
73.985717453579113
  9
$TRACEWID
 40
1.0
  9
$TEXTSTYLE
  7
STANDARD
  9
$CLAYER
  8
0
  9
$CELTYPE
  6
BYLAYER
  9
$CECOLOR
 62
   256
  9
$DIMSCALE
 40
1.0
  9
$DIMASZ
 40
3.0
  9
$DIMEXO
 40
1.0
  9
$DIMDLI
 40
10.0
  9
$DIMRND
 40
0.0
  9
$DIMDLE
 40
0.0
  9
$DIMEXE
 40
1.0
  9
$DIMTP
 40
0.1
  9
$DIMTM
 40
0.1
  9
$DIMTXT
 40
30.0
  9
$DIMCEN
 40
0.0
  9
$DIMTSZ
 40
0.0
  9
$DIMTOL
 70
     0
  9
$DIMLIM
 70
     0
  9
$DIMTIH
 70
     0
  9
$DIMTOH
 70
     0
  9
$DIMSE1
 70
     0
  9
$DIMSE2
 70
     0
  9
$DIMTAD
 70
     3
  9
$DIMZIN
 70
     8
  9
$DIMBLK
  1
OPEN
  9
$DIMASO
 70
     1
  9
$DIMSHO
 70
     1
  9
$DIMPOST
  1

  9
$DIMAPOST
  1
"
  9
$DIMALT
 70
     0
  9
$DIMALTD
 70
     2
  9
$DIMALTF
 40
0.0393701
  9
$DIMLFAC
 40
1.0
  9
$DIMTOFL
 70
     1
  9
$DIMTVP
 40
0.0
  9
$DIMTIX
 70
     0
  9
$DIMSOXD
 70
     0
  9
$DIMSAH
 70
     0
  9
$DIMBLK1
  1

  9
$DIMBLK2
  1

  9
$DIMSTYLE
  2
TSK
  9
$DIMCLRD
 70
   256
  9
$DIMCLRE
 70
   256
  9
$DIMCLRT
 70
     2
  9
$DIMTFAC
 40
0.71
  9
$DIMGAP
 40
1.5
  9
$LUNITS
 70
     2
  9
$LUPREC
 70
     8
  9
$SKETCHINC
 40
1.0
  9
$FILLETRAD
 40
0.0
  9
$AUNITS
 70
     0
  9
$AUPREC
 70
     8
  9
$MENU
  1
.
  9
$ELEVATION
 40
0.0
  9
$PELEVATION
 40
0.0
  9
$THICKNESS
 40
0.0
  9
$LIMCHECK
 70
     0
  9
$BLIPMODE
 70
     0
  9
$CHAMFERA
 40
2.5
  9
$CHAMFERB
 40
2.5
  9
$SKPOLY
 70
     0
  9
$TDCREATE
 40
2454739.7204081588
  9
$TDUPDATE
 40
2454748.562470648
  9
$TDINDWG
 40
0.2618337847
  9
$TDUSRTIMER
 40
0.2618337847
  9
$USRTIMER
 70
     1
  9
$ANGBASE
 50
0.0
  9
$ANGDIR
 70
     1
  9
$PDMODE
 70
     0
  9
$PDSIZE
 40
0.0
  9
$PLINEWID
 40
0.0
  9
$COORDS
 70
     1
  9
$SPLFRAME
 70
     0
  9
$SPLINETYPE
 70
     6
  9
$SPLINESEGS
 70
     8
  9
$ATTDIA
 70
     0
  9
$ATTREQ
 70
     1
  9
$HANDLING
 70
 22529
  9
$HANDSEED
  5
66FE
  9
$SURFTAB1
 70
     6
  9
$SURFTAB2
 70
     6
  9
$SURFTYPE
 70
     6
  9
$SURFU
 70
     6
  9
$SURFV
 70
     6
  9
$UCSNAME
  2

  9
$UCSORG
 10
0.0
 20
0.0
 30
0.0
  9
$UCSXDIR
 10
1.0
 20
0.0
 30
0.0
  9
$UCSYDIR
 10
0.0
 20
1.0
 30
0.0
  9
$PUCSNAME
  2

  9
$PUCSORG
 10
0.0
 20
0.0
 30
0.0
  9
$PUCSXDIR
 10
1.0
 20
0.0
 30
0.0
  9
$PUCSYDIR
 10
0.0
 20
1.0
 30
0.0
  9
$USERI1
 70
     0
  9
$USERI2
 70
     0
  9
$USERI3
 70
     0
  9
$USERI4
 70
     0
  9
$USERI5
 70
     0
  9
$USERR1
 40
0.0
  9
$USERR2
 40
0.0
  9
$USERR3
 40
0.0
  9
$USERR4
 40
0.0
  9
$USERR5
 40
0.0
  9
$WORLDVIEW
 70
     1
  9
$SHADEDGE
 70
     3
  9
$SHADEDIF
 70
    70
  9
$TILEMODE
 70
     1
  9
$MAXACTVP
 70
    48
  9
$PLIMCHECK
 70
     0
  9
$PEXTMIN
 10
1.0000000000000000E+020
 20
1.0000000000000000E+020
 30
1.0000000000000000E+020
  9
$PEXTMAX
 10
-1.0000000000000000E+020
 20
-1.0000000000000000E+020
 30
-1.0000000000000000E+020
  9
$PLIMMIN
 10
0.0
 20
0.0
  9
$PLIMMAX
 10
420.0
 20
297.0
  9
$UNITMODE
 70
     0
  9
$VISRETAIN
 70
     1
  9
$PLINEGEN
 70
     0
  9
$PSLTSCALE
 70
     1
  0
ENDSEC
  0
SECTION
  2
TABLES
  0
TABLE
  2
VPORT
 70
     2
  0
VPORT
  2
*ACTIVE
 70
     0
 10
0.0
 20
0.0
 11
1.0
 21
1.0
 12
1277.9300048820719
 22
241.637489245007
 13
0.0
 23
0.0
 14
2.5
 24
2.5
 15
10.0
 25
10.0
 16
0.0
 26
0.0
 36
1.0
 17
0.0
 27
0.0
 37
0.0
 40
1537.7173944615679
 41
1.749206349206349
 42
50.0
 43
0.0
 44
0.0
 50
0.0
 51
0.0
 71
     0
 72
   100
 73
     1
 74
     3
 75
     0
 76
     0
 77
     0
 78
     0
  0
ENDTAB
  0
TABLE
  2
LTYPE
 70
     2
  0
LTYPE
  2
CONTINUOUS
 70
     0
  3
Solid line
 72
    65
 73
     0
 40
0.0
  0
LTYPE
  2
CENTER
 70
     0
  3
__ . __
 72
    65
 73
     4
 40
7.0
 49
4.0
 49
-1.0
 49
1.0
 49
-1.0
  0
ENDTAB
  0
TABLE
  2
LAYER
 70
     2
  0
LAYER
  2
0
 70
     0
 62
     7
  6
CONTINUOUS
  0
LAYER
  2
AM_0_T3
 70
     0
 62
     7
  6
CONTINUOUS
  0
ENDTAB
  0
TABLE
  2
STYLE
 70
     2
  0
STYLE
  2
STANDARD
 70
     0
 40
0.0
 41
0.7
 50
0.0
 71
     0
 42
73.985717453579113
  3
romans.shx
  4
bigfont.shx
  0
STYLE
  2
TSKDIM
 70
     0
 40
0.0
 41
0.75
 50
0.0
 71
     0
 42
4.0
  3
romans.shx
  4
EXTFONT.SHX
  0
ENDTAB
  0
TABLE
  2
VIEW
 70
     0
  0
ENDTAB
  0
TABLE
  2
UCS
 70
     0
  0
ENDTAB
  0
TABLE
  2
APPID
 70
    41
  0
APPID
  2
ACAD
 70
     0
  0
APPID
  2
MCAD_NO_VIS
 70
     0
  0
APPID
  2
ACAD_TEMP_GRAPHIC
 70
     0
  0
APPID
  2
ACATTRIBSERVICES
 70
     0
  0
APPID
  2
AD_DRAW
 70
     0
  0
APPID
  2
DESIGNERASSEMBLIES
 70
     0
  0
APPID
  2
ASURF_PCURVE_APPNAME
 70
     0
  0
APPID
  2
ACADM_DIM_EDIT
 70
     0
  0
APPID
  2
GENIUS_GENDIM_13
 70
     0
  0
APPID
  2
GENIUS_GENDTOL_13
 70
     0
  0
APPID
  2
GENIUS_GE3DTOL_13
 70
     0
  0
APPID
  2
AMG_3D2D_5_0
 70
     0
  0
APPID
  2
AMDT_DM_ADJ
 70
     0
  0
APPID
  2
CK_MATE-SERIES
 70
     0
  0
APPID
  2
GEVID1042077799
 70
     0
  0
APPID
  2
GEVMK
 70
     0
  0
APPID
  2
GEVDC
 70
     0
  0
APPID
  2
GENIUS_GENBH_13
 70
     0
  0
APPID
  2
GENIUS_GENOLIS_13
 70
     0
  0
APPID
  2
GENIUS_GENOENT_13
 70
     0
  0
APPID
  2
GENIUS_GENODEF_13
 70
     0
  0
APPID
  2
GENIUS_GENOBJ-NBEHI-BHF_13
 70
     0
  0
APPID
  2
GENIUS_GENOREF_13
 70
     0
  0
APPID
  2
GENIUS_GENOBJ-NBEHI-BHB_13
 70
     0
  0
APPID
  2
GEVID1042183772
 70
     0
  0
APPID
  2
GEVID1042183773
 70
     0
  0
APPID
  2
GEVID1042183774
 70
     0
  0
APPID
  2
DCO15
 70
     0
  0
APPID
  2
ACAD_DSTYLE_DIMARC_LENGTH_
 70
     0
  0
APPID
  2
ACAD_DSTYLE_DIMJOGGED_JOGA
 70
     0
  0
APPID
  2
ACAD_MLEADERVER
 70
     0
  0
APPID
  2
ACAD_DSTYLE_DIMJAG
 70
     0
  0
APPID
  2
ACAD_DSTYLE_DIMTALN
 70
     0
  0
APPID
  2
ACAD_PSEXT
 70
     0
  0
APPID
  2
ACAD_EXEMPT_FROM_CAD_STANDARDS
 70
     0
  0
APPID
  2
ACAD_DSTYLE_DIMINSPECT
 70
     0
  0
APPID
  2
ACAD_DSTYLE_DIMANGULAR_EXT
 70
     0
  0
APPID
  2
GENIUS_GENOBJ-N-FIL_13
 70
     0
  0
APPID
  2
ACAD_DSTYLE_DIM_LINETYPE
 70
     0
  0
APPID
  2
ACAD_DSTYLE_DIM_EXT1_LINETYPE
 70
     0
  0
APPID
  2
ACAD_DSTYLE_DIM_EXT2_LINETYPE
 70
     0
  0
ENDTAB
  0
TABLE
  2
DIMSTYLE
 70
     1
  0
DIMSTYLE
  2
TSK
 70
     0
  3

  4
"
  5
OPEN
  6

  7

 40
1.0
 41
3.0
 42
1.0
 43
10.0
 44
1.0
 45
0.0
 46
0.0
 47
0.1
 48
0.1
140
30.0
141
0.0
142
0.0
143
0.0393701
144
1.0
145
0.0
146
0.71
147
1.5
 71
     0
 72
     0
 73
     0
 74
     0
 75
     0
 76
     0
 77
     3
 78
     8
170
     0
171
     2
172
     1
173
     0
174
     0
175
     0
176
   256
177
   256
178
     2
  0
ENDTAB
  0
ENDSEC
  0
SECTION
  2
BLOCKS
  0
BLOCK
  8
0
  2
$MODEL_SPACE
 70
     0
 10
0.0
 20
0.0
 30
0.0
  3
$MODEL_SPACE
  1

  0
ENDBLK
  5
21
  8
0
  0
BLOCK
 67
     1
  8
0
  2
$PAPER_SPACE
 70
     0
 10
0.0
 20
0.0
 30
0.0
  3
$PAPER_SPACE
  1

  0
ENDBLK
  5
1D
 67
     1
  8
0
  0
BLOCK
  8
0
  2
_OPEN
 70
     0
 10
0.0
 20
0.0
 30
0.0
  3
_OPEN
  1

  0
LINE
  5
15A
  8
0
  6
BYBLOCK
 62
     0
 10
-1.0
 20
0.1666666666666666
 30
0.0
 11
0.0
 21
0.0
 31
0.0
  0
LINE
  5
15B
  8
0
  6
BYBLOCK
 62
     0
 10
-1.0
 20
-0.1666666666666666
 30
0.0
 11
0.0
 21
0.0
 31
0.0
  0
LINE
  5
15C
  8
0
  6
BYBLOCK
 62
     0
 10
0.0
 20
0.0
 30
0.0
 11
-1.0
 21
0.0
 31
0.0
  0
ENDBLK
  5
15E
  8
0
  0
ENDSEC
  0
SECTION
  2
ENTITIES
  0
LINE
  5
1312
  8
0
  6
CENTER
 10
2160.5933852006669
 20
425.81361517306311
 30
0.0
 11
2185.3421225421962
 21
450.56235251459287
 31
0.0
  0
LINE
  5
1315
  8
0
  6
CENTER
 10
2132.3091139532048
 20
425.81361517306311
 30
0.0
 11
2107.5603766116751
 21
450.56235251459287
 31
0.0
  0
LINE
  5
131C
  8
0
  6
CENTER
 10
2132.3091139532048
 20
397.52934392560201
 30
0.0
 11
2107.5603766116751
 21
372.7806065840723
 31
0.0
  0
LINE
  5
131E
  8
0
  6
CENTER
 10
2160.5933852006669
 20
397.52934392560201
 30
0.0
 11
2185.3421225421962
 21
372.7806065840723
 31
0.0
  0
LINE
  5
133A
  8
0
 10
274.45124957693599
 20
-80.999999999997272
 30
0.0
 11
374.45124957693599
 21
-80.999999999997272
 31
0.0
  0
LINE
  5
133B
  8
0
 10
374.45124957693599
 20
-94.999999999997286
 30
0.0
 11
274.45124957693599
 21
-94.999999999998181
 31
0.0
  0
LINE
  5
133C
  8
0
  6
CENTER
 10
361.95124957693599
 20
-103.9999999999972
 30
0.0
 11
361.95124957693599
 21
-70.999999999997272
 31
0.0
  0
LINE
  5
1340
  8
0
 10
374.45124957693599
 20
-80.999999999997272
 30
0.0
 11
374.45124957693599
 21
-94.999999999997286
 31
0.0
  0
LINE
  5
1343
  8
0
  6
CENTER
 10
286.95124957693599
 20
-103.9999999999972
 30
0.0
 11
286.95124957693599
 21
-70.999999999997272
 31
0.0
  0
LINE
  5
1349
  8
0
 10
274.45124957693599
 20
-94.999999999998181
 30
0.0
 11
274.45124957693599
 21
-80.999999999997272
 31
0.0
  0
LINE
  5
1859
  8
0
 10
1202.4804022224671
 20
-41.499999999989079
 30
0.0
 11
1268.4220969314031
 21
-41.499999999989079
 31
0.0
  0
LINE
  5
185A
  8
0
 10
1198.7512495769349
 20
-35.04091814874846
 30
0.0
 11
1202.4804022224671
 21
-41.499999999989079
 31
0.0
  0
LINE
  5
185B
  8
0
 10
1272.151249576935
 20
-31.749999999988169
 30
0.0
 11
2228.7012495769359
 21
-31.749999999988169
 31
0.0
  0
LINE
  5
185C
  8
0
 10
1205.451249576935
 20
41.500000000011823
 30
0.0
 11
1205.451249576935
 21
-41.499999999989079
 31
0.0
  0
LINE
  5
185D
  8
0
 10
1265.451249576935
 20
41.500000000011823
 30
0.0
 11
1265.451249576935
 21
-41.499999999989079
 31
0.0
  0
LINE
  5
185E
  8
0
 10
1255.701249576937
 20
-41.499999999989079
 30
0.0
 11
1255.701249576937
 21
41.500000000010907
 31
0.0
  0
LINE
  5
185F
  8
0
 10
1260.2012495769361
 20
-41.499999999989079
 30
0.0
 11
1260.2012495769361
 21
41.500000000011823
 31
0.0
  0
LINE
  5
1860
  8
0
 10
1246.7012495769361
 20
-41.499999999989079
 30
0.0
 11
1246.701249576937
 21
41.500000000010907
 31
0.0
  0
LINE
  5
1861
  8
0
 10
1251.201249576937
 20
-41.499999999989079
 30
0.0
 11
1251.2012495769361
 21
41.500000000011823
 31
0.0
  0
LINE
  5
1862
  8
0
 10
1219.7012495769361
 20
-41.499999999989079
 30
0.0
 11
1219.7012495769361
 21
41.500000000010907
 31
0.0
  0
LINE
  5
1863
  8
0
 10
1215.2012495769361
 20
-41.499999999989079
 30
0.0
 11
1215.2012495769361
 21
41.500000000010907
 31
0.0
  0
LINE
  5
1864
  8
0
 10
1210.7012495769361
 20
-41.499999999989079
 30
0.0
 11
1210.7012495769361
 21
41.500000000010907
 31
0.0
  0
LINE
  5
1865
  8
0
 10
1224.2012495769361
 20
-41.499999999989079
 30
0.0
 11
1224.2012495769361
 21
41.500000000011823
 31
0.0
  0
LINE
  5
1866
  8
0
 10
1228.7012495769361
 20
-41.499999999989079
 30
0.0
 11
1228.701249576937
 21
41.500000000010907
 31
0.0
  0
LINE
  5
1867
  8
0
 10
1233.2012495769361
 20
-41.499999999989079
 30
0.0
 11
1233.2012495769361
 21
41.500000000011823
 31
0.0
  0
LINE
  5
1868
  8
0
 10
1237.7012495769361
 20
-41.499999999989079
 30
0.0
 11
1237.7012495769361
 21
41.500000000010907
 31
0.0
  0
LINE
  5
1869
  8
0
 10
1242.2012495769361
 20
-41.499999999989079
 30
0.0
 11
1242.201249576935
 21
41.500000000011823
 31
0.0
  0
LINE
  5
186A
  8
0
 10
1198.7512495769349
 20
35.04091814877119
 30
0.0
 11
1202.4804022224671
 21
41.500000000011823
 31
0.0
  0
LINE
  5
186B
  8
0
 10
1198.7512495769349
 20
-35.04091814874846
 30
0.0
 11
1198.7512495769349
 21
35.04091814877119
 31
0.0
  0
LINE
  5
186C
  8
0
 10
1202.4804022224671
 20
41.500000000011823
 30
0.0
 11
1268.4220969314031
 21
41.500000000011823
 31
0.0
  0
LINE
  5
186D
  8
0
 10
1198.7512495769349
 20
-31.749999999989079
 30
0.0
 11
338.0512495769355
 21
-31.749999999986361
 31
0.0
  0
LINE
  5
186E
  8
0
 10
310.8512495769366
 20
-31.749999999985441
 30
0.0
 11
242.20124957693511
 21
-31.749999999986361
 31
0.0
  0
LINE
  5
186F
  8
0
 10
1202.4804022224671
 20
-41.499999999988177
 30
0.0
 11
1202.4804022224671
 21
41.500000000011823
 31
0.0
  0
LINE
  5
1870
  8
0
 10
1272.151249576935
 20
-35.04091814874846
 30
0.0
 11
1268.4220969314031
 21
-41.499999999989079
 31
0.0
  0
LINE
  5
1871
  8
0
 10
1272.151249576935
 20
35.04091814877119
 30
0.0
 11
1268.4220969314031
 21
41.500000000011823
 31
0.0
  0
LINE
  5
1872
  8
0
 10
1272.151249576935
 20
-35.04091814874846
 30
0.0
 11
1272.151249576935
 21
35.04091814877119
 31
0.0
  0
LINE
  5
1873
  8
AM_0_T3
 10
1268.4220969314031
 20
41.500000000011823
 30
0.0
 11
1268.4220969314031
 21
-41.499999999989988
 31
0.0
  0
LINE
  5
1874
  8
0
 10
2257.4512505769449
 20
-27.999999999989988
 30
0.0
 11
2244.201249576935
 21
-27.999999999989988
 31
0.0
  0
LINE
  5
1875
  8
0
 10
2257.4512505769449
 20
28.000000000010001
 30
0.0
 11
2244.201249576935
 21
28.000000000010001
 31
0.0
  0
LINE
  5
1876
  8
0
 10
2257.4512505769449
 20
-27.999999999989988
 30
0.0
 11
2257.4512505769449
 21
28.000000000010001
 31
0.0
  0
LINE
  5
18BA
  8
0
 10
2232.6984734537718
 20
60.500000000008178
 30
0.0
 11
2240.2040276537718
 21
60.500000000008178
 31
0.0
  0
LINE
  5
18BB
  8
0
 10
2240.2040254537728
 20
60.500002000007953
 30
0.0
 11
2243.9568025537728
 21
54.000001000007607
 31
0.0
  0
LINE
  5
18BC
  8
0
 10
2243.9568048537731
 20
54.000001000007607
 30
0.0
 11
2240.2040277537722
 21
47.500001000007607
 31
0.0
  0
LINE
  5
18BD
  8
0
 10
2240.2040276537718
 20
47.500000000008178
 30
0.0
 11
2232.6984734537718
 21
47.500000000008178
 31
0.0
  0
LINE
  5
18BE
  8
0
 10
2228.945695253773
 20
54.000001000007607
 30
0.0
 11
2232.6984723537721
 21
47.500001000007607
 31
0.0
  0
LINE
  5
18BF
  8
0
 10
2232.6984713537731
 20
60.500003000008292
 30
0.0
 11
2228.9456942537722
 21
54.000003000008292
 31
0.0
  0
LINE
  5
18C0
  8
0
 10
2240.2040266537729
 20
-60.499999999991807
 30
0.0
 11
2232.6984724537729
 21
-60.499999999991807
 31
0.0
  0
LINE
  5
18C1
  8
0
 10
2232.6984746537719
 20
-60.500001999991582
 30
0.0
 11
2228.9456975537728
 21
-54.000000999992153
 31
0.0
  0
LINE
  5
18C2
  8
0
 10
2228.945695253773
 20
-54.000000999992153
 30
0.0
 11
2232.6984723537721
 21
-47.500000999992153
 31
0.0
  0
LINE
  5
18C3
  8
0
 10
2243.9568048537731
 20
-54.000000999992153
 30
0.0
 11
2240.2040277537722
 21
-47.500000999992153
 31
0.0
  0
LINE
  5
18C4
  8
0
 10
2240.2040287537729
 20
-60.500002999991921
 30
0.0
 11
2243.9568058537729
 21
-54.000002999991921
 31
0.0
  0
LINE
  5
18C5
  8
0
 10
2232.6984724537729
 20
-47.499999999991807
 30
0.0
 11
2240.2040266537729
 21
-47.499999999991807
 31
0.0
  0
LINE
  5
18C6
  8
0
  6
CENTER
 10
2226.451250053773
 20
-53.999999999991807
 30
0.0
 11
2246.451250053773
 21
-53.999999999991807
 31
0.0
  0
LINE
  5
18C7
  8
0
  6
CENTER
 10
2236.4512505306102
 20
-63.999999999991807
 30
0.0
 11
2236.4512505306102
 21
-43.999999999991807
 31
0.0
  0
LINE
  5
18C8
  8
0
  6
CENTER
 10
2226.4512490537718
 20
54.000000000008193
 30
0.0
 11
2246.4512490537732
 21
54.000000000008193
 31
0.0
  0
LINE
  5
18C9
  8
0
  6
CENTER
 10
2236.451249576935
 20
44.000000000008178
 30
0.0
 11
2236.451249576935
 21
64.000000000008185
 31
0.0
  0
LINE
  5
18CA
  8
0
 10
2244.201249576935
 20
-37.630605894662949
 30
0.0
 11
2244.201249576935
 21
37.630605894678411
 31
0.0
  0
LINE
  5
18CB
  8
0
 10
2228.7012495769359
 20
-37.630605894662949
 30
0.0
 11
2228.7012495769359
 21
37.630605894678411
 31
0.0
  0
LINE
  5
18CE
  8
0
 10
2231.6130114510652
 20
-48.941200553742419
 30
0.0
 11
2231.6130114510652
 21
48.94120055375879
 31
0.0
  0
ARC
  5
18CF
  8
0
 10
2236.451249576935
 20
54.000000000008193
 30
0.0
 40
7.0
 50
313.7233352220149
 51
351.78676740868173
  0
ARC
  5
18D0
  8
0
 10
2236.451249576935
 20
54.000000000008193
 30
0.0
 40
7.0
 50
8.2132124141192158
 51
51.786784583428279
  0
ARC
  5
18D1
  8
0
 10
2236.451249576935
 20
54.000000000008193
 30
0.0
 40
7.0
 50
68.213210701731882
 51
111.7867892982681
  0
ARC
  5
18D2
  8
0
 10
2236.451249576935
 20
54.000000000008193
 30
0.0
 40
7.0
 50
128.21327295117351
 51
171.78672241753341
  0
ARC
  5
18D3
  8
0
 10
2236.451249576935
 20
54.000000000008193
 30
0.0
 40
7.0
 50
188.2132143774453
 51
226.2766589223782
  0
LINE
  5
18D4
  8
0
 10
2241.2894974274741
 20
-48.941209854438974
 30
0.0
 11
2241.2894871857961
 21
48.941200059290168
 31
0.0
  0
LINE
  5
18D5
  8
0
 10
2231.6130114510652
 20
43.221088602679622
 30
0.0
 11
2241.289487784305
 21
43.221088602679622
 31
0.0
  0
LINE
  5
18D6
  8
0
 10
2228.7012495769359
 20
37.630605894678411
 30
0.0
 11
2231.6130114510652
 21
45.651533380607361
 31
0.0
  0
LINE
  5
18D7
  8
0
 10
2244.201249576935
 20
37.630605894678411
 30
0.0
 11
2241.2894877028052
 21
45.651533380607361
 31
0.0
  0
ARC
  5
18D8
  8
0
 10
2236.451249576935
 20
-53.999999999991807
 30
0.0
 40
7.0
 50
133.72334107762171
 51
171.78678562255459
  0
ARC
  5
18D9
  8
0
 10
2236.451249576935
 20
-53.999999999991807
 30
0.0
 40
7.0
 50
188.2131942002481
 51
231.78680279724071
  0
ARC
  5
18DA
  8
0
 10
2236.451249576935
 20
-53.999999999991807
 30
0.0
 40
7.0
 50
248.2132107017319
 51
291.78678929826799
  0
ARC
  5
18DB
  8
0
 10
2236.451249576935
 20
-53.999999999991807
 30
0.0
 40
7.0
 50
308.21329116507093
 51
351.78670420360697
  0
ARC
  5
18DC
  8
0
 10
2236.451249576935
 20
-53.999999999991807
 30
0.0
 40
7.0
 50
8.2132325913182846
 51
46.276548780994801
  0
LINE
  5
18DD
  8
0
 10
2231.6130114510652
 20
-43.221088602664167
 30
0.0
 11
2241.289487784305
 21
-43.221088602664167
 31
0.0
  0
LINE
  5
18DE
  8
0
 10
2228.7012495769359
 20
-37.630605894662949
 30
0.0
 11
2231.6130114510652
 21
-45.651533380591893
 31
0.0
  0
LINE
  5
18DF
  8
0
 10
2244.201249576935
 20
-37.630605894662949
 30
0.0
 11
2241.2894877028052
 21
-45.651533380591893
 31
0.0
  0
LINE
  5
18E2
  8
0
 10
1198.7512495769349
 20
31.75000000001091
 30
0.0
 11
242.20124957693471
 21
31.750000000008178
 31
0.0
  0
LINE
  5
18E4
  8
0
 10
213.4512485769248
 20
-27.999999999989988
 30
0.0
 11
226.70124957693471
 21
-27.999999999989988
 31
0.0
  0
LINE
  5
18E5
  8
0
 10
213.4512485769248
 20
28.000000000010001
 30
0.0
 11
226.7012495769342
 21
28.000000000010001
 31
0.0
  0
LINE
  5
18E6
  8
0
 10
213.4512485769248
 20
-27.999999999989988
 30
0.0
 11
213.4512485769248
 21
28.000000000010001
 31
0.0
  0
LINE
  5
18E7
  8
0
 10
238.20402570009739
 20
60.500000000008178
 30
0.0
 11
230.69847150009741
 21
60.500000000008178
 31
0.0
  0
LINE
  5
18E8
  8
0
 10
230.69847370009731
 20
60.500002000007953
 30
0.0
 11
226.94569660009731
 21
54.000001000007607
 31
0.0
  0
LINE
  5
18E9
  8
0
 10
226.9456943000975
 20
54.000001000007607
 30
0.0
 11
230.6984714000975
 21
47.500001000007607
 31
0.0
  0
LINE
  5
18EA
  8
0
 10
230.69847150009741
 20
47.500000000008178
 30
0.0
 11
238.20402570009739
 21
47.500000000008178
 31
0.0
  0
LINE
  5
18EB
  8
0
 10
241.95680390009761
 20
54.000001000007607
 30
0.0
 11
238.20402680009761
 21
47.500001000007607
 31
0.0
  0
LINE
  5
18EC
  8
0
 10
238.20402780009749
 20
60.500003000008292
 30
0.0
 11
241.9568049000975
 21
54.000003000008292
 31
0.0
  0
LINE
  5
18ED
  8
0
 10
230.69847250009721
 20
-60.499999999991807
 30
0.0
 11
238.2040267000973
 21
-60.499999999991807
 31
0.0
  0
LINE
  5
18EE
  8
0
 10
238.20402450009729
 20
-60.500001999991582
 30
0.0
 11
241.95680160009729
 21
-54.000000999992153
 31
0.0
  0
LINE
  5
18EF
  8
0
 10
241.95680390009761
 20
-54.000000999992153
 30
0.0
 11
238.20402680009761
 21
-47.500000999992153
 31
0.0
  0
LINE
  5
18F0
  8
0
 10
226.9456943000975
 20
-54.000000999992153
 30
0.0
 11
230.6984714000975
 21
-47.500000999992153
 31
0.0
  0
LINE
  5
18F1
  8
0
 10
230.69847040009719
 20
-60.500002999991921
 30
0.0
 11
226.94569330009719
 21
-54.000002999991921
 31
0.0
  0
LINE
  5
18F2
  8
0
 10
238.2040267000973
 20
-47.499999999991807
 30
0.0
 11
230.69847250009721
 21
-47.499999999991807
 31
0.0
  0
LINE
  5
18F3
  8
0
  6
CENTER
 10
244.4512491000975
 20
-53.999999999991807
 30
0.0
 11
224.4512491000975
 21
-53.999999999991807
 31
0.0
  0
LINE
  5
18F4
  8
0
  6
CENTER
 10
234.4512486232604
 20
-63.999999999991807
 30
0.0
 11
234.4512486232604
 21
-43.999999999991807
 31
0.0
  0
LINE
  5
18F5
  8
0
  6
CENTER
 10
244.45125010009741
 20
54.000000000008193
 30
0.0
 11
224.45125010009741
 21
54.000000000008193
 31
0.0
  0
LINE
  5
18F6
  8
0
  6
CENTER
 10
234.45124957693471
 20
44.000000000008178
 30
0.0
 11
234.45124957693471
 21
64.000000000008185
 31
0.0
  0
LINE
  5
18F7
  8
0
 10
226.70124957693471
 20
-37.630605894662949
 30
0.0
 11
226.70124957693471
 21
37.630605894678411
 31
0.0
  0
LINE
  5
18F8
  8
0
 10
242.20124957693471
 20
-37.630605894662949
 30
0.0
 11
242.20124957693471
 21
37.630605894678411
 31
0.0
  0
LINE
  5
18F9
  8
0
 10
239.28948770280539
 20
-48.941200553742419
 30
0.0
 11
239.28948770280539
 21
48.94120055375879
 31
0.0
  0
ARC
  5
18FA
  8
0
 10
234.45124957693471
 20
54.000000000008193
 30
0.0
 40
7.0
 50
188.21323259131819
 51
226.27666477797561
  0
ARC
  5
18FB
  8
0
 10
234.45124957693471
 20
54.000000000008193
 30
0.0
 40
7.0
 50
128.2132154165717
 51
171.78678758588069
  0
ARC
  5
18FC
  8
0
 10
234.45124957693471
 20
54.000000000008193
 30
0.0
 40
7.0
 50
68.213210701756054
 51
111.7867892982439
  0
ARC
  5
18FD
  8
0
 10
234.45124957693471
 20
54.000000000008193
 30
0.0
 40
7.0
 50
8.2132775824665227
 51
51.786727048846899
  0
ARC
  5
18FE
  8
0
 10
234.45124957693471
 20
54.000000000008193
 30
0.0
 40
7.0
 50
313.7233410776218
 51
351.78678562255459
  0
LINE
  5
18FF
  8
0
 10
229.61300172639511
 20
-48.941209854438974
 30
0.0
 11
229.61301196807449
 21
48.941200059290168
 31
0.0
  0
LINE
  5
1900
  8
0
 10
239.28948770280539
 20
43.221088602679622
 30
0.0
 11
229.6130113695651
 21
43.221088602679622
 31
0.0
  0
LINE
  5
1901
  8
0
 10
242.20124957693471
 20
37.630605894678411
 30
0.0
 11
239.28948770280539
 21
45.651533380607361
 31
0.0
  0
LINE
  5
1902
  8
0
 10
226.70124957693471
 20
37.630605894678411
 30
0.0
 11
229.61301145106449
 21
45.651533380607361
 31
0.0
  0
ARC
  5
1903
  8
0
 10
234.45124957693471
 20
-53.999999999991807
 30
0.0
 40
7.0
 50
8.2132143774453592
 51
46.276658922378218
  0
ARC
  5
1904
  8
0
 10
234.45124957693471
 20
-53.999999999991807
 30
0.0
 40
7.0
 50
308.21319720275932
 51
351.78680579975179
  0
ARC
  5
1905
  8
0
 10
234.45124957693471
 20
-53.999999999991807
 30
0.0
 40
7.0
 50
248.213210701756
 51
291.78678929824389
  0
ARC
  5
1906
  8
0
 10
234.45124957693471
 20
-53.999999999991807
 30
0.0
 40
7.0
 50
188.2132957963928
 51
231.78670883492899
  0
ARC
  5
1907
  8
0
 10
234.45124957693471
 20
-53.999999999991807
 30
0.0
 40
7.0
 50
133.72345121901461
 51
171.7867674086817
  0
LINE
  5
1908
  8
0
 10
239.28948770280539
 20
-43.221088602664167
 30
0.0
 11
229.6130113695651
 21
-43.221088602664167
 31
0.0
  0
LINE
  5
1909
  8
0
 10
242.20124957693471
 20
-37.630605894662949
 30
0.0
 11
239.28948770280539
 21
-45.651533380591893
 31
0.0
  0
LINE
  5
190A
  8
0
 10
226.70124957693471
 20
-37.630605894662949
 30
0.0
 11
229.61301145106449
 21
-45.651533380591893
 31
0.0
  0
LINE
  5
190B
  8
0
 10
1202.4804022224671
 20
370.17147954932892
 30
0.0
 11
1268.4220969314031
 21
370.17147954932892
 31
0.0
  0
LINE
  5
190C
  8
0
 10
1198.7512495769349
 20
376.6305614005696
 30
0.0
 11
1202.4804022224671
 21
370.17147954932892
 31
0.0
  0
LINE
  5
190D
  8
0
 10
1272.151249576935
 20
379.92147954932977
 30
0.0
 11
2107.8256427855872
 21
379.92147954932977
 31
0.0
  0
LINE
  5
190E
  8
0
 10
2185.0768563682818
 20
379.92147954932977
 30
0.0
 11
2228.7012495769359
 21
379.92147954932977
 31
0.0
  0
LINE
  5
190F
  8
0
 10
1205.451249576935
 20
453.17147954932977
 30
0.0
 11
1205.451249576935
 21
370.17147954932892
 31
0.0
  0
LINE
  5
1910
  8
0
 10
1265.451249576935
 20
453.17147954932977
 30
0.0
 11
1265.451249576935
 21
370.17147954932892
 31
0.0
  0
LINE
  5
1911
  8
0
 10
1255.701249576937
 20
370.17147954932892
 30
0.0
 11
1255.701249576937
 21
453.17147954932892
 31
0.0
  0
LINE
  5
1912
  8
0
 10
1260.2012495769361
 20
370.17147954932892
 30
0.0
 11
1260.2012495769361
 21
453.17147954932977
 31
0.0
  0
LINE
  5
1913
  8
0
 10
1246.7012495769361
 20
370.17147954932892
 30
0.0
 11
1246.701249576937
 21
453.17147954932892
 31
0.0
  0
LINE
  5
1914
  8
0
 10
1251.201249576937
 20
370.17147954932892
 30
0.0
 11
1251.2012495769361
 21
453.17147954932977
 31
0.0
  0
LINE
  5
1915
  8
0
 10
1219.7012495769361
 20
370.17147954932892
 30
0.0
 11
1219.7012495769361
 21
453.17147954932892
 31
0.0
  0
LINE
  5
1916
  8
0
 10
1215.2012495769361
 20
370.17147954932892
 30
0.0
 11
1215.2012495769361
 21
453.17147954932892
 31
0.0
  0
LINE
  5
1917
  8
0
 10
1210.7012495769361
 20
370.17147954932892
 30
0.0
 11
1210.7012495769361
 21
453.17147954932892
 31
0.0
  0
LINE
  5
1918
  8
0
 10
1224.2012495769361
 20
370.17147954932892
 30
0.0
 11
1224.2012495769361
 21
453.17147954932977
 31
0.0
  0
LINE
  5
1919
  8
0
 10
1228.7012495769361
 20
370.17147954932892
 30
0.0
 11
1228.701249576937
 21
453.17147954932892
 31
0.0
  0
LINE
  5
191A
  8
0
 10
1233.2012495769361
 20
370.17147954932892
 30
0.0
 11
1233.2012495769361
 21
453.17147954932977
 31
0.0
  0
LINE
  5
191B
  8
0
 10
1237.7012495769361
 20
370.17147954932892
 30
0.0
 11
1237.7012495769361
 21
453.17147954932892
 31
0.0
  0
LINE
  5
191C
  8
0
 10
1242.2012495769361
 20
370.17147954932892
 30
0.0
 11
1242.201249576935
 21
453.17147954932977
 31
0.0
  0
LINE
  5
191D
  8
0
 10
1198.7512495769349
 20
446.71239769808921
 30
0.0
 11
1202.4804022224671
 21
453.17147954932977
 31
0.0
  0
LINE
  5
191E
  8
0
 10
1198.7512495769349
 20
376.6305614005696
 30
0.0
 11
1198.7512495769349
 21
446.71239769808921
 31
0.0
  0
LINE
  5
191F
  8
0
 10
1202.4804022224671
 20
453.17147954932977
 30
0.0
 11
1268.4220969314031
 21
453.17147954932977
 31
0.0
  0
LINE
  5
1920
  8
0
 10
1272.151249576935
 20
443.42147954932892
 30
0.0
 11
2107.8256427855808
 21
443.42147954932722
 31
0.0
  0
LINE
  5
1921
  8
0
 10
2185.0768563682891
 20
443.42147954932801
 30
0.0
 11
2228.7012495769359
 21
443.42147954932619
 31
0.0
  0
LINE
  5
1922
  8
0
 10
1202.4804022224671
 20
370.17147954932977
 30
0.0
 11
1202.4804022224671
 21
453.17147954932977
 31
0.0
  0
LINE
  5
1923
  8
0
 10
1272.151249576935
 20
376.6305614005696
 30
0.0
 11
1268.4220969314031
 21
370.17147954932892
 31
0.0
  0
LINE
  5
1924
  8
0
 10
1272.151249576935
 20
446.71239769808921
 30
0.0
 11
1268.4220969314031
 21
453.17147954932977
 31
0.0
  0
LINE
  5
1925
  8
0
 10
1272.151249576935
 20
376.6305614005696
 30
0.0
 11
1272.151249576935
 21
446.71239769808921
 31
0.0
  0
LINE
  5
1926
  8
AM_0_T3
 10
1268.4220969314031
 20
453.17147954932977
 30
0.0
 11
1268.4220969314031
 21
370.17147954932801
 31
0.0
  0
LINE
  5
1927
  8
0
 10
2257.4512505769449
 20
383.67147954932801
 30
0.0
 11
2244.201249576935
 21
383.67147954932801
 31
0.0
  0
LINE
  5
1928
  8
0
 10
2257.4512505769449
 20
439.67147954932801
 30
0.0
 11
2244.201249576935
 21
439.67147954932801
 31
0.0
  0
LINE
  5
1929
  8
0
 10
2257.4512505769449
 20
383.67147954932801
 30
0.0
 11
2257.4512505769449
 21
439.67147954932801
 31
0.0
  0
LINE
  5
192A
  8
0
 10
2244.201249576935
 20
373.92147954931897
 30
0.0
 11
2244.201249576935
 21
449.42147954933353
 31
0.0
  0
LINE
  5
192B
  8
0
 10
2228.7012495769359
 20
373.92147954931897
 30
0.0
 11
2228.7012495769359
 21
449.42147954933353
 31
0.0
  0
LINE
  5
192C
  8
0
 10
2231.6130114510652
 20
365.92147954931983
 30
0.0
 11
2231.6130114510652
 21
391.33820987085983
 31
0.0
  0
LINE
  5
192D
  8
0
 10
2231.6130114510652
 20
435.17147954933262
 30
0.0
 11
2231.6130114510652
 21
457.42147954933353
 31
0.0
  0
LINE
  5
192E
  8
0
 10
2241.2894970935708
 20
365.92147954931983
 30
0.0
 11
2241.2894944341551
 21
391.3382115220283
 31
0.0
  0
LINE
  5
192F
  8
0
 10
2241.2894898477712
 20
435.17147954933262
 30
0.0
 11
2241.289487519698
 21
457.42147954933353
 31
0.0
  0
LINE
  5
1930
  8
0
 10
1198.7512495769349
 20
379.92147954932977
 30
0.0
 11
242.20124957693471
 21
379.92147954932977
 31
0.0
  0
LINE
  5
1931
  8
0
 10
1198.7512495769349
 20
443.42147954932892
 30
0.0
 11
242.20124957693471
 21
443.42147954932619
 31
0.0
  0
LINE
  5
1933
  8
0
 10
213.4512485769248
 20
383.67147954932801
 30
0.0
 11
226.70124957693471
 21
383.67147954932801
 31
0.0
  0
LINE
  5
1934
  8
0
 10
213.4512485769248
 20
439.67147954932801
 30
0.0
 11
226.7012495769342
 21
439.67147954932801
 31
0.0
  0
LINE
  5
1935
  8
0
 10
213.4512485769248
 20
383.67147954932801
 30
0.0
 11
213.4512485769248
 21
439.67147954932801
 31
0.0
  0
LINE
  5
195A
  8
AM_0_T3
 10
2228.7012495769359
 20
449.42147954933353
 30
0.0
 11
2231.6130114510652
 21
457.42147954933353
 31
0.0
  0
LINE
  5
195B
  8
AM_0_T3
 10
2244.201249576935
 20
449.42147954933353
 30
0.0
 11
2241.289487519698
 21
457.42147954933353
 31
0.0
  0
LINE
  5
195C
  8
AM_0_T3
 10
2231.6130114510652
 20
457.42147954933353
 30
0.0
 11
2241.289487519698
 21
457.42147954933353
 31
0.0
  0
LINE
  5
195D
  8
AM_0_T3
 10
2228.7012495769359
 20
373.92147954931897
 30
0.0
 11
2231.6130114510652
 21
365.92147954931983
 31
0.0
  0
LINE
  5
195E
  8
AM_0_T3
 10
2244.201249576935
 20
373.92147954931897
 30
0.0
 11
2241.289487519698
 21
365.92147954931983
 31
0.0
  0
LINE
  5
195F
  8
AM_0_T3
 10
2231.6130114510652
 20
365.92147954931983
 30
0.0
 11
2241.2894970935708
 21
365.92147954931983
 31
0.0
  0
LINE
  5
1960
  8
0
 10
2243.4512490537732
 20
396.67147954933262
 30
0.0
 11
2243.4512490537732
 21
408.67147954933262
 31
0.0
  0
LINE
  5
1961
  8
0
 10
2243.4512490537732
 20
408.67147954933262
 30
0.0
 11
2229.4512490537718
 21
408.67147954933262
 31
0.0
  0
LINE
  5
1962
  8
0
 10
2243.4512490537732
 20
426.67147954933262
 30
0.0
 11
2243.4512490537732
 21
414.67147954933262
 31
0.0
  0
LINE
  5
1963
  8
0
 10
2243.4512490537732
 20
414.67147954933262
 30
0.0
 11
2229.4512490537718
 21
414.67147954933262
 31
0.0
  0
LINE
  5
1964
  8
0
 10
2240.4512490537718
 20
414.67147954933262
 30
0.0
 11
2240.4512490537718
 21
408.67147954933262
 31
0.0
  0
LINE
  5
1965
  8
0
 10
2232.4512490537718
 20
414.67147954933262
 30
0.0
 11
2232.4512490537718
 21
408.67147954933262
 31
0.0
  0
LINE
  5
1966
  8
0
 10
2243.4512490537732
 20
426.67147954933262
 30
0.0
 11
2229.4512490537718
 21
426.67147954933353
 31
0.0
  0
LINE
  5
1967
  8
0
 10
2232.4512490537718
 20
440.67147954933262
 30
0.0
 11
2232.4512490537718
 21
435.17147954933262
 31
0.0
  0
LINE
  5
1968
  8
0
 10
2231.4512490537718
 20
435.17147954933262
 30
0.0
 11
2241.4512490537718
 21
435.17147954933262
 31
0.0
  0
LINE
  5
1969
  8
0
 10
2232.4512490537718
 20
440.67147954933262
 30
0.0
 11
2240.4512490537718
 21
440.67147954933262
 31
0.0
  0
LINE
  5
196A
  8
0
 10
2230.4512490537732
 20
434.1714795493325
 30
0.0
 11
2230.4512490537732
 21
433.17147954933262
 31
0.0
  0
LINE
  5
196B
  8
0
 10
2242.4512490537718
 20
434.1714795493325
 30
0.0
 11
2242.4512490537718
 21
433.17147954933262
 31
0.0
  0
LINE
  5
196C
  8
0
 10
2242.9512490537718
 20
433.17147954933262
 30
0.0
 11
2229.9512490537718
 21
433.17147954933262
 31
0.0
  0
LINE
  5
196D
  8
0
 10
2242.9512490537718
 20
433.17147954933262
 30
0.0
 11
2242.9512490537718
 21
426.67147954933262
 31
0.0
  0
LINE
  5
196E
  8
0
 10
2229.9512490537718
 20
433.17147954933262
 30
0.0
 11
2229.9512490537718
 21
426.67147954933262
 31
0.0
  0
LINE
  5
196F
  8
0
 10
2240.4512490537718
 20
440.67147954933262
 30
0.0
 11
2240.4512490537718
 21
435.17147954933262
 31
0.0
  0
LINE
  5
1970
  8
0
  6
CENTER
 10
2236.4512490537718
 20
442.32281454933309
 30
0.0
 11
2236.4512490537718
 21
385.28296454933292
 31
0.0
  0
LINE
  5
1971
  8
0
 10
2233.2012490537718
 20
391.17147954933262
 30
0.0
 11
2239.7012490537718
 21
391.17147954933262
 31
0.0
  0
LINE
  5
1972
  8
0
 10
2229.9512490537718
 20
391.89637354933251
 30
0.0
 11
2229.9512490537718
 21
396.67147954933262
 31
0.0
  0
LINE
  5
1973
  8
0
 10
2242.9512490537718
 20
391.89637354933251
 30
0.0
 11
2242.9512490537718
 21
396.67147954933262
 31
0.0
  0
LINE
  5
1974
  8
0
 10
2229.4512490537718
 20
396.67147954933262
 30
0.0
 11
2243.4512490537732
 21
396.67147954933262
 31
0.0
  0
ARC
  5
1975
  8
0
 10
2231.4512490537718
 20
434.1714795493325
 30
0.0
 40
1.0
 50
89.999989999998988
 51
179.99999599996829
  0
ARC
  5
1976
  8
0
 10
2241.4512490537718
 20
434.1714795493325
 30
0.0
 40
1.0
 50
0.0
 51
90.000005008937407
  0
ARC
  5
1977
  8
0
 10
2239.7012490537718
 20
425.5234845493332
 30
0.0
 40
7.647994999999999
 50
64.852630000036257
 51
115.1473750000074
  0
ARC
  5
1978
  8
0
 10
2233.2012490537718
 20
425.5234845493332
 30
0.0
 40
7.647994999999999
 50
64.852630000036257
 51
115.147368000009
  0
ARC
  5
1979
  8
0
 10
2239.7012490537718
 20
434.31947454933282
 30
0.0
 40
7.647994999999999
 50
244.85263000003621
 51
295.1473699999637
  0
ARC
  5
197A
  8
0
 10
2233.2012490537718
 20
434.31947454933282
 30
0.0
 40
7.647994999999999
 50
244.85263000003621
 51
295.1473699999637
  0
ARC
  5
197B
  8
0
 10
2233.2012490537718
 20
398.81947454933282
 30
0.0
 40
7.6479945000000011
 50
244.85263000003621
 51
295.1473699999637
  0
ARC
  5
197C
  8
0
 10
2239.7012490537718
 20
398.81947454933282
 30
0.0
 40
7.6479945000000011
 50
244.85263000003621
 51
295.1473699999637
  0
LINE
  5
197D
  8
0
 10
2229.4512490537718
 20
396.67147954933262
 30
0.0
 11
2229.4512490537718
 21
408.67147954933262
 31
0.0
  0
LINE
  5
197E
  8
0
 10
2229.4512490537718
 20
426.67147954933353
 30
0.0
 11
2229.4512490537718
 21
414.67147954933262
 31
0.0
  0
LINE
  5
197F
  8
0
  6
CENTER
 10
2146.451249576935
 20
346.97004502533582
 30
0.0
 11
2146.451249576935
 21
476.37291407332941
 31
0.0
  0
LINE
  5
199C
  8
0
  6
CENTER
 10
324.45124957693599
 20
-104.9999999999972
 30
0.0
 11
324.45124957693599
 21
0.0000000000081855
 31
0.0
  0
TEXT
  5
19BF
  8
0
 10
805.68934481503015
 20
538.28139750376795
 30
0.0
 40
50.0
  1
2.5SX2000L-20AX1.5S
 72
     4
 11
1235.451249576935
 21
563.28139750376795
 31
0.0
  0
LINE
  5
1A44
  8
0
 10
226.70124957693471
 20
373.92147954931897
 30
0.0
 11
226.70124957693471
 21
449.42147954933353
 31
0.0
  0
LINE
  5
1A45
  8
0
 10
242.20124957693471
 20
373.92147954931897
 30
0.0
 11
242.20124957693471
 21
449.42147954933353
 31
0.0
  0
LINE
  5
1A46
  8
0
 10
239.28948770280539
 20
365.92147954931983
 30
0.0
 11
239.28948770280539
 21
391.33820987085983
 31
0.0
  0
LINE
  5
1A47
  8
0
 10
239.28948770280539
 20
435.17147954933262
 30
0.0
 11
239.28948770280539
 21
457.42147954933353
 31
0.0
  0
LINE
  5
1A48
  8
0
 10
229.61300206029929
 20
365.92147954931983
 30
0.0
 11
229.6130047197145
 21
391.3382115220283
 31
0.0
  0
LINE
  5
1A49
  8
0
 10
229.61300930609849
 20
435.17147954933262
 30
0.0
 11
229.61301163417119
 21
457.42147954933353
 31
0.0
  0
LINE
  5
1A4A
  8
AM_0_T3
 10
242.20124957693471
 20
449.42147954933353
 30
0.0
 11
239.28948770280539
 21
457.42147954933353
 31
0.0
  0
LINE
  5
1A4B
  8
AM_0_T3
 10
226.70124957693471
 20
449.42147954933353
 30
0.0
 11
229.61301163417119
 21
457.42147954933353
 31
0.0
  0
LINE
  5
1A4C
  8
AM_0_T3
 10
239.28948770280539
 20
457.42147954933353
 30
0.0
 11
229.61301163417119
 21
457.42147954933353
 31
0.0
  0
LINE
  5
1A4D
  8
AM_0_T3
 10
242.20124957693471
 20
373.92147954931897
 30
0.0
 11
239.28948770280539
 21
365.92147954931983
 31
0.0
  0
LINE
  5
1A4E
  8
AM_0_T3
 10
226.70124957693471
 20
373.92147954931897
 30
0.0
 11
229.61301163417119
 21
365.92147954931983
 31
0.0
  0
LINE
  5
1A4F
  8
AM_0_T3
 10
239.28948770280539
 20
365.92147954931983
 30
0.0
 11
229.61300206029929
 21
365.92147954931983
 31
0.0
  0
LINE
  5
1A50
  8
0
 10
227.45125010009741
 20
396.67147954933262
 30
0.0
 11
227.45125010009741
 21
408.67147954933262
 31
0.0
  0
LINE
  5
1A51
  8
0
 10
227.45125010009741
 20
408.67147954933262
 30
0.0
 11
241.45125010009789
 21
408.67147954933262
 31
0.0
  0
LINE
  5
1A52
  8
0
 10
227.45125010009741
 20
426.67147954933262
 30
0.0
 11
227.45125010009741
 21
414.67147954933262
 31
0.0
  0
LINE
  5
1A53
  8
0
 10
227.45125010009741
 20
414.67147954933262
 30
0.0
 11
241.45125010009741
 21
414.67147954933262
 31
0.0
  0
LINE
  5
1A54
  8
0
 10
230.45125010009741
 20
414.67147954933262
 30
0.0
 11
230.45125010009741
 21
408.67147954933262
 31
0.0
  0
LINE
  5
1A55
  8
0
 10
238.45125010009741
 20
414.67147954933262
 30
0.0
 11
238.45125010009741
 21
408.67147954933262
 31
0.0
  0
LINE
  5
1A56
  8
0
 10
227.45125010009741
 20
426.67147954933262
 30
0.0
 11
241.45125010009741
 21
426.67147954933353
 31
0.0
  0
LINE
  5
1A57
  8
0
 10
238.45125010009741
 20
440.67147954933262
 30
0.0
 11
238.45125010009741
 21
435.17147954933262
 31
0.0
  0
LINE
  5
1A58
  8
0
 10
239.45125010009741
 20
435.17147954933262
 30
0.0
 11
229.45125010009741
 21
435.17147954933262
 31
0.0
  0
LINE
  5
1A59
  8
0
 10
238.45125010009741
 20
440.67147954933262
 30
0.0
 11
230.45125010009741
 21
440.67147954933262
 31
0.0
  0
LINE
  5
1A5A
  8
0
 10
240.45125010009741
 20
434.1714795493325
 30
0.0
 11
240.45125010009741
 21
433.17147954933262
 31
0.0
  0
LINE
  5
1A5B
  8
0
 10
228.45125010009741
 20
434.1714795493325
 30
0.0
 11
228.45125010009741
 21
433.17147954933262
 31
0.0
  0
LINE
  5
1A5C
  8
0
 10
227.95125010009741
 20
433.17147954933262
 30
0.0
 11
240.95125010009741
 21
433.17147954933262
 31
0.0
  0
LINE
  5
1A5D
  8
0
 10
227.95125010009741
 20
433.17147954933262
 30
0.0
 11
227.95125010009741
 21
426.67147954933262
 31
0.0
  0
LINE
  5
1A5E
  8
0
 10
240.95125010009741
 20
433.17147954933262
 30
0.0
 11
240.95125010009741
 21
426.67147954933262
 31
0.0
  0
LINE
  5
1A5F
  8
0
 10
230.45125010009741
 20
440.67147954933262
 30
0.0
 11
230.45125010009741
 21
435.17147954933262
 31
0.0
  0
LINE
  5
1A60
  8
0
  6
CENTER
 10
234.45125010009741
 20
442.32281454933309
 30
0.0
 11
234.45125010009741
 21
385.28296454933292
 31
0.0
  0
LINE
  5
1A61
  8
0
 10
237.70125010009741
 20
391.17147954933262
 30
0.0
 11
231.20125010009741
 21
391.17147954933262
 31
0.0
  0
LINE
  5
1A62
  8
0
 10
240.95125010009741
 20
391.89637354933251
 30
0.0
 11
240.95125010009741
 21
396.67147954933262
 31
0.0
  0
LINE
  5
1A63
  8
0
 10
227.95125010009741
 20
391.89637354933251
 30
0.0
 11
227.95125010009741
 21
396.67147954933262
 31
0.0
  0
LINE
  5
1A64
  8
0
 10
241.45125010009741
 20
396.67147954933262
 30
0.0
 11
227.45125010009741
 21
396.67147954933262
 31
0.0
  0
ARC
  5
1A65
  8
0
 10
239.45125010009741
 20
434.1714795493325
 30
0.0
 40
1.0
 50
0.0000040000316687
 51
90.000010000001026
  0
ARC
  5
1A66
  8
0
 10
229.45125010009741
 20
434.1714795493325
 30
0.0
 40
1.0
 50
89.999994991062593
 51
180.0
  0
ARC
  5
1A67
  8
0
 10
231.20125010009741
 20
425.5234845493332
 30
0.0
 40
7.647994999999999
 50
64.852624999992557
 51
115.1473699999637
  0
ARC
  5
1A68
  8
0
 10
237.70125010009741
 20
425.5234845493332
 30
0.0
 40
7.647994999999999
 50
64.852632000024855
 51
115.1473699999637
  0
ARC
  5
1A69
  8
0
 10
231.20125010009741
 20
434.31947454933282
 30
0.0
 40
7.647994999999999
 50
244.85263000003621
 51
295.1473699999637
  0
ARC
  5
1A6A
  8
0
 10
237.70125010009741
 20
434.31947454933282
 30
0.0
 40
7.647994999999999
 50
244.85263000003621
 51
295.1473699999637
  0
ARC
  5
1A6B
  8
0
 10
237.70125010009741
 20
398.81947454933282
 30
0.0
 40
7.6479945000000011
 50
244.85263000003621
 51
295.1473699999637
  0
ARC
  5
1A6C
  8
0
 10
231.20125010009741
 20
398.81947454933282
 30
0.0
 40
7.6479945000000011
 50
244.85263000003621
 51
295.1473699999637
  0
LINE
  5
1A6D
  8
0
 10
241.45125010009741
 20
396.67147954933262
 30
0.0
 11
241.45125010009789
 21
408.67147954933262
 31
0.0
  0
LINE
  5
1A6E
  8
0
 10
241.45125010009741
 20
426.67147954933353
 30
0.0
 11
241.45125010009741
 21
414.67147954933262
 31
0.0
  0
LINE
  5
1A71
  8
0
 10
310.85124957693569
 20
-80.999999999997272
 30
0.0
 11
310.8512495769366
 21
-31.749999999985441
 31
0.0
  0
LINE
  5
1A72
  8
0
 10
338.05124957693602
 20
-80.999999999997272
 30
0.0
 11
338.0512495769355
 21
-31.749999999986361
 31
0.0
  0
ARC
  5
1A75
  8
AM_0_T3
 10
324.45124957693469
 20
-60.439762982623499
 30
0.0
 40
31.749999999998138
 50
64.637332180865442
 51
115.3626678190992
  0
LINE
  5
1A91
  8
0
  6
CENTER
 10
310.30911395320322
 20
425.81361517305231
 30
0.0
 11
285.56037661167443
 21
450.56235251458202
 31
0.0
  0
ARC
  5
1A92
  8
0
 10
324.4512495769352
 20
411.6714795493225
 30
0.0
 40
50.0
 50
39.419984467072432
 51
140.58001553292749
  0
LINE
  5
1A93
  8
0
  6
CENTER
 10
338.5933852006653
 20
425.81361517305322
 30
0.0
 11
363.342122542195
 21
450.56235251458281
 31
0.0
  0
ARC
  5
1A94
  8
0
  6
CENTER
 10
324.4512495769352
 20
411.6714795493225
 30
0.0
 40
37.5
 50
57.850947573973123
 51
122.1490524260268
  0
ARC
  5
1A95
  8
0
 10
350.96775387143009
 20
438.18798384381802
 30
0.0
 40
7.5
 50
44.250717304265471
 51
135.74928269573451
  0
ARC
  5
1A96
  8
0
 10
297.93474528243922
 20
438.18798384381711
 30
0.0
 40
7.5
 50
44.250717304265471
 51
135.74928269573451
  0
ARC
  5
1A97
  8
0
 10
350.9677538714306
 20
385.15497525482709
 30
0.0
 40
7.5
 50
224.2507173041362
 51
315.74928269586371
  0
LINE
  5
1A98
  8
0
  6
CENTER
 10
338.59338520066581
 20
397.529343925592
 30
0.0
 11
363.34212254219591
 21
372.78060658406218
 31
0.0
  0
ARC
  5
1A99
  8
0
 10
297.93474528243968
 20
385.15497525482618
 30
0.0
 40
7.5
 50
224.2507173041362
 51
315.74928269586371
  0
LINE
  5
1A9A
  8
0
  6
CENTER
 10
310.30911395320362
 20
397.52934392559098
 30
0.0
 11
285.56037661167528
 21
372.78060658406139
 31
0.0
  0
ARC
  5
1A9B
  8
0
  6
CENTER
 10
324.4512495769352
 20
411.6714795493225
 30
0.0
 40
37.5
 50
237.850947573951
 51
302.14905242604891
  0
ARC
  5
1A9C
  8
0
 10
324.4512495769352
 20
411.6714795493225
 30
0.0
 40
50.0
 50
219.4199844670641
 51
320.58001553293582
  0
LINE
  5
1A9D
  8
0
  6
CENTER
 10
324.4512495769352
 20
346.97004502533582
 30
0.0
 11
324.45124957693469
 21
476.37291407332941
 31
0.0
  0
LINE
  5
1A9E
  8
0
 10
2196.451249576935
 20
81.000000000019114
 30
0.0
 11
2096.451249576935
 21
81.000000000019114
 31
0.0
  0
LINE
  5
1A9F
  8
0
 10
2096.451249576935
 20
95.000000000019085
 30
0.0
 11
2196.451249576935
 21
95.000000000020009
 31
0.0
  0
LINE
  5
1AA0
  8
0
  6
CENTER
 10
2108.951249576935
 20
104.000000000019
 30
0.0
 11
2108.951249576935
 21
71.000000000019099
 31
0.0
  0
LINE
  5
1AA3
  8
0
 10
2096.451249576935
 20
81.000000000019114
 30
0.0
 11
2096.451249576935
 21
95.000000000019085
 31
0.0
  0
LINE
  5
1AA4
  8
0
  6
CENTER
 10
2183.951249576935
 20
104.000000000019
 30
0.0
 11
2183.951249576935
 21
71.000000000019099
 31
0.0
  0
LINE
  5
1AA7
  8
0
 10
2196.451249576935
 20
95.000000000020009
 30
0.0
 11
2196.451249576935
 21
81.000000000019114
 31
0.0
  0
LINE
  5
1AA8
  8
0
  6
CENTER
 10
2146.451249576935
 20
105.0000000000191
 30
0.0
 11
2146.451249576935
 21
0.0000000000136424
 31
0.0
  0
LINE
  5
1AA9
  8
0
 10
2132.8512495769342
 20
81.000000000019114
 30
0.0
 11
2132.8512495769351
 21
31.750000000008178
 31
0.0
  0
LINE
  5
1AAA
  8
0
 10
2160.0512495769349
 20
81.000000000019114
 30
0.0
 11
2160.051249576934
 21
31.750000000007269
 31
0.0
  0
ARC
  5
1AAB
  8
AM_0_T3
 10
2146.451249576935
 20
60.439762982645327
 30
0.0
 40
31.749999999998138
 50
244.6373321808889
 51
295.36266781911098
  0
LINE
  5
1AAC
  8
0
 10
1272.151249576935
 20
31.75000000001091
 30
0.0
 11
2132.8512495769351
 21
31.750000000008178
 31
0.0
  0
LINE
  5
1AAD
  8
0
 10
2160.051249576934
 20
31.750000000007269
 30
0.0
 11
2228.7012495769359
 21
31.750000000008178
 31
0.0
  0
LINE
  5
24CA
  8
0
  6
CENTER
 10
2282.5999922979918
 20
411.67147954932813
 30
0.0
 11
188.3025068558797
 21
411.67147954932813
 31
0.0
  0
LINE
  5
24CB
  8
0
 10
196.55786520459989
 20
-23.870285848434829
 30
0.0
 11
196.55786520459989
 21
13.57028584845102
 31
0.0
  0
LINE
  5
24CC
  8
0
 10
191.4512495769352
 20
-30.39999999999236
 30
0.0
 11
191.4512495769352
 21
20.10000000000764
 31
0.0
  0
LINE
  5
24CD
  8
0
 10
194.30124957693459
 20
-29.597345717988901
 30
0.0
 11
194.30124957693459
 21
19.297345718004181
 31
0.0
  0
LINE
  5
24CE
  8
0
  6
CENTER
 10
188.3025068558793
 20
-5.1499999999923602
 30
0.0
 11
219.4062726678178
 21
-5.1499999999923602
 31
0.0
  0
LINE
  5
24CF
  8
0
 10
197.95828010580431
 20
13.90000000000782
 30
0.0
 11
213.45124857692531
 21
13.900000000008729
 31
0.0
  0
ARC
  5
24D0
  8
0
 10
197.95828010580431
 20
15.90000000000782
 30
0.0
 40
2.0
 50
200.0000000000426
 51
270.0
1001
GENIUS_GENOBJ-N-FIL_13
1002
{
1000
OWNER
1000
GEN
1002
}
1001
GENIUS_GENODEF_13
1002
{
1000
HIER
1070
     0
1002
}
1002
{
1000
MANEDIT
1070
     0
1002
}
1002
{
1000
NOSEL
1070
     0
1002
}
1002
{
1000
BEHIND
1070
     0
1002
}
1002
{
1000
OTHER
1070
     0
1002
}
1002
{
1000
REACTOR
1002
}
  0
LINE
  5
24D1
  8
0
 10
191.4512495769352
 20
20.10000000000764
 30
0.0
 11
193.74108354636721
 21
20.10000000000764
 31
0.0
  0
LINE
  5
24D2
  8
0
 10
194.4928376429954
 20
19.573616114668759
 30
0.0
 11
196.07889486423321
 21
15.215959713356821
 31
0.0
  0
ARC
  5
24D3
  8
0
 10
193.74108354636721
 20
19.30000000000836
 30
0.0
 40
0.8
 50
20.000000000042661
 51
90.0
1001
GENIUS_GENOBJ-N-FIL_13
1002
{
1000
OWNER
1000
GEN
1002
}
1001
GENIUS_GENODEF_13
1002
{
1000
HIER
1070
     0
1002
}
1002
{
1000
MANEDIT
1070
     0
1002
}
1002
{
1000
NOSEL
1070
     0
1002
}
1002
{
1000
BEHIND
1070
     0
1002
}
1002
{
1000
OTHER
1070
     0
1002
}
1002
{
1000
REACTOR
1002
}
  0
LINE
  5
24D4
  8
0
 10
197.95828010580431
 20
-24.199999999991629
 30
0.0
 11
213.45124857692531
 21
-24.199999999991629
 31
0.0
  0
ARC
  5
24D5
  8
0
 10
197.95828010580431
 20
-26.199999999991629
 30
0.0
 40
2.0
 50
90.0
 51
159.99999999995731
1001
GENIUS_GENOBJ-N-FIL_13
1002
{
1000
OWNER
1000
GEN
1002
}
1001
GENIUS_GENODEF_13
1002
{
1000
HIER
1070
     0
1002
}
1002
{
1000
MANEDIT
1070
     0
1002
}
1002
{
1000
NOSEL
1070
     0
1002
}
1002
{
1000
BEHIND
1070
     0
1002
}
1002
{
1000
OTHER
1070
     0
1002
}
1002
{
1000
REACTOR
1002
}
  0
LINE
  5
24D6
  8
0
 10
191.4512495769352
 20
-30.39999999999236
 30
0.0
 11
193.74108354636721
 21
-30.39999999999236
 31
0.0
  0
LINE
  5
24D7
  8
0
 10
194.4928376429954
 20
-29.87361611465257
 30
0.0
 11
196.07889486423321
 21
-25.515959713340632
 31
0.0
  0
ARC
  5
24D8
  8
0
 10
193.74108354636721
 20
-29.599999999992171
 30
0.0
 40
0.8
 50
270.0
 51
339.99999999995731
1001
GENIUS_GENOBJ-N-FIL_13
1002
{
1000
OWNER
1000
GEN
1002
}
1001
GENIUS_GENODEF_13
1002
{
1000
HIER
1070
     0
1002
}
1002
{
1000
MANEDIT
1070
     0
1002
}
1002
{
1000
NOSEL
1070
     0
1002
}
1002
{
1000
BEHIND
1070
     0
1002
}
1002
{
1000
OTHER
1070
     0
1002
}
1002
{
1000
REACTOR
1002
}
  0
LINE
  5
24D9
  8
0
 10
2274.3446339492712
 20
23.87028584845666
 30
0.0
 11
2274.3446339492712
 21
-13.570285848428281
 31
0.0
  0
LINE
  5
24DA
  8
0
 10
2279.4512495769359
 20
30.400000000014181
 30
0.0
 11
2279.4512495769359
 21
-20.099999999985808
 31
0.0
  0
LINE
  5
24DB
  8
0
 10
2276.601249576936
 20
29.597345718010729
 30
0.0
 11
2276.601249576936
 21
-19.297345717982349
 31
0.0
  0
LINE
  5
24DC
  8
0
  6
CENTER
 10
2282.5999922979918
 20
5.1500000000141881
 30
0.0
 11
2251.4962264860528
 21
5.1500000000141881
 31
0.0
  0
LINE
  5
24DD
  8
0
 10
2272.9442190480672
 20
-13.89999999998599
 30
0.0
 11
2257.4512505769449
 21
-13.89999999998599
 31
0.0
  0
ARC
  5
24DE
  8
0
 10
2272.9442190480672
 20
-15.89999999998599
 30
0.0
 40
2.0
 50
20.000000000042661
 51
90.0
1001
GENIUS_GENOBJ-N-FIL_13
1002
{
1000
OWNER
1000
GEN
1002
}
1001
GENIUS_GENODEF_13
1002
{
1000
HIER
1070
     0
1002
}
1002
{
1000
MANEDIT
1070
     0
1002
}
1002
{
1000
NOSEL
1070
     0
1002
}
1002
{
1000
BEHIND
1070
     0
1002
}
1002
{
1000
OTHER
1070
     0
1002
}
1002
{
1000
REACTOR
1002
}
  0
LINE
  5
24DF
  8
0
 10
2279.4512495769359
 20
-20.099999999985808
 30
0.0
 11
2277.1614156075029
 21
-20.099999999985808
 31
0.0
  0
LINE
  5
24E0
  8
0
 10
2276.4096615108751
 20
-19.573616114646029
 30
0.0
 11
2274.8236042896369
 21
-15.21595971333408
 31
0.0
  0
ARC
  5
24E1
  8
0
 10
2277.1614156075029
 20
-19.299999999985619
 30
0.0
 40
0.8
 50
200.0000000000426
 51
270.0
1001
GENIUS_GENOBJ-N-FIL_13
1002
{
1000
OWNER
1000
GEN
1002
}
1001
GENIUS_GENODEF_13
1002
{
1000
HIER
1070
     0
1002
}
1002
{
1000
MANEDIT
1070
     0
1002
}
1002
{
1000
NOSEL
1070
     0
1002
}
1002
{
1000
BEHIND
1070
     0
1002
}
1002
{
1000
OTHER
1070
     0
1002
}
1002
{
1000
REACTOR
1002
}
  0
LINE
  5
24E2
  8
0
 10
2272.9442190480672
 20
24.20000000001437
 30
0.0
 11
2257.4512505769449
 21
24.20000000001437
 31
0.0
  0
ARC
  5
24E3
  8
0
 10
2272.9442190480672
 20
26.20000000001437
 30
0.0
 40
2.0
 50
270.0
 51
339.99999999995731
1001
GENIUS_GENOBJ-N-FIL_13
1002
{
1000
OWNER
1000
GEN
1002
}
1001
GENIUS_GENODEF_13
1002
{
1000
HIER
1070
     0
1002
}
1002
{
1000
MANEDIT
1070
     0
1002
}
1002
{
1000
NOSEL
1070
     0
1002
}
1002
{
1000
BEHIND
1070
     0
1002
}
1002
{
1000
OTHER
1070
     0
1002
}
1002
{
1000
REACTOR
1002
}
  0
LINE
  5
24E4
  8
0
 10
2279.4512495769359
 20
30.400000000014181
 30
0.0
 11
2277.1614156075029
 21
30.400000000014181
 31
0.0
  0
LINE
  5
24E5
  8
0
 10
2276.4096615108751
 20
29.873616114674402
 30
0.0
 11
2274.8236042896369
 21
25.515959713362459
 31
0.0
  0
ARC
  5
24E6
  8
0
 10
2277.1614156075029
 20
29.600000000013999
 30
0.0
 40
0.8
 50
90.0
 51
159.99999999995731
1001
GENIUS_GENOBJ-N-FIL_13
1002
{
1000
OWNER
1000
GEN
1002
}
1001
GENIUS_GENODEF_13
1002
{
1000
HIER
1070
     0
1002
}
1002
{
1000
MANEDIT
1070
     0
1002
}
1002
{
1000
NOSEL
1070
     0
1002
}
1002
{
1000
BEHIND
1070
     0
1002
}
1002
{
1000
OTHER
1070
     0
1002
}
1002
{
1000
REACTOR
1002
}
  0
LINE
  5
24E7
  8
0
 10
2274.3446339492712
 20
430.39176539777048
 30
0.0
 11
2274.3446339492712
 21
392.95119370088469
 31
0.0
  0
LINE
  5
24E8
  8
0
 10
2279.4512495769359
 20
436.92147954932801
 30
0.0
 11
2279.4512495769359
 21
386.42147954932801
 31
0.0
  0
LINE
  5
24E9
  8
0
 10
2276.601249576936
 20
436.11882526732461
 30
0.0
 11
2276.601249576936
 21
387.22413383133153
 31
0.0
  0
LINE
  5
24EA
  8
0
 10
2272.9442190480672
 20
392.62147954932789
 30
0.0
 11
2257.4512505769449
 21
392.62147954932789
 31
0.0
  0
ARC
  5
24EB
  8
0
 10
2272.9442190480672
 20
390.62147954932789
 30
0.0
 40
2.0
 50
20.000000000042661
 51
90.0
1001
GENIUS_GENOBJ-N-FIL_13
1002
{
1000
OWNER
1000
GEN
1002
}
1001
GENIUS_GENODEF_13
1002
{
1000
HIER
1070
     0
1002
}
1002
{
1000
MANEDIT
1070
     0
1002
}
1002
{
1000
NOSEL
1070
     0
1002
}
1002
{
1000
BEHIND
1070
     0
1002
}
1002
{
1000
OTHER
1070
     0
1002
}
1002
{
1000
REACTOR
1002
}
  0
LINE
  5
24EC
  8
0
 10
2279.4512495769359
 20
386.42147954932801
 30
0.0
 11
2277.1614156075029
 21
386.42147954932801
 31
0.0
  0
LINE
  5
24ED
  8
0
 10
2276.4096615108751
 20
386.94786343466689
 30
0.0
 11
2274.8236042896369
 21
391.30551983597968
 31
0.0
  0
ARC
  5
24EE
  8
0
 10
2277.1614156075029
 20
387.22147954932728
 30
0.0
 40
0.8
 50
200.0000000000426
 51
270.0
1001
GENIUS_GENOBJ-N-FIL_13
1002
{
1000
OWNER
1000
GEN
1002
}
1001
GENIUS_GENODEF_13
1002
{
1000
HIER
1070
     0
1002
}
1002
{
1000
MANEDIT
1070
     0
1002
}
1002
{
1000
NOSEL
1070
     0
1002
}
1002
{
1000
BEHIND
1070
     0
1002
}
1002
{
1000
OTHER
1070
     0
1002
}
1002
{
1000
REACTOR
1002
}
  0
LINE
  5
24EF
  8
0
 10
2272.9442190480672
 20
430.72147954932728
 30
0.0
 11
2257.4512505769449
 21
430.72147954932728
 31
0.0
  0
ARC
  5
24F0
  8
0
 10
2272.9442190480672
 20
432.72147954932728
 30
0.0
 40
2.0
 50
270.0
 51
339.99999999995731
1001
GENIUS_GENOBJ-N-FIL_13
1002
{
1000
OWNER
1000
GEN
1002
}
1001
GENIUS_GENODEF_13
1002
{
1000
HIER
1070
     0
1002
}
1002
{
1000
MANEDIT
1070
     0
1002
}
1002
{
1000
NOSEL
1070
     0
1002
}
1002
{
1000
BEHIND
1070
     0
1002
}
1002
{
1000
OTHER
1070
     0
1002
}
1002
{
1000
REACTOR
1002
}
  0
LINE
  5
24F1
  8
0
 10
2279.4512495769359
 20
436.92147954932801
 30
0.0
 11
2277.1614156075029
 21
436.92147954932801
 31
0.0
  0
LINE
  5
24F2
  8
0
 10
2276.4096615108751
 20
436.39509566398817
 30
0.0
 11
2274.8236042896369
 21
432.03743926267629
 31
0.0
  0
ARC
  5
24F3
  8
0
 10
2277.1614156075029
 20
436.12147954932777
 30
0.0
 40
0.8
 50
90.0
 51
159.99999999995731
1001
GENIUS_GENOBJ-N-FIL_13
1002
{
1000
OWNER
1000
GEN
1002
}
1001
GENIUS_GENODEF_13
1002
{
1000
HIER
1070
     0
1002
}
1002
{
1000
MANEDIT
1070
     0
1002
}
1002
{
1000
NOSEL
1070
     0
1002
}
1002
{
1000
BEHIND
1070
     0
1002
}
1002
{
1000
OTHER
1070
     0
1002
}
1002
{
1000
REACTOR
1002
}
  0
LINE
  5
24F4
  8
0
 10
196.55786520460029
 20
430.39176539777048
 30
0.0
 11
196.55786520460029
 21
392.95119370088469
 31
0.0
  0
LINE
  5
24F5
  8
0
 10
191.4512495769356
 20
436.92147954932801
 30
0.0
 11
191.4512495769356
 21
386.42147954932801
 31
0.0
  0
LINE
  5
24F6
  8
0
 10
194.30124957693511
 20
436.11882526732461
 30
0.0
 11
194.30124957693511
 21
387.22413383133153
 31
0.0
  0
LINE
  5
24F7
  8
0
 10
197.9582801058047
 20
392.62147954932789
 30
0.0
 11
213.45124857692571
 21
392.62147954932789
 31
0.0
  0
ARC
  5
24F8
  8
0
 10
197.9582801058047
 20
390.62147954932789
 30
0.0
 40
2.0
 50
90.0
 51
159.99999999995731
1001
GENIUS_GENOBJ-N-FIL_13
1002
{
1000
OWNER
1000
GEN
1002
}
1001
GENIUS_GENODEF_13
1002
{
1000
HIER
1070
     0
1002
}
1002
{
1000
MANEDIT
1070
     0
1002
}
1002
{
1000
NOSEL
1070
     0
1002
}
1002
{
1000
BEHIND
1070
     0
1002
}
1002
{
1000
OTHER
1070
     0
1002
}
1002
{
1000
REACTOR
1002
}
  0
LINE
  5
24F9
  8
0
 10
191.4512495769356
 20
386.42147954932801
 30
0.0
 11
193.74108354636761
 21
386.42147954932801
 31
0.0
  0
LINE
  5
24FA
  8
0
 10
194.49283764299591
 20
386.94786343466689
 30
0.0
 11
196.0788948642336
 21
391.30551983597968
 31
0.0
  0
ARC
  5
24FB
  8
0
 10
193.74108354636761
 20
387.22147954932728
 30
0.0
 40
0.8
 50
270.0
 51
339.99999999995731
1001
GENIUS_GENOBJ-N-FIL_13
1002
{
1000
OWNER
1000
GEN
1002
}
1001
GENIUS_GENODEF_13
1002
{
1000
HIER
1070
     0
1002
}
1002
{
1000
MANEDIT
1070
     0
1002
}
1002
{
1000
NOSEL
1070
     0
1002
}
1002
{
1000
BEHIND
1070
     0
1002
}
1002
{
1000
OTHER
1070
     0
1002
}
1002
{
1000
REACTOR
1002
}
  0
LINE
  5
24FC
  8
0
 10
197.9582801058047
 20
430.72147954932728
 30
0.0
 11
213.45124857692571
 21
430.72147954932728
 31
0.0
  0
ARC
  5
24FD
  8
0
 10
197.9582801058047
 20
432.72147954932728
 30
0.0
 40
2.0
 50
200.0000000000426
 51
270.0
1001
GENIUS_GENOBJ-N-FIL_13
1002
{
1000
OWNER
1000
GEN
1002
}
1001
GENIUS_GENODEF_13
1002
{
1000
HIER
1070
     0
1002
}
1002
{
1000
MANEDIT
1070
     0
1002
}
1002
{
1000
NOSEL
1070
     0
1002
}
1002
{
1000
BEHIND
1070
     0
1002
}
1002
{
1000
OTHER
1070
     0
1002
}
1002
{
1000
REACTOR
1002
}
  0
LINE
  5
24FE
  8
0
 10
191.4512495769356
 20
436.92147954932801
 30
0.0
 11
193.74108354636761
 21
436.92147954932801
 31
0.0
  0
LINE
  5
24FF
  8
0
 10
194.49283764299591
 20
436.39509566398817
 30
0.0
 11
196.0788948642336
 21
432.03743926267629
 31
0.0
  0
ARC
  5
2500
  8
0
 10
193.74108354636761
 20
436.12147954932777
 30
0.0
 40
0.8
 50
20.000000000042661
 51
90.0
1001
GENIUS_GENOBJ-N-FIL_13
1002
{
1000
OWNER
1000
GEN
1002
}
1001
GENIUS_GENODEF_13
1002
{
1000
HIER
1070
     0
1002
}
1002
{
1000
MANEDIT
1070
     0
1002
}
1002
{
1000
NOSEL
1070
     0
1002
}
1002
{
1000
BEHIND
1070
     0
1002
}
1002
{
1000
OTHER
1070
     0
1002
}
1002
{
1000
REACTOR
1002
}
  0
LINE
  5
2505
  8
0
  6
CENTER
 10
2266.9419317621682
 20
0.0000000000145519
 30
0.0
 11
203.9605673917028
 21
0.000000000007276
 31
0.0
  0
CIRCLE
  5
635F
  8
0
 10
2146.451249576935
 20
411.67147954933262
 30
0.0
 40
50.0
  0
CIRCLE
  5
6360
  8
0
  6
CENTER
 10
2146.451249576935
 20
411.67147954933262
 30
0.0
 40
37.5
  0
CIRCLE
  5
6361
  8
0
 10
2119.93474528244
 20
438.18798384382808
 30
0.0
 40
7.5
  0
CIRCLE
  5
6362
  8
0
 10
2172.9677538714309
 20
438.18798384382808
 30
0.0
 40
7.5
  0
CIRCLE
  5
6363
  8
0
 10
2119.93474528244
 20
385.1549752548371
 30
0.0
 40
7.5
  0
CIRCLE
  5
6364
  8
0
 10
2172.9677538714309
 20
385.1549752548371
 30
0.0
 40
7.5
  0
CIRCLE
  5
6373
  8
AM_0_T3
 10
2146.451249576935
 20
411.67147954933262
 30
0.0
 40
13.5999999999999
  0
LINE
  5
6631
  8
0
 10
2.9999999999997722
 20
-61.000000000000909
 30
0.0
 11
3.0000000000002269
 21
-35.62390500000037
 31
0.0
  0
LINE
  5
6632
  8
0
 10
15.00000000000022
 20
-61.000000000000909
 30
0.0
 11
15.000000000000449
 21
-43.221088000001153
 31
0.0
  0
LINE
  5
6633
  8
0
 10
15.00000000000022
 20
-61.000000000000909
 30
0.0
 11
2.9999999999997722
 21
-61.000000000000909
 31
0.0
  0
LINE
  5
6634
  8
0
 10
-15.00000000000022
 20
-61.0
 30
0.0
 11
-15.0
 21
-43.221088000000229
 31
0.0
  0
LINE
  5
6635
  8
0
 10
-15.00000000000022
 20
-61.0
 30
0.0
 11
-3.0000000000002269
 21
-61.000000000000909
 31
0.0
  0
LINE
  5
6636
  8
0
 10
-3.0000000000002269
 20
-61.000000000000909
 30
0.0
 11
-3.0000000000002269
 21
-35.62390500000037
 31
0.0
  0
LINE
  5
6637
  8
0
 10
-3.0000000000002269
 20
-58.000000000000909
 30
0.0
 11
3.0000000000002269
 21
-58.000000000000909
 31
0.0
  0
LINE
  5
6638
  8
0
 10
-3.0
 20
-50.000000000000909
 30
0.0
 11
3.0000000000004539
 21
-50.000000000000909
 31
0.0
  0
LINE
  5
6639
  8
0
 10
14.999999999999771
 20
60.999999999999091
 30
0.0
 11
2.9999999999997722
 21
60.999999999999091
 31
0.0
  0
LINE
  5
663A
  8
0
 10
2.9999999999997722
 20
60.999999999999091
 30
0.0
 11
3.0000000000002269
 21
35.623904999999461
 31
0.0
  0
LINE
  5
663B
  8
0
 10
-15.00000000000022
 20
61.0
 30
0.0
 11
-3.0000000000002269
 21
60.999999999999091
 31
0.0
  0
LINE
  5
663C
  8
0
 10
-3.0000000000002269
 20
60.999999999999091
 30
0.0
 11
-2.9999999999997722
 21
35.623904999999461
 31
0.0
  0
LINE
  5
663D
  8
0
 10
-3.0000000000002269
 20
57.999999999999091
 30
0.0
 11
2.9999999999997722
 21
57.999999999999091
 31
0.0
  0
LINE
  5
663E
  8
0
 10
-3.0
 20
49.999999999999091
 30
0.0
 11
3.0
 21
49.999999999999091
 31
0.0
  0
LINE
  5
663F
  8
0
 10
-15.00000000000022
 20
61.0
 30
0.0
 11
-15.0
 21
43.221088000000229
 31
0.0
  0
LINE
  5
6640
  8
0
 10
-29.0
 20
49.999999999999091
 30
0.0
 11
-23.5
 21
49.999999999999091
 31
0.0
  0
LINE
  5
6641
  8
0
 10
-23.5
 20
48.999999999999091
 30
0.0
 11
-23.50000000000022
 21
58.999999999999091
 31
0.0
  0
LINE
  5
6642
  8
0
 10
-29.0
 20
49.999999999999091
 30
0.0
 11
-29.000000000000231
 21
57.999999999999091
 31
0.0
  0
LINE
  5
6643
  8
0
 10
-22.5
 20
47.999999999999091
 30
0.0
 11
-21.499999999999989
 21
47.999999999999091
 31
0.0
  0
LINE
  5
6644
  8
0
 10
-22.50000000000022
 20
59.999999999999091
 30
0.0
 11
-21.500000000000231
 21
59.999999999999091
 31
0.0
  0
LINE
  5
6645
  8
0
 10
-21.500000000000231
 20
60.499999999999091
 30
0.0
 11
-21.499999999999989
 21
47.499999999999091
 31
0.0
  0
LINE
  5
6646
  8
0
 10
-21.500000000000231
 20
60.499999999999091
 30
0.0
 11
-15.00000000000022
 21
60.5
 31
0.0
  0
LINE
  5
6647
  8
0
 10
-21.499999999999989
 20
47.499999999999091
 30
0.0
 11
-15.0
 21
47.5
 31
0.0
  0
LINE
  5
6648
  8
0
 10
-29.000000000000231
 20
57.999999999999091
 30
0.0
 11
-23.50000000000022
 21
57.999999999999091
 31
0.0
  0
LINE
  5
6649
  8
0
  6
CENTER
 10
-30.65133500000001
 20
53.999999999999091
 30
0.0
 11
26.388514999999639
 21
53.999999999999091
 31
0.0
  0
LINE
  5
664A
  8
0
 10
20.500000000000451
 20
-50.750000000000909
 30
0.0
 11
20.50000000000022
 21
-57.250000000000909
 31
0.0
  0
LINE
  5
664B
  8
0
 10
19.775106000000498
 20
-47.500000000000909
 30
0.0
 11
15.000000000000449
 21
-47.500000000000909
 31
0.0
  0
LINE
  5
664C
  8
0
 10
19.775106000000271
 20
-60.500000000000909
 30
0.0
 11
15.00000000000022
 21
-60.500000000000909
 31
0.0
  0
LINE
  5
664D
  8
0
 10
-28.999999999999542
 20
-50.000000000000909
 30
0.0
 11
-23.5
 21
-50.000000000000909
 31
0.0
  0
LINE
  5
664E
  8
0
 10
-23.5
 20
-49.000000000000902
 30
0.0
 11
-23.50000000000022
 21
-59.000000000000902
 31
0.0
  0
LINE
  5
664F
  8
0
 10
-28.999999999999542
 20
-50.000000000000909
 30
0.0
 11
-28.999999999999769
 21
-58.000000000000909
 31
0.0
  0
LINE
  5
6650
  8
0
 10
-22.5
 20
-48.000000000000909
 30
0.0
 11
-21.499999999999989
 21
-48.000000000000909
 31
0.0
  0
LINE
  5
6651
  8
0
 10
-22.50000000000022
 20
-60.000000000000909
 30
0.0
 11
-21.500000000000231
 21
-60.000000000000909
 31
0.0
  0
LINE
  5
6652
  8
0
 10
-21.500000000000231
 20
-60.500000000000909
 30
0.0
 11
-21.499999999999989
 21
-47.500000000000909
 31
0.0
  0
LINE
  5
6653
  8
0
 10
-21.500000000000231
 20
-60.500000000000909
 30
0.0
 11
-15.00000000000022
 21
-60.5
 31
0.0
  0
LINE
  5
6654
  8
0
 10
-21.499999999999989
 20
-47.500000000000909
 30
0.0
 11
-15.0
 21
-47.5
 31
0.0
  0
LINE
  5
6655
  8
0
 10
-28.999999999999769
 20
-58.000000000000909
 30
0.0
 11
-23.50000000000022
 21
-58.000000000000909
 31
0.0
  0
LINE
  5
6656
  8
0
  6
CENTER
 10
-30.65133499999979
 20
-54.000000000000902
 30
0.0
 11
27.01125299999989
 21
-54.000000000000902
 31
0.0
  0
LINE
  5
6657
  8
0
 10
20.5
 20
50.749999999999091
 30
0.0
 11
20.499999999999769
 21
57.249999999999091
 31
0.0
  0
LINE
  5
6658
  8
0
 10
19.775106000000051
 20
47.499999999999091
 30
0.0
 11
15.0
 21
47.499999999999091
 31
0.0
  0
LINE
  5
6659
  8
0
 10
19.77510599999982
 20
60.499999999999091
 30
0.0
 11
14.999999999999771
 21
60.499999999999091
 31
0.0
  0
LINE
  5
665A
  8
0
 10
15.0
 20
43.221087999999327
 30
0.0
 11
14.999999999999771
 21
60.999999999999091
 31
0.0
  0
ARC
  5
665B
  8
0
 10
0.0000000000002274
 20
-0.0000000000009095
 30
0.0
 40
45.75
 50
273.7597999999735
 51
90.0
  0
ARC
  5
665C
  8
0
 10
0.0000000000002274
 20
-0.0000000000009095
 30
0.0
 40
35.75
 50
274.81369799996452
 51
85.186299999973102
  0
ARC
  5
665D
  8
0
 10
0.0000000000002274
 20
-0.0000000000009095
 30
0.0
 40
37.75
 50
274.81369799996452
 51
90.0
  0
ARC
  5
665E
  8
0
 10
0.0000000000002274
 20
-0.0000000000009095
 30
0.0
 40
35.75
 50
94.813700000026884
 51
265.1863039999896
  0
ARC
  5
665F
  8
0
 10
0.0000000000002274
 20
-0.0000000000009095
 30
0.0
 40
37.75
 50
94.813700000026884
 51
265.1863039999896
  0
ARC
  5
6660
  8
0
 10
0.0000000000002274
 20
-0.0000000000009095
 30
0.0
 40
45.75
 50
93.759799999973637
 51
266.24020199999649
  0
ARC
  5
6661
  8
0
 10
-22.5
 20
48.999999999999091
 30
0.0
 40
1.0
 50
179.9999900000511
 51
269.99999599996829
  0
ARC
  5
6662
  8
0
 10
-22.50000000000022
 20
58.999999999999091
 30
0.0
 40
1.0
 50
90.0
 51
180.00000500893739
  0
ARC
  5
6663
  8
0
 10
-13.85200500000041
 20
57.25
 30
0.0
 40
7.647994999999999
 50
154.85262999998349
 51
205.14737500001289
  0
ARC
  5
6664
  8
0
 10
-13.85200500000019
 20
50.75
 30
0.0
 40
7.647994999999999
 50
154.85262999998349
 51
205.1473680000388
  0
ARC
  5
6665
  8
0
 10
-22.647995000000488
 20
57.249999999999091
 30
0.0
 40
7.647994999999999
 50
334.85262999998349
 51
25.147370000016451
  0
ARC
  5
6666
  8
0
 10
-22.647995000000261
 20
50.749999999999091
 30
0.0
 40
7.647994999999999
 50
334.85262999998349
 51
25.147370000016451
  0
ARC
  5
6667
  8
0
 10
12.85200500000019
 20
-50.750000000000909
 30
0.0
 40
7.6479945000000011
 50
334.85262999998349
 51
25.147370000016451
  0
ARC
  5
6668
  8
0
 10
12.852004999999959
 20
-57.250000000000909
 30
0.0
 40
7.6479945000000011
 50
334.85262999998349
 51
25.147370000016451
  0
ARC
  5
6669
  8
0
 10
-22.5
 20
-49.000000000000902
 30
0.0
 40
1.0
 50
90.0
 51
180.00000500893739
  0
ARC
  5
666A
  8
0
 10
-22.50000000000022
 20
-59.000000000000902
 30
0.0
 40
1.0
 50
179.9999900000511
 51
269.99999599996829
  0
ARC
  5
666B
  8
0
 10
-13.852004999999959
 20
-57.25
 30
0.0
 40
7.647994999999999
 50
154.85261999999599
 51
205.14737199999391
  0
ARC
  5
666C
  8
0
 10
-13.85200499999973
 20
-50.75
 30
0.0
 40
7.647994999999999
 50
154.85262999998349
 51
205.14737199999391
  0
ARC
  5
666D
  8
0
 10
-22.64799500000003
 20
-57.250000000000909
 30
0.0
 40
7.647994999999999
 50
334.85262999998349
 51
25.147370000016451
  0
ARC
  5
666E
  8
0
 10
-22.647994999999799
 20
-50.750000000000909
 30
0.0
 40
7.647994999999999
 50
334.85262999998349
 51
25.147370000016451
  0
ARC
  5
666F
  8
0
 10
12.85200499999973
 20
50.749999999999091
 30
0.0
 40
7.6479945000000011
 50
334.85262999998349
 51
25.147370000016451
  0
ARC
  5
6670
  8
0
 10
12.852004999999499
 20
57.249999999999091
 30
0.0
 40
7.6479945000000011
 50
334.85262999998349
 51
25.147370000016451
  0
LINE
  5
6671
  8
0
  6
CENTER
 10
0.0000000000004547
 20
-103.0000000000054
 30
0.0
 11
-0.0000000000004547
 21
103.0000000000036
 31
0.0
  0
LINE
  5
6672
  8
0
  6
CENTER
 10
-61.036160705143857
 20
-0.0000000000009095
 30
0.0
 11
61.036160705143857
 21
0.0
 31
0.0
  0
ARC
  5
6673
  8
AM_0_T3
 10
0.0000000000002274
 20
-0.0000000000009095
 30
0.0
 40
27.999999999995229
 50
323.14996654720079
 51
216.85003345279901
  0
LINE
  5
6674
  8
0
 10
-49.999999999999538
 20
-81.000000000005457
 30
0.0
 11
50.000000000000462
 21
-81.000000000004533
 31
0.0
  0
LINE
  5
6675
  8
0
 10
50.000000000000227
 20
-95.000000000004533
 30
0.0
 11
-49.999999999999773
 21
-95.000000000006366
 31
0.0
  0
LINE
  5
6676
  8
0
  6
CENTER
 10
37.500000000000448
 20
-104.0000000000054
 30
0.0
 11
37.500000000000448
 21
-71.000000000005457
 31
0.0
  0
LINE
  5
6677
  8
0
 10
50.000000000000462
 20
-81.000000000004533
 30
0.0
 11
50.000000000000227
 21
-95.000000000004533
 31
0.0
  0
LINE
  5
6678
  8
0
  6
CENTER
 10
-37.499999999999538
 20
-104.0000000000054
 30
0.0
 11
-37.499999999999538
 21
-71.000000000005457
 31
0.0
  0
LINE
  5
6679
  8
0
 10
-49.999999999999773
 20
-95.000000000006366
 30
0.0
 11
-49.999999999999538
 21
-81.000000000005457
 31
0.0
  0
LINE
  5
667A
  8
0
 10
13.60000000000036
 20
-81.000000000005457
 30
0.0
 11
13.600000000000129
 21
-61.000000000000909
 31
0.0
  0
LINE
  5
667B
  8
0
 10
-13.5999999999999
 20
-81.000000000004533
 30
0.0
 11
-13.600000000000129
 21
-61.0
 31
0.0
  0
LINE
  5
667C
  8
0
 10
-50.0
 20
81.000000000003624
 30
0.0
 11
50.0
 21
81.000000000004533
 31
0.0
  0
LINE
  5
667D
  8
0
 10
49.999999999999773
 20
95.000000000004533
 30
0.0
 11
-50.000000000000227
 21
95.000000000004533
 31
0.0
  0
LINE
  5
667E
  8
0
  6
CENTER
 10
37.499999999999538
 20
104.0000000000036
 30
0.0
 11
37.499999999999538
 21
71.000000000003624
 31
0.0
  0
LINE
  5
667F
  8
0
 10
50.0
 20
81.000000000004533
 30
0.0
 11
49.999999999999773
 21
95.000000000004533
 31
0.0
  0
LINE
  5
6680
  8
0
  6
CENTER
 10
-37.500000000000448
 20
104.0000000000036
 30
0.0
 11
-37.500000000000448
 21
71.000000000003624
 31
0.0
  0
LINE
  5
6681
  8
0
 10
-50.000000000000227
 20
95.000000000004533
 30
0.0
 11
-50.0
 21
81.000000000003624
 31
0.0
  0
LINE
  5
6682
  8
0
 10
13.5999999999999
 20
81.000000000003624
 30
0.0
 11
13.59999999999968
 21
60.999999999999091
 31
0.0
  0
LINE
  5
6683
  8
0
 10
-13.60000000000036
 20
81.000000000004533
 30
0.0
 11
-13.600000000000589
 21
61.0
 31
0.0
  0
LINE
  5
6684
  8
0
  6
CENTER
 10
-34.204196319953319
 20
-5.1500000000005448
 30
0.0
 11
34.20419631995378
 21
-5.1500000000005448
 31
0.0
  0
CIRCLE
  5
6685
  8
AM_0_T3
 10
0.0000000000002274
 20
-5.1500000000005448
 30
0.0
 40
25.25
  0
CIRCLE
  5
6686
  8
AM_0_T3
 10
0.0000000000002274
 20
-5.1500000000005448
 30
0.0
 40
19.04999999999972
  0
ENDSEC
  0
EOF
