  0
SECTION
  2
HEADER
  9
$ACADVER
  1
AC1009
  9
$INSBASE
 10
0.0
 20
0.0
 30
0.0
  9
$EXTMIN
 10
-61.036160705143622
 20
-105.0000000000118
 30
0.0
  9
$EXTMAX
 10
2282.5999922979909
 20
588.2813975037534
 30
0.0
  9
$LIMMIN
 10
0.0
 20
0.0
  9
$LIMMAX
 10
420.0
 20
297.0
  9
$ORTHOMODE
 70
     0
  9
$REGENMODE
 70
     1
  9
$FILLMODE
 70
     1
  9
$QTEXTMODE
 70
     0
  9
$MIRRTEXT
 70
     1
  9
$DRAGMODE
 70
     2
  9
$LTSCALE
 40
1.0
  9
$OSMODE
 70
    37
  9
$ATTMODE
 70
     1
  9
$TEXTSIZE
 40
73.985717453579113
  9
$TRACEWID
 40
1.0
  9
$TEXTSTYLE
  7
STANDARD
  9
$CLAYER
  8
0
  9
$CELTYPE
  6
BYLAYER
  9
$CECOLOR
 62
   256
  9
$DIMSCALE
 40
1.0
  9
$DIMASZ
 40
3.0
  9
$DIMEXO
 40
1.0
  9
$DIMDLI
 40
10.0
  9
$DIMRND
 40
0.0
  9
$DIMDLE
 40
0.0
  9
$DIMEXE
 40
1.0
  9
$DIMTP
 40
0.1
  9
$DIMTM
 40
0.1
  9
$DIMTXT
 40
30.0
  9
$DIMCEN
 40
0.0
  9
$DIMTSZ
 40
0.0
  9
$DIMTOL
 70
     0
  9
$DIMLIM
 70
     0
  9
$DIMTIH
 70
     0
  9
$DIMTOH
 70
     0
  9
$DIMSE1
 70
     0
  9
$DIMSE2
 70
     0
  9
$DIMTAD
 70
     3
  9
$DIMZIN
 70
     8
  9
$DIMBLK
  1
OPEN
  9
$DIMASO
 70
     1
  9
$DIMSHO
 70
     1
  9
$DIMPOST
  1

  9
$DIMAPOST
  1
"
  9
$DIMALT
 70
     0
  9
$DIMALTD
 70
     2
  9
$DIMALTF
 40
0.0393701
  9
$DIMLFAC
 40
1.0
  9
$DIMTOFL
 70
     1
  9
$DIMTVP
 40
0.0
  9
$DIMTIX
 70
     0
  9
$DIMSOXD
 70
     0
  9
$DIMSAH
 70
     0
  9
$DIMBLK1
  1

  9
$DIMBLK2
  1

  9
$DIMSTYLE
  2
TSK
  9
$DIMCLRD
 70
   256
  9
$DIMCLRE
 70
   256
  9
$DIMCLRT
 70
     2
  9
$DIMTFAC
 40
0.71
  9
$DIMGAP
 40
1.5
  9
$LUNITS
 70
     2
  9
$LUPREC
 70
     8
  9
$SKETCHINC
 40
1.0
  9
$FILLETRAD
 40
0.0
  9
$AUNITS
 70
     0
  9
$AUPREC
 70
     8
  9
$MENU
  1
.
  9
$ELEVATION
 40
0.0
  9
$PELEVATION
 40
0.0
  9
$THICKNESS
 40
0.0
  9
$LIMCHECK
 70
     0
  9
$BLIPMODE
 70
     0
  9
$CHAMFERA
 40
2.5
  9
$CHAMFERB
 40
2.5
  9
$SKPOLY
 70
     0
  9
$TDCREATE
 40
2454739.7204081588
  9
$TDUPDATE
 40
2454748.5624890849
  9
$TDINDWG
 40
0.2620596875
  9
$TDUSRTIMER
 40
0.2620596875
  9
$USRTIMER
 70
     1
  9
$ANGBASE
 50
0.0
  9
$ANGDIR
 70
     1
  9
$PDMODE
 70
     0
  9
$PDSIZE
 40
0.0
  9
$PLINEWID
 40
0.0
  9
$COORDS
 70
     1
  9
$SPLFRAME
 70
     0
  9
$SPLINETYPE
 70
     6
  9
$SPLINESEGS
 70
     8
  9
$ATTDIA
 70
     0
  9
$ATTREQ
 70
     1
  9
$HANDLING
 70
 22529
  9
$HANDSEED
  5
6767
  9
$SURFTAB1
 70
     6
  9
$SURFTAB2
 70
     6
  9
$SURFTYPE
 70
     6
  9
$SURFU
 70
     6
  9
$SURFV
 70
     6
  9
$UCSNAME
  2

  9
$UCSORG
 10
0.0
 20
0.0
 30
0.0
  9
$UCSXDIR
 10
1.0
 20
0.0
 30
0.0
  9
$UCSYDIR
 10
0.0
 20
1.0
 30
0.0
  9
$PUCSNAME
  2

  9
$PUCSORG
 10
0.0
 20
0.0
 30
0.0
  9
$PUCSXDIR
 10
1.0
 20
0.0
 30
0.0
  9
$PUCSYDIR
 10
0.0
 20
1.0
 30
0.0
  9
$USERI1
 70
     0
  9
$USERI2
 70
     0
  9
$USERI3
 70
     0
  9
$USERI4
 70
     0
  9
$USERI5
 70
     0
  9
$USERR1
 40
0.0
  9
$USERR2
 40
0.0
  9
$USERR3
 40
0.0
  9
$USERR4
 40
0.0
  9
$USERR5
 40
0.0
  9
$WORLDVIEW
 70
     1
  9
$SHADEDGE
 70
     3
  9
$SHADEDIF
 70
    70
  9
$TILEMODE
 70
     1
  9
$MAXACTVP
 70
    48
  9
$PLIMCHECK
 70
     0
  9
$PEXTMIN
 10
1.0000000000000000E+020
 20
1.0000000000000000E+020
 30
1.0000000000000000E+020
  9
$PEXTMAX
 10
-1.0000000000000000E+020
 20
-1.0000000000000000E+020
 30
-1.0000000000000000E+020
  9
$PLIMMIN
 10
0.0
 20
0.0
  9
$PLIMMAX
 10
420.0
 20
297.0
  9
$UNITMODE
 70
     0
  9
$VISRETAIN
 70
     1
  9
$PLINEGEN
 70
     0
  9
$PSLTSCALE
 70
     1
  0
ENDSEC
  0
SECTION
  2
TABLES
  0
TABLE
  2
VPORT
 70
     2
  0
VPORT
  2
*ACTIVE
 70
     0
 10
0.0
 20
0.0
 11
1.0
 21
1.0
 12
1244.4133301746231
 22
241.64070036604221
 13
0.0
 23
0.0
 14
2.5
 24
2.5
 15
10.0
 25
10.0
 16
0.0
 26
0.0
 36
1.0
 17
0.0
 27
0.0
 37
0.0
 40
1537.6903942040849
 41
1.705614567526555
 42
50.0
 43
0.0
 44
0.0
 50
0.0
 51
0.0
 71
     0
 72
   100
 73
     1
 74
     3
 75
     0
 76
     0
 77
     0
 78
     0
  0
ENDTAB
  0
TABLE
  2
LTYPE
 70
     2
  0
LTYPE
  2
CONTINUOUS
 70
     0
  3
Solid line
 72
    65
 73
     0
 40
0.0
  0
LTYPE
  2
CENTER
 70
     0
  3
__ . __
 72
    65
 73
     4
 40
7.0
 49
4.0
 49
-1.0
 49
1.0
 49
-1.0
  0
ENDTAB
  0
TABLE
  2
LAYER
 70
     2
  0
LAYER
  2
0
 70
     0
 62
     7
  6
CONTINUOUS
  0
LAYER
  2
AM_0_T3
 70
     0
 62
     7
  6
CONTINUOUS
  0
ENDTAB
  0
TABLE
  2
STYLE
 70
     2
  0
STYLE
  2
STANDARD
 70
     0
 40
0.0
 41
0.7
 50
0.0
 71
     0
 42
73.985717453579113
  3
romans.shx
  4
bigfont.shx
  0
STYLE
  2
TSKDIM
 70
     0
 40
0.0
 41
0.75
 50
0.0
 71
     0
 42
4.0
  3
romans.shx
  4
EXTFONT.SHX
  0
ENDTAB
  0
TABLE
  2
VIEW
 70
     0
  0
ENDTAB
  0
TABLE
  2
UCS
 70
     0
  0
ENDTAB
  0
TABLE
  2
APPID
 70
    41
  0
APPID
  2
ACAD
 70
     0
  0
APPID
  2
MCAD_NO_VIS
 70
     0
  0
APPID
  2
ACAD_TEMP_GRAPHIC
 70
     0
  0
APPID
  2
ACATTRIBSERVICES
 70
     0
  0
APPID
  2
AD_DRAW
 70
     0
  0
APPID
  2
DESIGNERASSEMBLIES
 70
     0
  0
APPID
  2
ASURF_PCURVE_APPNAME
 70
     0
  0
APPID
  2
ACADM_DIM_EDIT
 70
     0
  0
APPID
  2
GENIUS_GENDIM_13
 70
     0
  0
APPID
  2
GENIUS_GENDTOL_13
 70
     0
  0
APPID
  2
GENIUS_GE3DTOL_13
 70
     0
  0
APPID
  2
AMG_3D2D_5_0
 70
     0
  0
APPID
  2
AMDT_DM_ADJ
 70
     0
  0
APPID
  2
CK_MATE-SERIES
 70
     0
  0
APPID
  2
GEVID1042077799
 70
     0
  0
APPID
  2
GEVMK
 70
     0
  0
APPID
  2
GEVDC
 70
     0
  0
APPID
  2
GENIUS_GENBH_13
 70
     0
  0
APPID
  2
GENIUS_GENOLIS_13
 70
     0
  0
APPID
  2
GENIUS_GENOENT_13
 70
     0
  0
APPID
  2
GENIUS_GENODEF_13
 70
     0
  0
APPID
  2
GENIUS_GENOBJ-NBEHI-BHF_13
 70
     0
  0
APPID
  2
GENIUS_GENOREF_13
 70
     0
  0
APPID
  2
GENIUS_GENOBJ-NBEHI-BHB_13
 70
     0
  0
APPID
  2
GEVID1042183772
 70
     0
  0
APPID
  2
GEVID1042183773
 70
     0
  0
APPID
  2
GEVID1042183774
 70
     0
  0
APPID
  2
DCO15
 70
     0
  0
APPID
  2
ACAD_DSTYLE_DIMARC_LENGTH_
 70
     0
  0
APPID
  2
ACAD_DSTYLE_DIMJOGGED_JOGA
 70
     0
  0
APPID
  2
ACAD_MLEADERVER
 70
     0
  0
APPID
  2
ACAD_DSTYLE_DIMJAG
 70
     0
  0
APPID
  2
ACAD_DSTYLE_DIMTALN
 70
     0
  0
APPID
  2
ACAD_PSEXT
 70
     0
  0
APPID
  2
ACAD_EXEMPT_FROM_CAD_STANDARDS
 70
     0
  0
APPID
  2
ACAD_DSTYLE_DIMINSPECT
 70
     0
  0
APPID
  2
ACAD_DSTYLE_DIMANGULAR_EXT
 70
     0
  0
APPID
  2
GENIUS_GENOBJ-N-FIL_13
 70
     0
  0
APPID
  2
ACAD_DSTYLE_DIM_LINETYPE
 70
     0
  0
APPID
  2
ACAD_DSTYLE_DIM_EXT1_LINETYPE
 70
     0
  0
APPID
  2
ACAD_DSTYLE_DIM_EXT2_LINETYPE
 70
     0
  0
ENDTAB
  0
TABLE
  2
DIMSTYLE
 70
     1
  0
DIMSTYLE
  2
TSK
 70
     0
  3

  4
"
  5
OPEN
  6

  7

 40
1.0
 41
3.0
 42
1.0
 43
10.0
 44
1.0
 45
0.0
 46
0.0
 47
0.1
 48
0.1
140
30.0
141
0.0
142
0.0
143
0.0393701
144
1.0
145
0.0
146
0.71
147
1.5
 71
     0
 72
     0
 73
     0
 74
     0
 75
     0
 76
     0
 77
     3
 78
     8
170
     0
171
     2
172
     1
173
     0
174
     0
175
     0
176
   256
177
   256
178
     2
  0
ENDTAB
  0
ENDSEC
  0
SECTION
  2
BLOCKS
  0
BLOCK
  8
0
  2
$MODEL_SPACE
 70
     0
 10
0.0
 20
0.0
 30
0.0
  3
$MODEL_SPACE
  1

  0
ENDBLK
  5
21
  8
0
  0
BLOCK
 67
     1
  8
0
  2
$PAPER_SPACE
 70
     0
 10
0.0
 20
0.0
 30
0.0
  3
$PAPER_SPACE
  1

  0
ENDBLK
  5
1D
 67
     1
  8
0
  0
BLOCK
  8
0
  2
_OPEN
 70
     0
 10
0.0
 20
0.0
 30
0.0
  3
_OPEN
  1

  0
LINE
  5
15A
  8
0
  6
BYBLOCK
 62
     0
 10
-1.0
 20
0.1666666666666666
 30
0.0
 11
0.0
 21
0.0
 31
0.0
  0
LINE
  5
15B
  8
0
  6
BYBLOCK
 62
     0
 10
-1.0
 20
-0.1666666666666666
 30
0.0
 11
0.0
 21
0.0
 31
0.0
  0
LINE
  5
15C
  8
0
  6
BYBLOCK
 62
     0
 10
0.0
 20
0.0
 30
0.0
 11
-1.0
 21
0.0
 31
0.0
  0
ENDBLK
  5
15E
  8
0
  0
ENDSEC
  0
SECTION
  2
ENTITIES
  0
LINE
  5
1BCD
  8
0
  6
CENTER
 10
2160.593385200666
 20
425.81361517304867
 30
0.0
 11
2185.3421225421948
 21
450.56235251457832
 31
0.0
  0
LINE
  5
1BCF
  8
0
  6
CENTER
 10
2132.3091139532039
 20
425.81361517304867
 30
0.0
 11
2107.5603766116742
 21
450.56235251457832
 31
0.0
  0
LINE
  5
1BD4
  8
0
  6
CENTER
 10
2132.3091139532039
 20
397.5293439255874
 30
0.0
 11
2107.5603766116742
 21
372.78060658405769
 31
0.0
  0
LINE
  5
1BD6
  8
0
  6
CENTER
 10
2160.593385200666
 20
397.5293439255874
 30
0.0
 11
2185.3421225421948
 21
372.78060658405769
 31
0.0
  0
LINE
  5
1BD7
  8
0
 10
274.45124957693582
 20
-81.000000000011823
 30
0.0
 11
374.45124957693582
 21
-81.000000000011823
 31
0.0
  0
LINE
  5
1BD8
  8
0
 10
374.45124957693582
 20
-95.000000000011823
 30
0.0
 11
274.45124957693582
 21
-95.000000000012733
 31
0.0
  0
LINE
  5
1BD9
  8
0
  6
CENTER
 10
361.95124957693582
 20
-104.0000000000118
 30
0.0
 11
361.95124957693582
 21
-71.000000000011823
 31
0.0
  0
LINE
  5
1BDC
  8
0
 10
374.45124957693582
 20
-81.000000000011823
 30
0.0
 11
374.45124957693582
 21
-95.000000000011823
 31
0.0
  0
LINE
  5
1BDD
  8
0
  6
CENTER
 10
286.95124957693582
 20
-104.0000000000118
 30
0.0
 11
286.95124957693582
 21
-71.000000000011823
 31
0.0
  0
LINE
  5
1BE0
  8
0
 10
274.45124957693582
 20
-95.000000000012733
 30
0.0
 11
274.45124957693582
 21
-81.000000000011823
 31
0.0
  0
LINE
  5
1D33
  8
0
 10
1202.4804022224671
 20
-41.500000000003631
 30
0.0
 11
1268.4220969314019
 21
-41.500000000003631
 31
0.0
  0
LINE
  5
1D34
  8
0
 10
1198.751249576934
 20
-35.040918148763012
 30
0.0
 11
1202.4804022224671
 21
-41.500000000003631
 31
0.0
  0
LINE
  5
1D35
  8
0
 10
1272.1512495769341
 20
-31.750000000002721
 30
0.0
 11
2228.701249576935
 21
-31.750000000002721
 31
0.0
  0
LINE
  5
1D36
  8
0
 10
1205.451249576935
 20
41.499999999997272
 30
0.0
 11
1205.451249576935
 21
-41.500000000003631
 31
0.0
  0
LINE
  5
1D37
  8
0
 10
1265.4512495769341
 20
41.499999999997272
 30
0.0
 11
1265.4512495769341
 21
-41.500000000003631
 31
0.0
  0
LINE
  5
1D38
  8
0
 10
1255.701249576935
 20
-41.500000000003631
 30
0.0
 11
1255.701249576935
 21
41.499999999996362
 31
0.0
  0
LINE
  5
1D39
  8
0
 10
1260.201249576935
 20
-41.500000000003631
 30
0.0
 11
1260.201249576935
 21
41.499999999997272
 31
0.0
  0
LINE
  5
1D3A
  8
0
 10
1246.701249576935
 20
-41.500000000003631
 30
0.0
 11
1246.701249576935
 21
41.499999999996362
 31
0.0
  0
LINE
  5
1D3B
  8
0
 10
1251.2012495769361
 20
-41.500000000003631
 30
0.0
 11
1251.2012495769361
 21
41.499999999997272
 31
0.0
  0
LINE
  5
1D3C
  8
0
 10
1219.701249576935
 20
-41.500000000003631
 30
0.0
 11
1219.701249576935
 21
41.499999999996362
 31
0.0
  0
LINE
  5
1D3D
  8
0
 10
1215.201249576935
 20
-41.500000000003631
 30
0.0
 11
1215.201249576935
 21
41.499999999996362
 31
0.0
  0
LINE
  5
1D3E
  8
0
 10
1210.7012495769361
 20
-41.500000000003631
 30
0.0
 11
1210.7012495769361
 21
41.499999999996362
 31
0.0
  0
LINE
  5
1D3F
  8
0
 10
1224.201249576935
 20
-41.500000000003631
 30
0.0
 11
1224.201249576935
 21
41.499999999997272
 31
0.0
  0
LINE
  5
1D40
  8
0
 10
1228.7012495769361
 20
-41.500000000003631
 30
0.0
 11
1228.7012495769361
 21
41.499999999996362
 31
0.0
  0
LINE
  5
1D41
  8
0
 10
1233.201249576935
 20
-41.500000000003631
 30
0.0
 11
1233.201249576935
 21
41.499999999997272
 31
0.0
  0
LINE
  5
1D42
  8
0
 10
1237.701249576935
 20
-41.500000000003631
 30
0.0
 11
1237.701249576935
 21
41.499999999996362
 31
0.0
  0
LINE
  5
1D43
  8
0
 10
1242.201249576935
 20
-41.500000000003631
 30
0.0
 11
1242.2012495769341
 21
41.499999999997272
 31
0.0
  0
LINE
  5
1D44
  8
0
 10
1198.751249576934
 20
35.040918148756639
 30
0.0
 11
1202.4804022224671
 21
41.499999999997272
 31
0.0
  0
LINE
  5
1D45
  8
0
 10
1198.751249576934
 20
-35.040918148763012
 30
0.0
 11
1198.751249576934
 21
35.040918148756639
 31
0.0
  0
LINE
  5
1D46
  8
0
 10
1202.4804022224671
 20
41.499999999997272
 30
0.0
 11
1268.4220969314019
 21
41.499999999997272
 31
0.0
  0
LINE
  5
1D47
  8
0
 10
1198.7512495769349
 20
-31.750000000003631
 30
0.0
 11
338.05124957693442
 21
-31.750000000000909
 31
0.0
  0
LINE
  5
1D48
  8
0
 10
310.85124957693552
 20
-31.75
 30
0.0
 11
242.201249576934
 21
-31.750000000000909
 31
0.0
  0
LINE
  5
1D49
  8
0
 10
1202.4804022224671
 20
-41.500000000002728
 30
0.0
 11
1202.4804022224671
 21
41.499999999997272
 31
0.0
  0
LINE
  5
1D4A
  8
0
 10
1272.1512495769341
 20
-35.040918148763012
 30
0.0
 11
1268.4220969314019
 21
-41.500000000003631
 31
0.0
  0
LINE
  5
1D4B
  8
0
 10
1272.1512495769341
 20
35.040918148756639
 30
0.0
 11
1268.4220969314019
 21
41.499999999997272
 31
0.0
  0
LINE
  5
1D4C
  8
0
 10
1272.1512495769341
 20
-35.040918148763012
 30
0.0
 11
1272.1512495769341
 21
35.040918148756639
 31
0.0
  0
LINE
  5
1D4D
  8
AM_0_T3
 10
1268.4220969314019
 20
41.499999999997272
 30
0.0
 11
1268.4220969314019
 21
-41.500000000004547
 31
0.0
  0
LINE
  5
1D4E
  8
0
 10
2257.4512505769449
 20
-28.000000000004551
 30
0.0
 11
2244.201249576935
 21
-28.000000000004551
 31
0.0
  0
LINE
  5
1D4F
  8
0
 10
2257.4512505769449
 20
27.999999999995449
 30
0.0
 11
2244.201249576935
 21
27.999999999995449
 31
0.0
  0
LINE
  5
1D50
  8
0
 10
2257.4512505769449
 20
-28.000000000004551
 30
0.0
 11
2257.4512505769449
 21
27.999999999995449
 31
0.0
  0
LINE
  5
1D54
  8
0
 10
3.0
 20
-61.0
 30
0.0
 11
2.9999999999990901
 21
-36.57114875708703
 31
0.0
  0
LINE
  5
1D55
  8
0
 10
15.0
 20
-61.0
 30
0.0
 11
15.0
 21
-43.221088000000229
 31
0.0
  0
LINE
  5
1D56
  8
0
 10
15.0
 20
-61.0
 30
0.0
 11
3.0
 21
-61.0
 31
0.0
  0
LINE
  5
1D57
  8
0
 10
-15.0
 20
-61.0
 30
0.0
 11
-15.0
 21
-43.221088000000229
 31
0.0
  0
LINE
  5
1D58
  8
0
 10
-15.0
 20
-61.0
 30
0.0
 11
-3.0
 21
-61.0
 31
0.0
  0
LINE
  5
1D59
  8
0
 10
-3.0
 20
-61.0
 30
0.0
 11
-3.0000000000009091
 21
-36.57114875708703
 31
0.0
  0
LINE
  5
1D5A
  8
0
 10
-3.0
 20
-58.0
 30
0.0
 11
3.0
 21
-58.0
 31
0.0
  0
LINE
  5
1D5B
  8
0
 10
-3.0
 20
-50.0
 30
0.0
 11
3.0
 21
-50.0
 31
0.0
  0
LINE
  5
1D5C
  8
0
 10
15.0
 20
61.0
 30
0.0
 11
3.0
 21
61.0
 31
0.0
  0
LINE
  5
1D5D
  8
0
 10
3.0
 20
61.0
 30
0.0
 11
3.0
 21
35.62390500000037
 31
0.0
  0
LINE
  5
1D5E
  8
0
 10
-15.0
 20
61.0
 30
0.0
 11
-3.0
 21
61.0
 31
0.0
  0
LINE
  5
1D5F
  8
0
 10
-3.0
 20
61.0
 30
0.0
 11
-3.0
 21
35.62390500000037
 31
0.0
  0
LINE
  5
1D60
  8
0
 10
-3.0
 20
58.0
 30
0.0
 11
3.0
 21
58.0
 31
0.0
  0
LINE
  5
1D61
  8
0
 10
-3.0
 20
50.0
 30
0.0
 11
3.0
 21
50.0
 31
0.0
  0
LINE
  5
1D62
  8
0
 10
-15.0
 20
61.0
 30
0.0
 11
-15.0
 21
43.221088000000229
 31
0.0
  0
LINE
  5
1D63
  8
0
 10
-29.0
 20
50.0
 30
0.0
 11
-23.5
 21
50.0
 31
0.0
  0
LINE
  5
1D64
  8
0
 10
-23.5
 20
49.0
 30
0.0
 11
-23.5
 21
59.0
 31
0.0
  0
LINE
  5
1D65
  8
0
 10
-29.0
 20
50.0
 30
0.0
 11
-29.0
 21
58.0
 31
0.0
  0
LINE
  5
1D66
  8
0
 10
-22.5
 20
48.0
 30
0.0
 11
-21.499999999999989
 21
48.0
 31
0.0
  0
LINE
  5
1D67
  8
0
 10
-22.5
 20
60.0
 30
0.0
 11
-21.499999999999989
 21
60.0
 31
0.0
  0
LINE
  5
1D68
  8
0
 10
-21.499999999999989
 20
60.5
 30
0.0
 11
-21.499999999999989
 21
47.5
 31
0.0
  0
LINE
  5
1D69
  8
0
 10
-21.499999999999989
 20
60.5
 30
0.0
 11
-15.0
 21
60.5
 31
0.0
  0
LINE
  5
1D6A
  8
0
 10
-21.499999999999989
 20
47.5
 30
0.0
 11
-15.0
 21
47.5
 31
0.0
  0
LINE
  5
1D6B
  8
0
 10
-29.0
 20
58.0
 30
0.0
 11
-23.5
 21
58.0
 31
0.0
  0
LINE
  5
1D6C
  8
0
  6
CENTER
 10
-30.651335000000469
 20
54.0
 30
0.0
 11
26.388514999999639
 21
54.0
 31
0.0
  0
LINE
  5
1D6D
  8
0
 10
20.5
 20
-50.75
 30
0.0
 11
20.5
 21
-57.25
 31
0.0
  0
LINE
  5
1D6E
  8
0
 10
19.775106000000051
 20
-47.5
 30
0.0
 11
15.0
 21
-47.5
 31
0.0
  0
LINE
  5
1D6F
  8
0
 10
19.775106000000051
 20
-60.5
 30
0.0
 11
15.0
 21
-60.5
 31
0.0
  0
LINE
  5
1D70
  8
0
 10
-29.0
 20
-50.0
 30
0.0
 11
-23.5
 21
-50.0
 31
0.0
  0
LINE
  5
1D71
  8
0
 10
-23.5
 20
-49.0
 30
0.0
 11
-23.5
 21
-59.0
 31
0.0
  0
LINE
  5
1D72
  8
0
 10
-29.0
 20
-50.0
 30
0.0
 11
-29.0
 21
-58.0
 31
0.0
  0
LINE
  5
1D73
  8
0
 10
-22.5
 20
-48.0
 30
0.0
 11
-21.499999999999989
 21
-48.0
 31
0.0
  0
LINE
  5
1D74
  8
0
 10
-22.5
 20
-60.0
 30
0.0
 11
-21.499999999999989
 21
-60.0
 31
0.0
  0
LINE
  5
1D75
  8
0
 10
-21.499999999999989
 20
-60.5
 30
0.0
 11
-21.499999999999989
 21
-47.5
 31
0.0
  0
LINE
  5
1D76
  8
0
 10
-21.499999999999989
 20
-60.5
 30
0.0
 11
-15.0
 21
-60.5
 31
0.0
  0
LINE
  5
1D77
  8
0
 10
-21.499999999999989
 20
-47.5
 30
0.0
 11
-15.0
 21
-47.5
 31
0.0
  0
LINE
  5
1D78
  8
0
 10
-29.0
 20
-58.0
 30
0.0
 11
-23.5
 21
-58.0
 31
0.0
  0
LINE
  5
1D79
  8
0
  6
CENTER
 10
-30.651335000000469
 20
-54.0
 30
0.0
 11
27.01125299999967
 21
-54.0
 31
0.0
  0
LINE
  5
1D7A
  8
0
 10
20.5
 20
50.75
 30
0.0
 11
20.5
 21
57.25
 31
0.0
  0
LINE
  5
1D7B
  8
0
 10
19.775106000000051
 20
47.5
 30
0.0
 11
15.0
 21
47.5
 31
0.0
  0
LINE
  5
1D7C
  8
0
 10
19.775106000000051
 20
60.5
 30
0.0
 11
15.0
 21
60.5
 31
0.0
  0
LINE
  5
1D7D
  8
0
 10
15.0
 20
43.221088000000229
 30
0.0
 11
15.0
 21
61.0
 31
0.0
  0
ARC
  5
1D7E
  8
0
 10
0.0
 20
0.0
 30
0.0
 40
45.75
 50
273.7597999999735
 51
90.0
  0
ARC
  5
1D7F
  8
0
 10
0.0
 20
0.0
 30
0.0
 40
35.75
 50
289.98211604244591
 51
85.186299999973102
  0
ARC
  5
1D80
  8
0
 10
0.0
 20
0.0
 30
0.0
 40
37.75
 50
274.81369799996452
 51
90.0
  0
ARC
  5
1D81
  8
0
 10
0.0
 20
0.0
 30
0.0
 40
35.75
 50
94.813700000026884
 51
250.01788395755401
  0
ARC
  5
1D82
  8
0
 10
0.0
 20
0.0
 30
0.0
 40
37.75
 50
94.813700000026884
 51
265.1863039999896
  0
ARC
  5
1D83
  8
0
 10
0.0
 20
0.0
 30
0.0
 40
45.75
 50
93.759799999973637
 51
266.24020200004838
  0
ARC
  5
1D84
  8
0
 10
-22.5
 20
49.0
 30
0.0
 40
1.0
 50
179.99998999994679
 51
269.99999599991622
  0
ARC
  5
1D85
  8
0
 10
-22.5
 20
59.0
 30
0.0
 40
1.0
 50
90.0
 51
180.00000500893739
  0
ARC
  5
1D86
  8
0
 10
-13.85200500000064
 20
57.25
 30
0.0
 40
7.647994999999999
 50
154.85262999998901
 51
205.1473750000074
  0
ARC
  5
1D87
  8
0
 10
-13.85200500000064
 20
50.75
 30
0.0
 40
7.647994999999999
 50
154.85262999998901
 51
205.14736800004439
  0
ARC
  5
1D88
  8
0
 10
-22.647995000000261
 20
57.25
 30
0.0
 40
7.647994999999999
 50
334.85262999998901
 51
25.14737000001092
  0
ARC
  5
1D89
  8
0
 10
-22.647995000000261
 20
50.75
 30
0.0
 40
7.647994999999999
 50
334.85262999998901
 51
25.14737000001092
  0
ARC
  5
1D8A
  8
0
 10
12.85200499999973
 20
-50.75
 30
0.0
 40
7.6479945000000011
 50
334.85262999998901
 51
25.14737000001092
  0
ARC
  5
1D8B
  8
0
 10
12.85200499999973
 20
-57.25
 30
0.0
 40
7.6479945000000011
 50
334.85262999998901
 51
25.14737000001092
  0
ARC
  5
1D8C
  8
0
 10
-22.5
 20
-49.0
 30
0.0
 40
1.0
 50
90.0
 51
180.00000500893739
  0
ARC
  5
1D8D
  8
0
 10
-22.5
 20
-59.0
 30
0.0
 40
1.0
 50
179.99998999994679
 51
269.99999599991622
  0
ARC
  5
1D8E
  8
0
 10
-13.85200500000064
 20
-57.25
 30
0.0
 40
7.647994999999999
 50
154.85261999999599
 51
205.14737199999951
  0
ARC
  5
1D8F
  8
0
 10
-13.85200500000064
 20
-50.75
 30
0.0
 40
7.647994999999999
 50
154.85262999998901
 51
205.14737199999951
  0
ARC
  5
1D90
  8
0
 10
-22.647995000000261
 20
-57.25
 30
0.0
 40
7.647994999999999
 50
334.85262999998901
 51
25.14737000001092
  0
ARC
  5
1D91
  8
0
 10
-22.647995000000261
 20
-50.75
 30
0.0
 40
7.647994999999999
 50
334.85262999998901
 51
25.14737000001092
  0
ARC
  5
1D92
  8
0
 10
12.85200499999973
 20
50.75
 30
0.0
 40
7.6479945000000011
 50
334.85262999998901
 51
25.14737000001092
  0
ARC
  5
1D93
  8
0
 10
12.85200499999973
 20
57.25
 30
0.0
 40
7.6479945000000011
 50
334.85262999998901
 51
25.14737000001092
  0
LINE
  5
1D94
  8
0
 10
2232.6984734537718
 20
60.499999999993634
 30
0.0
 11
2240.2040276537718
 21
60.499999999993634
 31
0.0
  0
LINE
  5
1D95
  8
0
 10
2240.2040254537719
 20
60.500001999993401
 30
0.0
 11
2243.9568025537719
 21
54.000000999993063
 31
0.0
  0
LINE
  5
1D96
  8
0
 10
2243.9568048537722
 20
54.000000999993063
 30
0.0
 11
2240.2040277537722
 21
47.500000999993063
 31
0.0
  0
LINE
  5
1D97
  8
0
 10
2240.2040276537718
 20
47.499999999993634
 30
0.0
 11
2232.6984734537718
 21
47.499999999993634
 31
0.0
  0
LINE
  5
1D98
  8
0
 10
2228.9456952537721
 20
54.000000999993063
 30
0.0
 11
2232.6984723537712
 21
47.500000999993063
 31
0.0
  0
LINE
  5
1D99
  8
0
 10
2232.6984713537722
 20
60.50000299999374
 30
0.0
 11
2228.9456942537722
 21
54.00000299999374
 31
0.0
  0
LINE
  5
1D9A
  8
0
 10
2240.204026653772
 20
-60.500000000006359
 30
0.0
 11
2232.698472453772
 21
-60.500000000006359
 31
0.0
  0
LINE
  5
1D9B
  8
0
 10
2232.6984746537719
 20
-60.500002000006141
 30
0.0
 11
2228.9456975537719
 21
-54.000001000006712
 31
0.0
  0
LINE
  5
1D9C
  8
0
 10
2228.9456952537721
 20
-54.000001000006712
 30
0.0
 11
2232.6984723537712
 21
-47.500001000006698
 31
0.0
  0
LINE
  5
1D9D
  8
0
 10
2243.9568048537722
 20
-54.000001000006712
 30
0.0
 11
2240.2040277537722
 21
-47.500001000006698
 31
0.0
  0
LINE
  5
1D9E
  8
0
 10
2240.2040287537729
 20
-60.500003000006473
 30
0.0
 11
2243.956805853772
 21
-54.000003000006473
 31
0.0
  0
LINE
  5
1D9F
  8
0
 10
2232.698472453772
 20
-47.500000000006359
 30
0.0
 11
2240.204026653772
 21
-47.500000000006359
 31
0.0
  0
LINE
  5
1DA0
  8
0
  6
CENTER
 10
2226.4512500537721
 20
-54.000000000006366
 30
0.0
 11
2246.4512500537721
 21
-54.000000000006366
 31
0.0
  0
LINE
  5
1DA1
  8
0
  6
CENTER
 10
2236.4512505306088
 20
-64.000000000006366
 30
0.0
 11
2236.4512505306088
 21
-44.000000000006366
 31
0.0
  0
LINE
  5
1DA2
  8
0
  6
CENTER
 10
2226.4512490537718
 20
53.999999999993634
 30
0.0
 11
2246.4512490537732
 21
53.999999999993634
 31
0.0
  0
LINE
  5
1DA3
  8
0
  6
CENTER
 10
2236.451249576935
 20
43.999999999993634
 30
0.0
 11
2236.451249576935
 21
63.999999999993634
 31
0.0
  0
LINE
  5
1DA4
  8
0
 10
2244.201249576935
 20
-37.630605894677501
 30
0.0
 11
2244.201249576935
 21
37.630605894663859
 31
0.0
  0
LINE
  5
1DA5
  8
0
 10
2228.701249576935
 20
-37.630605894677501
 30
0.0
 11
2228.701249576935
 21
37.630605894663859
 31
0.0
  0
LINE
  5
1DA6
  8
0
  6
CENTER
 10
0.0
 20
-103.0000000000045
 30
0.0
 11
0.0
 21
103.0000000000045
 31
0.0
  0
LINE
  5
1DA7
  8
0
  6
CENTER
 10
-61.036160705143622
 20
0.0
 30
0.0
 11
61.036160705143622
 21
0.0
 31
0.0
  0
LINE
  5
1DA8
  8
0
 10
2231.6130114510638
 20
-48.941200553756971
 30
0.0
 11
2231.6130114510638
 21
48.941200553744238
 31
0.0
  0
ARC
  5
1DA9
  8
0
 10
2236.451249576935
 20
53.999999999993634
 30
0.0
 40
7.0
 50
313.72333522202422
 51
351.78676740868173
  0
ARC
  5
1DAA
  8
0
 10
2236.451249576935
 20
53.999999999993634
 30
0.0
 40
7.0
 50
8.2132124140657794
 51
51.786784583428279
  0
ARC
  5
1DAB
  8
0
 10
2236.451249576935
 20
53.999999999993634
 30
0.0
 40
7.0
 50
68.213210701756054
 51
111.7867892982439
  0
ARC
  5
1DAC
  8
0
 10
2236.451249576935
 20
53.999999999993634
 30
0.0
 40
7.0
 50
128.2132729511531
 51
171.7867224175869
  0
ARC
  5
1DAD
  8
0
 10
2236.451249576935
 20
53.999999999993634
 30
0.0
 40
7.0
 50
188.21321437744899
 51
226.2766589223782
  0
LINE
  5
1DAE
  8
0
 10
2241.2894974274741
 20
-48.941209854453518
 30
0.0
 11
2241.2894871857952
 21
48.941200059275609
 31
0.0
  0
LINE
  5
1DAF
  8
0
 10
2231.6130114510638
 20
43.22108860266507
 30
0.0
 11
2241.289487784305
 21
43.22108860266507
 31
0.0
  0
LINE
  5
1DB0
  8
0
 10
2228.701249576935
 20
37.630605894663859
 30
0.0
 11
2231.6130114510638
 21
45.651533380592809
 31
0.0
  0
LINE
  5
1DB1
  8
0
 10
2244.201249576935
 20
37.630605894663859
 30
0.0
 11
2241.2894877028039
 21
45.651533380592809
 31
0.0
  0
ARC
  5
1DB2
  8
0
 10
2236.451249576935
 20
-54.000000000006366
 30
0.0
 40
7.0
 50
133.72334107762171
 51
171.78678562255089
  0
ARC
  5
1DB3
  8
0
 10
2236.451249576935
 20
-54.000000000006366
 30
0.0
 40
7.0
 50
188.2131942002481
 51
231.78680279724071
  0
ARC
  5
1DB4
  8
0
 10
2236.451249576935
 20
-54.000000000006366
 30
0.0
 40
7.0
 50
248.213210701756
 51
291.78678929824389
  0
ARC
  5
1DB5
  8
0
 10
2236.451249576935
 20
-54.000000000006366
 30
0.0
 40
7.0
 50
308.21329116507093
 51
351.78670420365859
  0
ARC
  5
1DB6
  8
0
 10
2236.451249576935
 20
-54.000000000006366
 30
0.0
 40
7.0
 50
8.2132325913182846
 51
46.276548780985379
  0
LINE
  5
1DB7
  8
0
 10
2231.6130114510638
 20
-43.221088602678719
 30
0.0
 11
2241.289487784305
 21
-43.221088602678719
 31
0.0
  0
LINE
  5
1DB8
  8
0
 10
2228.701249576935
 20
-37.630605894677501
 30
0.0
 11
2231.6130114510638
 21
-45.651533380606452
 31
0.0
  0
LINE
  5
1DB9
  8
0
 10
2244.201249576935
 20
-37.630605894677501
 30
0.0
 11
2241.2894877028039
 21
-45.651533380606452
 31
0.0
  0
LINE
  5
1DBA
  8
0
 10
1198.751249576934
 20
31.749999999996358
 30
0.0
 11
242.201249576934
 21
31.74999999999363
 31
0.0
  0
LINE
  5
1DBC
  8
0
 10
213.4512485769246
 20
-28.000000000004551
 30
0.0
 11
226.701249576934
 21
-28.000000000004551
 31
0.0
  0
LINE
  5
1DBD
  8
0
 10
213.4512485769246
 20
27.999999999995449
 30
0.0
 11
226.701249576934
 21
27.999999999995449
 31
0.0
  0
LINE
  5
1DBE
  8
0
 10
213.4512485769246
 20
-28.000000000004551
 30
0.0
 11
213.4512485769246
 21
27.999999999995449
 31
0.0
  0
LINE
  5
1DBF
  8
0
 10
238.20402570009711
 20
60.499999999993634
 30
0.0
 11
230.69847150009619
 21
60.499999999993634
 31
0.0
  0
LINE
  5
1DC0
  8
0
 10
230.6984737000966
 20
60.500001999993401
 30
0.0
 11
226.9456966000962
 21
54.000000999993063
 31
0.0
  0
LINE
  5
1DC1
  8
0
 10
226.94569430009679
 20
54.000000999993063
 30
0.0
 11
230.6984714000973
 21
47.500000999993063
 31
0.0
  0
LINE
  5
1DC2
  8
0
 10
230.69847150009619
 20
47.499999999993634
 30
0.0
 11
238.20402570009711
 21
47.499999999993634
 31
0.0
  0
LINE
  5
1DC3
  8
0
 10
241.9568039000969
 20
54.000000999993063
 30
0.0
 11
238.20402680009639
 21
47.500000999993063
 31
0.0
  0
LINE
  5
1DC4
  8
0
 10
238.2040278000967
 20
60.50000299999374
 30
0.0
 11
241.95680490009721
 21
54.00000299999374
 31
0.0
  0
LINE
  5
1DC5
  8
0
 10
230.69847250009661
 20
-60.500000000006359
 30
0.0
 11
238.20402670009659
 21
-60.500000000006359
 31
0.0
  0
LINE
  5
1DC6
  8
0
 10
238.20402450009709
 20
-60.500002000006141
 30
0.0
 11
241.9568016000967
 21
-54.000001000006712
 31
0.0
  0
LINE
  5
1DC7
  8
0
 10
241.9568039000969
 20
-54.000001000006712
 30
0.0
 11
238.20402680009639
 21
-47.500001000006698
 31
0.0
  0
LINE
  5
1DC8
  8
0
 10
226.94569430009679
 20
-54.000001000006712
 30
0.0
 11
230.6984714000973
 21
-47.500001000006698
 31
0.0
  0
LINE
  5
1DC9
  8
0
 10
230.69847040009691
 20
-60.500003000006473
 30
0.0
 11
226.94569330009651
 21
-54.000003000006473
 31
0.0
  0
LINE
  5
1DCA
  8
0
 10
238.20402670009659
 20
-47.500000000006359
 30
0.0
 11
230.69847250009661
 21
-47.500000000006359
 31
0.0
  0
LINE
  5
1DCB
  8
0
  6
CENTER
 10
244.4512491000969
 20
-54.000000000006366
 30
0.0
 11
224.4512491000969
 21
-54.000000000006366
 31
0.0
  0
LINE
  5
1DCC
  8
0
  6
CENTER
 10
234.45124862325969
 20
-64.000000000006366
 30
0.0
 11
234.45124862325969
 21
-44.000000000006366
 31
0.0
  0
LINE
  5
1DCD
  8
0
  6
CENTER
 10
244.45125010009721
 20
53.999999999993634
 30
0.0
 11
224.45125010009721
 21
53.999999999993634
 31
0.0
  0
LINE
  5
1DCE
  8
0
  6
CENTER
 10
234.451249576934
 20
43.999999999993634
 30
0.0
 11
234.451249576934
 21
63.999999999993634
 31
0.0
  0
LINE
  5
1DCF
  8
0
 10
226.701249576934
 20
-37.630605894677501
 30
0.0
 11
226.701249576934
 21
37.630605894663859
 31
0.0
  0
LINE
  5
1DD0
  8
0
 10
242.201249576934
 20
-37.630605894677501
 30
0.0
 11
242.201249576934
 21
37.630605894663859
 31
0.0
  0
LINE
  5
1DD1
  8
0
 10
239.28948770280471
 20
-48.941200553756971
 30
0.0
 11
239.28948770280471
 21
48.941200553744238
 31
0.0
  0
ARC
  5
1DD2
  8
0
 10
234.451249576934
 20
53.999999999993634
 30
0.0
 40
7.0
 50
188.21323259131819
 51
226.27666477797561
  0
ARC
  5
1DD3
  8
0
 10
234.451249576934
 20
53.999999999993634
 30
0.0
 40
7.0
 50
128.2132154165717
 51
171.78678758593421
  0
ARC
  5
1DD4
  8
0
 10
234.451249576934
 20
53.999999999993634
 30
0.0
 40
7.0
 50
68.213210701756054
 51
111.7867892982439
  0
ARC
  5
1DD5
  8
0
 10
234.451249576934
 20
53.999999999993634
 30
0.0
 40
7.0
 50
8.2132775824130864
 51
51.786727048846899
  0
ARC
  5
1DD6
  8
0
 10
234.451249576934
 20
53.999999999993634
 30
0.0
 40
7.0
 50
313.7233410776218
 51
351.78678562255089
  0
LINE
  5
1DD7
  8
0
 10
229.61300172639491
 20
-48.941209854453518
 30
0.0
 11
229.61301196807369
 21
48.941200059275609
 31
0.0
  0
LINE
  5
1DD8
  8
0
 10
239.28948770280471
 20
43.22108860266507
 30
0.0
 11
229.61301136956439
 21
43.22108860266507
 31
0.0
  0
LINE
  5
1DD9
  8
0
 10
242.201249576934
 20
37.630605894663859
 30
0.0
 11
239.28948770280471
 21
45.651533380592809
 31
0.0
  0
LINE
  5
1DDA
  8
0
 10
226.701249576934
 20
37.630605894663859
 30
0.0
 11
229.6130114510633
 21
45.651533380592809
 31
0.0
  0
ARC
  5
1DDB
  8
0
 10
234.451249576934
 20
-54.000000000006366
 30
0.0
 40
7.0
 50
8.2132143774490807
 51
46.276658922378218
  0
ARC
  5
1DDC
  8
0
 10
234.451249576934
 20
-54.000000000006366
 30
0.0
 40
7.0
 50
308.21319720275932
 51
351.78680579975179
  0
ARC
  5
1DDD
  8
0
 10
234.451249576934
 20
-54.000000000006366
 30
0.0
 40
7.0
 50
248.213210701756
 51
291.78678929824389
  0
ARC
  5
1DDE
  8
0
 10
234.451249576934
 20
-54.000000000006366
 30
0.0
 40
7.0
 50
188.21329579634121
 51
231.78670883492899
  0
ARC
  5
1DDF
  8
0
 10
234.451249576934
 20
-54.000000000006366
 30
0.0
 40
7.0
 50
133.72345121901461
 51
171.7867674086817
  0
LINE
  5
1DE0
  8
0
 10
239.28948770280471
 20
-43.221088602678719
 30
0.0
 11
229.61301136956439
 21
-43.221088602678719
 31
0.0
  0
LINE
  5
1DE1
  8
0
 10
242.201249576934
 20
-37.630605894677501
 30
0.0
 11
239.28948770280471
 21
-45.651533380606452
 31
0.0
  0
LINE
  5
1DE2
  8
0
 10
226.701249576934
 20
-37.630605894677501
 30
0.0
 11
229.6130114510633
 21
-45.651533380606452
 31
0.0
  0
LINE
  5
1DE3
  8
0
 10
1202.4804022224671
 20
370.17147954931443
 30
0.0
 11
1268.4220969314019
 21
370.17147954931443
 31
0.0
  0
LINE
  5
1DE4
  8
0
 10
1198.751249576934
 20
376.630561400555
 30
0.0
 11
1202.4804022224671
 21
370.17147954931443
 31
0.0
  0
LINE
  5
1DE5
  8
0
 10
1272.1512495769341
 20
379.92147954931528
 30
0.0
 11
2107.8256427855872
 21
379.92147954931528
 31
0.0
  0
LINE
  5
1DE6
  8
0
 10
2185.0768563682818
 20
379.92147954931528
 30
0.0
 11
2228.701249576935
 21
379.92147954931528
 31
0.0
  0
LINE
  5
1DE7
  8
0
 10
1205.451249576935
 20
453.17147954931528
 30
0.0
 11
1205.451249576935
 21
370.17147954931443
 31
0.0
  0
LINE
  5
1DE8
  8
0
 10
1265.4512495769341
 20
453.17147954931528
 30
0.0
 11
1265.4512495769341
 21
370.17147954931443
 31
0.0
  0
LINE
  5
1DE9
  8
0
 10
1255.701249576935
 20
370.17147954931443
 30
0.0
 11
1255.701249576935
 21
453.17147954931443
 31
0.0
  0
LINE
  5
1DEA
  8
0
 10
1260.201249576935
 20
370.17147954931443
 30
0.0
 11
1260.201249576935
 21
453.17147954931528
 31
0.0
  0
LINE
  5
1DEB
  8
0
 10
1246.701249576935
 20
370.17147954931443
 30
0.0
 11
1246.701249576935
 21
453.17147954931443
 31
0.0
  0
LINE
  5
1DEC
  8
0
 10
1251.2012495769361
 20
370.17147954931443
 30
0.0
 11
1251.2012495769361
 21
453.17147954931528
 31
0.0
  0
LINE
  5
1DED
  8
0
 10
1219.701249576935
 20
370.17147954931443
 30
0.0
 11
1219.701249576935
 21
453.17147954931443
 31
0.0
  0
LINE
  5
1DEE
  8
0
 10
1215.201249576935
 20
370.17147954931443
 30
0.0
 11
1215.201249576935
 21
453.17147954931443
 31
0.0
  0
LINE
  5
1DEF
  8
0
 10
1210.7012495769361
 20
370.17147954931443
 30
0.0
 11
1210.7012495769361
 21
453.17147954931443
 31
0.0
  0
LINE
  5
1DF0
  8
0
 10
1224.201249576935
 20
370.17147954931443
 30
0.0
 11
1224.201249576935
 21
453.17147954931528
 31
0.0
  0
LINE
  5
1DF1
  8
0
 10
1228.7012495769361
 20
370.17147954931443
 30
0.0
 11
1228.7012495769361
 21
453.17147954931443
 31
0.0
  0
LINE
  5
1DF2
  8
0
 10
1233.201249576935
 20
370.17147954931443
 30
0.0
 11
1233.201249576935
 21
453.17147954931528
 31
0.0
  0
LINE
  5
1DF3
  8
0
 10
1237.701249576935
 20
370.17147954931443
 30
0.0
 11
1237.701249576935
 21
453.17147954931443
 31
0.0
  0
LINE
  5
1DF4
  8
0
 10
1242.201249576935
 20
370.17147954931443
 30
0.0
 11
1242.2012495769341
 21
453.17147954931528
 31
0.0
  0
LINE
  5
1DF5
  8
0
 10
1198.751249576934
 20
446.7123976980746
 30
0.0
 11
1202.4804022224671
 21
453.17147954931528
 31
0.0
  0
LINE
  5
1DF6
  8
0
 10
1198.751249576934
 20
376.630561400555
 30
0.0
 11
1198.751249576934
 21
446.7123976980746
 31
0.0
  0
LINE
  5
1DF7
  8
0
 10
1202.4804022224671
 20
453.17147954931528
 30
0.0
 11
1268.4220969314019
 21
453.17147954931528
 31
0.0
  0
LINE
  5
1DF8
  8
0
 10
1272.1512495769341
 20
443.42147954931443
 30
0.0
 11
2107.8256427855808
 21
443.42147954931261
 31
0.0
  0
LINE
  5
1DF9
  8
0
 10
2185.0768563682882
 20
443.42147954931352
 30
0.0
 11
2228.701249576935
 21
443.4214795493117
 31
0.0
  0
LINE
  5
1DFA
  8
0
 10
1202.4804022224671
 20
370.17147954931528
 30
0.0
 11
1202.4804022224671
 21
453.17147954931528
 31
0.0
  0
LINE
  5
1DFB
  8
0
 10
1272.1512495769341
 20
376.630561400555
 30
0.0
 11
1268.4220969314019
 21
370.17147954931443
 31
0.0
  0
LINE
  5
1DFC
  8
0
 10
1272.1512495769341
 20
446.7123976980746
 30
0.0
 11
1268.4220969314019
 21
453.17147954931528
 31
0.0
  0
LINE
  5
1DFD
  8
0
 10
1272.1512495769341
 20
376.630561400555
 30
0.0
 11
1272.1512495769341
 21
446.7123976980746
 31
0.0
  0
LINE
  5
1DFE
  8
AM_0_T3
 10
1268.4220969314019
 20
453.17147954931528
 30
0.0
 11
1268.4220969314019
 21
370.17147954931352
 31
0.0
  0
LINE
  5
1DFF
  8
0
 10
2257.4512505769449
 20
383.67147954931352
 30
0.0
 11
2244.201249576935
 21
383.67147954931352
 31
0.0
  0
LINE
  5
1E00
  8
0
 10
2257.4512505769449
 20
439.67147954931352
 30
0.0
 11
2244.201249576935
 21
439.67147954931352
 31
0.0
  0
LINE
  5
1E01
  8
0
 10
2257.4512505769449
 20
383.67147954931352
 30
0.0
 11
2257.4512505769449
 21
439.67147954931352
 31
0.0
  0
LINE
  5
1E02
  8
0
 10
2244.201249576935
 20
373.92147954930442
 30
0.0
 11
2244.201249576935
 21
449.42147954931892
 31
0.0
  0
LINE
  5
1E03
  8
0
 10
2228.701249576935
 20
373.92147954930442
 30
0.0
 11
2228.701249576935
 21
449.42147954931892
 31
0.0
  0
LINE
  5
1E04
  8
0
 10
2231.6130114510638
 20
365.92147954930527
 30
0.0
 11
2231.6130114510638
 21
391.33820987084522
 31
0.0
  0
LINE
  5
1E05
  8
0
 10
2231.6130114510638
 20
435.17147954931801
 30
0.0
 11
2231.6130114510638
 21
457.42147954931892
 31
0.0
  0
LINE
  5
1E06
  8
0
 10
2241.2894970935699
 20
365.92147954930527
 30
0.0
 11
2241.2894944341551
 21
391.33821152201381
 31
0.0
  0
LINE
  5
1E07
  8
0
 10
2241.2894898477712
 20
435.17147954931801
 30
0.0
 11
2241.289487519698
 21
457.42147954931892
 31
0.0
  0
LINE
  5
1E08
  8
0
 10
1198.751249576934
 20
379.92147954931528
 30
0.0
 11
242.201249576934
 21
379.92147954931528
 31
0.0
  0
LINE
  5
1E09
  8
0
 10
1198.751249576934
 20
443.42147954931443
 30
0.0
 11
242.201249576934
 21
443.4214795493117
 31
0.0
  0
LINE
  5
1E0B
  8
0
 10
213.4512485769246
 20
383.67147954931352
 30
0.0
 11
226.701249576934
 21
383.67147954931352
 31
0.0
  0
LINE
  5
1E0C
  8
0
 10
213.4512485769246
 20
439.67147954931352
 30
0.0
 11
226.701249576934
 21
439.67147954931352
 31
0.0
  0
LINE
  5
1E0D
  8
0
 10
213.4512485769246
 20
383.67147954931352
 30
0.0
 11
213.4512485769246
 21
439.67147954931352
 31
0.0
  0
LINE
  5
1E0E
  8
AM_0_T3
 10
2228.701249576935
 20
449.42147954931892
 30
0.0
 11
2231.6130114510638
 21
457.42147954931892
 31
0.0
  0
LINE
  5
1E0F
  8
AM_0_T3
 10
2244.201249576935
 20
449.42147954931892
 30
0.0
 11
2241.289487519698
 21
457.42147954931892
 31
0.0
  0
LINE
  5
1E10
  8
AM_0_T3
 10
2231.6130114510638
 20
457.42147954931892
 30
0.0
 11
2241.289487519698
 21
457.42147954931892
 31
0.0
  0
LINE
  5
1E11
  8
AM_0_T3
 10
2228.701249576935
 20
373.92147954930442
 30
0.0
 11
2231.6130114510638
 21
365.92147954930527
 31
0.0
  0
LINE
  5
1E12
  8
AM_0_T3
 10
2244.201249576935
 20
373.92147954930442
 30
0.0
 11
2241.289487519698
 21
365.92147954930527
 31
0.0
  0
LINE
  5
1E13
  8
AM_0_T3
 10
2231.6130114510638
 20
365.92147954930527
 30
0.0
 11
2241.2894970935699
 21
365.92147954930527
 31
0.0
  0
LINE
  5
1E14
  8
0
 10
2243.4512490537732
 20
396.67147954931801
 30
0.0
 11
2243.4512490537732
 21
408.67147954931801
 31
0.0
  0
LINE
  5
1E15
  8
0
 10
2243.4512490537732
 20
408.67147954931801
 30
0.0
 11
2229.4512490537709
 21
408.67147954931801
 31
0.0
  0
LINE
  5
1E16
  8
0
 10
2243.4512490537732
 20
426.67147954931812
 30
0.0
 11
2243.4512490537732
 21
414.67147954931801
 31
0.0
  0
LINE
  5
1E17
  8
0
 10
2243.4512490537732
 20
414.67147954931801
 30
0.0
 11
2229.4512490537718
 21
414.67147954931801
 31
0.0
  0
LINE
  5
1E18
  8
0
 10
2240.4512490537718
 20
414.67147954931801
 30
0.0
 11
2240.4512490537718
 21
408.67147954931801
 31
0.0
  0
LINE
  5
1E19
  8
0
 10
2232.4512490537718
 20
414.67147954931801
 30
0.0
 11
2232.4512490537718
 21
408.67147954931801
 31
0.0
  0
LINE
  5
1E1A
  8
0
 10
2243.4512490537732
 20
426.67147954931812
 30
0.0
 11
2229.4512490537718
 21
426.67147954931892
 31
0.0
  0
LINE
  5
1E1B
  8
0
 10
2232.4512490537718
 20
440.67147954931801
 30
0.0
 11
2232.4512490537718
 21
435.17147954931801
 31
0.0
  0
LINE
  5
1E1C
  8
0
 10
2231.4512490537718
 20
435.17147954931801
 30
0.0
 11
2241.4512490537718
 21
435.17147954931801
 31
0.0
  0
LINE
  5
1E1D
  8
0
 10
2232.4512490537718
 20
440.67147954931801
 30
0.0
 11
2240.4512490537718
 21
440.67147954931801
 31
0.0
  0
LINE
  5
1E1E
  8
0
 10
2230.4512490537732
 20
434.17147954931812
 30
0.0
 11
2230.4512490537732
 21
433.17147954931801
 31
0.0
  0
LINE
  5
1E1F
  8
0
 10
2242.4512490537718
 20
434.17147954931812
 30
0.0
 11
2242.4512490537718
 21
433.17147954931801
 31
0.0
  0
LINE
  5
1E20
  8
0
 10
2242.9512490537718
 20
433.17147954931801
 30
0.0
 11
2229.9512490537718
 21
433.17147954931801
 31
0.0
  0
LINE
  5
1E21
  8
0
 10
2242.9512490537718
 20
433.17147954931801
 30
0.0
 11
2242.9512490537718
 21
426.67147954931812
 31
0.0
  0
LINE
  5
1E22
  8
0
 10
2229.9512490537718
 20
433.17147954931801
 30
0.0
 11
2229.9512490537718
 21
426.67147954931812
 31
0.0
  0
LINE
  5
1E23
  8
0
 10
2240.4512490537718
 20
440.67147954931801
 30
0.0
 11
2240.4512490537718
 21
435.17147954931801
 31
0.0
  0
LINE
  5
1E24
  8
0
  6
CENTER
 10
2236.4512490537718
 20
442.32281454931848
 30
0.0
 11
2236.4512490537718
 21
385.28296454931842
 31
0.0
  0
LINE
  5
1E25
  8
0
 10
2233.2012490537718
 20
391.17147954931801
 30
0.0
 11
2239.7012490537718
 21
391.17147954931801
 31
0.0
  0
LINE
  5
1E26
  8
0
 10
2229.9512490537718
 20
391.89637354931801
 30
0.0
 11
2229.9512490537718
 21
396.67147954931801
 31
0.0
  0
LINE
  5
1E27
  8
0
 10
2242.9512490537718
 20
391.89637354931801
 30
0.0
 11
2242.9512490537718
 21
396.67147954931801
 31
0.0
  0
LINE
  5
1E28
  8
0
 10
2229.4512490537718
 20
396.67147954931801
 30
0.0
 11
2243.4512490537732
 21
396.67147954931801
 31
0.0
  0
ARC
  5
1E29
  8
0
 10
2231.4512490537718
 20
434.17147954931812
 30
0.0
 40
1.0
 50
89.999989999998988
 51
179.99999599996829
  0
ARC
  5
1E2A
  8
0
 10
2241.4512490537718
 20
434.17147954931812
 30
0.0
 40
1.0
 50
0.0
 51
90.000005008937407
  0
ARC
  5
1E2B
  8
0
 10
2239.7012490537718
 20
425.52348454931871
 30
0.0
 40
7.647994999999999
 50
64.852630000036257
 51
115.1473750000074
  0
ARC
  5
1E2C
  8
0
 10
2233.2012490537718
 20
425.52348454931871
 30
0.0
 40
7.647994999999999
 50
64.852630000036257
 51
115.1473679999751
  0
ARC
  5
1E2D
  8
0
 10
2239.7012490537718
 20
434.31947454931827
 30
0.0
 40
7.647994999999999
 50
244.85263000003621
 51
295.1473699999637
  0
ARC
  5
1E2E
  8
0
 10
2233.2012490537718
 20
434.31947454931827
 30
0.0
 40
7.647994999999999
 50
244.85263000003621
 51
295.1473699999637
  0
ARC
  5
1E2F
  8
0
 10
2233.2012490537718
 20
398.81947454931827
 30
0.0
 40
7.6479945000000011
 50
244.85263000003621
 51
295.1473699999637
  0
ARC
  5
1E30
  8
0
 10
2239.7012490537718
 20
398.81947454931827
 30
0.0
 40
7.6479945000000011
 50
244.85263000003621
 51
295.1473699999637
  0
LINE
  5
1E31
  8
0
 10
2229.4512490537718
 20
396.67147954931801
 30
0.0
 11
2229.4512490537709
 21
408.67147954931801
 31
0.0
  0
LINE
  5
1E32
  8
0
 10
2229.4512490537718
 20
426.67147954931892
 30
0.0
 11
2229.4512490537718
 21
414.67147954931801
 31
0.0
  0
LINE
  5
1E33
  8
0
  6
CENTER
 10
2146.4512495769341
 20
346.97004502532121
 30
0.0
 11
2146.451249576935
 21
476.3729140733148
 31
0.0
  0
ARC
  5
1E34
  8
AM_0_T3
 10
0.0
 20
0.0
 30
0.0
 40
27.999999999995229
 50
334.35813633830588
 51
205.641863661694
  0
LINE
  5
1E35
  8
0
  6
CENTER
 10
324.45124957693582
 20
-105.0000000000118
 30
0.0
 11
324.45124957693582
 21
-0.0000000000063665
 31
0.0
  0
LINE
  5
1E36
  8
0
 10
338.05124957693528
 20
-81.000000000011823
 30
0.0
 11
338.05124957693442
 21
-31.750000000000909
 31
0.0
  0
LINE
  5
1E37
  8
0
 10
310.85124957693552
 20
-81.000000000011823
 30
0.0
 11
310.85124957693552
 21
-31.75
 31
0.0
  0
TEXT
  5
1E38
  8
0
 10
841.4036305293148
 20
538.28139750375328
 30
0.0
 40
50.0
  1
2.5SX2000L-20AX1S
 72
     4
 11
1235.4512495769341
 21
563.28139750375328
 31
0.0
  0
LINE
  5
1EB6
  8
0
 10
226.701249576934
 20
373.92147954930442
 30
0.0
 11
226.701249576934
 21
449.42147954931892
 31
0.0
  0
LINE
  5
1EB7
  8
0
 10
242.201249576934
 20
373.92147954930442
 30
0.0
 11
242.201249576934
 21
449.42147954931892
 31
0.0
  0
LINE
  5
1EB8
  8
0
 10
239.28948770280471
 20
365.92147954930527
 30
0.0
 11
239.28948770280471
 21
391.33820987084522
 31
0.0
  0
LINE
  5
1EB9
  8
0
 10
239.28948770280471
 20
435.17147954931801
 30
0.0
 11
239.28948770280471
 21
457.42147954931892
 31
0.0
  0
LINE
  5
1EBA
  8
0
 10
229.61300206029861
 20
365.92147954930527
 30
0.0
 11
229.61300471971381
 21
391.33821152201381
 31
0.0
  0
LINE
  5
1EBB
  8
0
 10
229.61300930609829
 20
435.17147954931801
 30
0.0
 11
229.61301163416999
 21
457.42147954931892
 31
0.0
  0
LINE
  5
1EBC
  8
AM_0_T3
 10
242.201249576934
 20
449.42147954931892
 30
0.0
 11
239.28948770280471
 21
457.42147954931892
 31
0.0
  0
LINE
  5
1EBD
  8
AM_0_T3
 10
226.701249576934
 20
449.42147954931892
 30
0.0
 11
229.61301163416999
 21
457.42147954931892
 31
0.0
  0
LINE
  5
1EBE
  8
AM_0_T3
 10
239.28948770280471
 20
457.42147954931892
 30
0.0
 11
229.61301163416999
 21
457.42147954931892
 31
0.0
  0
LINE
  5
1EBF
  8
AM_0_T3
 10
242.201249576934
 20
373.92147954930442
 30
0.0
 11
239.28948770280471
 21
365.92147954930527
 31
0.0
  0
LINE
  5
1EC0
  8
AM_0_T3
 10
226.701249576934
 20
373.92147954930442
 30
0.0
 11
229.61301163416999
 21
365.92147954930527
 31
0.0
  0
LINE
  5
1EC1
  8
AM_0_T3
 10
239.28948770280471
 20
365.92147954930527
 30
0.0
 11
229.61300206029861
 21
365.92147954930527
 31
0.0
  0
LINE
  5
1EC2
  8
0
 10
227.45125010009721
 20
396.67147954931801
 30
0.0
 11
227.45125010009721
 21
408.67147954931801
 31
0.0
  0
LINE
  5
1EC3
  8
0
 10
227.45125010009721
 20
408.67147954931801
 30
0.0
 11
241.45125010009721
 21
408.67147954931801
 31
0.0
  0
LINE
  5
1EC4
  8
0
 10
227.45125010009721
 20
426.67147954931812
 30
0.0
 11
227.45125010009721
 21
414.67147954931801
 31
0.0
  0
LINE
  5
1EC5
  8
0
 10
227.45125010009721
 20
414.67147954931801
 30
0.0
 11
241.45125010009721
 21
414.67147954931801
 31
0.0
  0
LINE
  5
1EC6
  8
0
 10
230.45125010009721
 20
414.67147954931801
 30
0.0
 11
230.45125010009721
 21
408.67147954931801
 31
0.0
  0
LINE
  5
1EC7
  8
0
 10
238.45125010009721
 20
414.67147954931801
 30
0.0
 11
238.45125010009721
 21
408.67147954931801
 31
0.0
  0
LINE
  5
1EC8
  8
0
 10
227.45125010009721
 20
426.67147954931812
 30
0.0
 11
241.45125010009721
 21
426.67147954931892
 31
0.0
  0
LINE
  5
1EC9
  8
0
 10
238.45125010009721
 20
440.67147954931801
 30
0.0
 11
238.45125010009721
 21
435.17147954931801
 31
0.0
  0
LINE
  5
1ECA
  8
0
 10
239.45125010009721
 20
435.17147954931801
 30
0.0
 11
229.45125010009721
 21
435.17147954931801
 31
0.0
  0
LINE
  5
1ECB
  8
0
 10
238.45125010009721
 20
440.67147954931801
 30
0.0
 11
230.45125010009721
 21
440.67147954931801
 31
0.0
  0
LINE
  5
1ECC
  8
0
 10
240.45125010009721
 20
434.17147954931812
 30
0.0
 11
240.45125010009721
 21
433.17147954931801
 31
0.0
  0
LINE
  5
1ECD
  8
0
 10
228.45125010009721
 20
434.17147954931812
 30
0.0
 11
228.45125010009721
 21
433.17147954931801
 31
0.0
  0
LINE
  5
1ECE
  8
0
 10
227.95125010009721
 20
433.17147954931801
 30
0.0
 11
240.95125010009721
 21
433.17147954931801
 31
0.0
  0
LINE
  5
1ECF
  8
0
 10
227.95125010009721
 20
433.17147954931801
 30
0.0
 11
227.95125010009721
 21
426.67147954931812
 31
0.0
  0
LINE
  5
1ED0
  8
0
 10
240.95125010009721
 20
433.17147954931801
 30
0.0
 11
240.95125010009721
 21
426.67147954931812
 31
0.0
  0
LINE
  5
1ED1
  8
0
 10
230.45125010009721
 20
440.67147954931801
 30
0.0
 11
230.45125010009721
 21
435.17147954931801
 31
0.0
  0
LINE
  5
1ED2
  8
0
  6
CENTER
 10
234.45125010009721
 20
442.32281454931848
 30
0.0
 11
234.45125010009721
 21
385.28296454931842
 31
0.0
  0
LINE
  5
1ED3
  8
0
 10
237.70125010009721
 20
391.17147954931801
 30
0.0
 11
231.20125010009721
 21
391.17147954931801
 31
0.0
  0
LINE
  5
1ED4
  8
0
 10
240.95125010009721
 20
391.89637354931801
 30
0.0
 11
240.95125010009721
 21
396.67147954931801
 31
0.0
  0
LINE
  5
1ED5
  8
0
 10
227.95125010009721
 20
391.89637354931801
 30
0.0
 11
227.95125010009721
 21
396.67147954931801
 31
0.0
  0
LINE
  5
1ED6
  8
0
 10
241.45125010009721
 20
396.67147954931801
 30
0.0
 11
227.45125010009721
 21
396.67147954931801
 31
0.0
  0
ARC
  5
1ED7
  8
0
 10
239.45125010009721
 20
434.17147954931812
 30
0.0
 40
1.0
 50
0.0000040000316687
 51
90.000010000001026
  0
ARC
  5
1ED8
  8
0
 10
229.45125010009721
 20
434.17147954931812
 30
0.0
 40
1.0
 50
89.999994991062593
 51
180.0
  0
ARC
  5
1ED9
  8
0
 10
231.20125010009721
 20
425.52348454931871
 30
0.0
 40
7.647994999999999
 50
64.852624999992557
 51
115.1473699999637
  0
ARC
  5
1EDA
  8
0
 10
237.70125010009721
 20
425.52348454931871
 30
0.0
 40
7.647994999999999
 50
64.852632000024855
 51
115.1473699999637
  0
ARC
  5
1EDB
  8
0
 10
231.20125010009721
 20
434.31947454931827
 30
0.0
 40
7.647994999999999
 50
244.85263000003621
 51
295.1473699999637
  0
ARC
  5
1EDC
  8
0
 10
237.70125010009721
 20
434.31947454931827
 30
0.0
 40
7.647994999999999
 50
244.85263000003621
 51
295.1473699999637
  0
ARC
  5
1EDD
  8
0
 10
237.70125010009721
 20
398.81947454931827
 30
0.0
 40
7.6479945000000011
 50
244.85263000003621
 51
295.1473699999637
  0
ARC
  5
1EDE
  8
0
 10
231.20125010009721
 20
398.81947454931827
 30
0.0
 40
7.6479945000000011
 50
244.85263000003621
 51
295.1473699999637
  0
LINE
  5
1EDF
  8
0
 10
241.45125010009721
 20
396.67147954931801
 30
0.0
 11
241.45125010009721
 21
408.67147954931801
 31
0.0
  0
LINE
  5
1EE0
  8
0
 10
241.45125010009721
 20
426.67147954931892
 30
0.0
 11
241.45125010009721
 21
414.67147954931801
 31
0.0
  0
ARC
  5
1EE2
  8
AM_0_T3
 10
324.451249576934
 20
-60.439762982638058
 30
0.0
 40
31.749999999998138
 50
64.637332180865442
 51
115.36266781906509
  0
LINE
  5
1EE3
  8
0
 10
-50.0
 20
-81.000000000004533
 30
0.0
 11
50.0
 21
-81.000000000004533
 31
0.0
  0
LINE
  5
1EE4
  8
0
 10
50.0
 20
-95.000000000004533
 30
0.0
 11
-50.0
 21
-95.000000000005457
 31
0.0
  0
LINE
  5
1EE5
  8
0
  6
CENTER
 10
37.5
 20
-104.0000000000045
 30
0.0
 11
37.5
 21
-71.000000000004547
 31
0.0
  0
LINE
  5
1EE8
  8
0
 10
50.0
 20
-81.000000000004533
 30
0.0
 11
50.0
 21
-95.000000000004533
 31
0.0
  0
LINE
  5
1EE9
  8
0
  6
CENTER
 10
-37.5
 20
-104.0000000000045
 30
0.0
 11
-37.5
 21
-71.000000000004547
 31
0.0
  0
LINE
  5
1EEC
  8
0
 10
-50.0
 20
-95.000000000005457
 30
0.0
 11
-50.0
 21
-81.000000000004533
 31
0.0
  0
LINE
  5
1EED
  8
0
 10
13.60000000000036
 20
-81.000000000004533
 30
0.0
 11
13.60000000000036
 21
-61.0
 31
0.0
  0
LINE
  5
1EEE
  8
0
 10
-13.60000000000036
 20
-81.000000000004533
 30
0.0
 11
-13.60000000000036
 21
-61.0
 31
0.0
  0
LINE
  5
1EEF
  8
0
 10
-50.0
 20
81.000000000004533
 30
0.0
 11
50.0
 21
81.000000000004533
 31
0.0
  0
LINE
  5
1EF0
  8
0
 10
50.0
 20
95.000000000004533
 30
0.0
 11
-50.0
 21
95.000000000005457
 31
0.0
  0
LINE
  5
1EF1
  8
0
  6
CENTER
 10
37.5
 20
104.0000000000045
 30
0.0
 11
37.5
 21
71.000000000004547
 31
0.0
  0
LINE
  5
1EF4
  8
0
 10
50.0
 20
81.000000000004533
 30
0.0
 11
50.0
 21
95.000000000004533
 31
0.0
  0
LINE
  5
1EF5
  8
0
  6
CENTER
 10
-37.5
 20
104.0000000000045
 30
0.0
 11
-37.5
 21
71.000000000004547
 31
0.0
  0
LINE
  5
1EF8
  8
0
 10
-50.0
 20
95.000000000005457
 30
0.0
 11
-50.0
 21
81.000000000004533
 31
0.0
  0
LINE
  5
1EF9
  8
0
 10
13.60000000000036
 20
81.000000000004533
 30
0.0
 11
13.60000000000036
 21
61.0
 31
0.0
  0
LINE
  5
1EFA
  8
0
 10
-13.60000000000036
 20
81.000000000004533
 30
0.0
 11
-13.60000000000036
 21
61.0
 31
0.0
  0
LINE
  5
1EFC
  8
0
  6
CENTER
 10
310.30911395320248
 20
425.8136151730377
 30
0.0
 11
285.56037661167369
 21
450.56235251456741
 31
0.0
  0
ARC
  5
1EFD
  8
0
 10
324.451249576934
 20
411.671479549308
 30
0.0
 40
50.0
 50
39.419984467064161
 51
140.58001553293579
  0
ARC
  5
1EFE
  8
0
 10
324.451249576934
 20
411.671479549308
 30
0.0
 40
50.0
 50
219.4199844670641
 51
320.58001553293582
  0
LINE
  5
1EFF
  8
0
  6
CENTER
 10
338.59338520066461
 20
425.81361517303861
 30
0.0
 11
363.34212254219437
 21
450.56235251456837
 31
0.0
  0
ARC
  5
1F00
  8
0
  6
CENTER
 10
324.451249576934
 20
411.671479549308
 30
0.0
 40
37.5
 50
57.850947573951061
 51
122.1490524260489
  0
ARC
  5
1F01
  8
0
  6
CENTER
 10
324.451249576934
 20
411.671479549308
 30
0.0
 40
37.5
 50
237.850947573951
 51
302.14905242604891
  0
ARC
  5
1F02
  8
0
 10
350.96775387142952
 20
438.18798384380352
 30
0.0
 40
7.5
 50
44.250717304283661
 51
135.74928269571629
  0
ARC
  5
1F03
  8
0
 10
297.9347452824386
 20
438.18798384380261
 30
0.0
 40
7.5
 50
44.250717304283661
 51
135.74928269571629
  0
ARC
  5
1F04
  8
0
 10
350.96775387142952
 20
385.15497525481248
 30
0.0
 40
7.5
 50
224.2507173041362
 51
315.74928269586371
  0
LINE
  5
1F05
  8
0
  6
CENTER
 10
338.59338520066552
 20
397.52934392557739
 30
0.0
 11
363.34212254219523
 21
372.78060658404769
 31
0.0
  0
ARC
  5
1F06
  8
0
 10
297.9347452824386
 20
385.15497525481157
 30
0.0
 40
7.5
 50
224.2507173041362
 51
315.74928269586371
  0
LINE
  5
1F07
  8
0
  6
CENTER
 10
310.30911395320248
 20
397.52934392557648
 30
0.0
 11
285.5603766116746
 21
372.78060658404678
 31
0.0
  0
LINE
  5
1F08
  8
0
  6
CENTER
 10
324.451249576934
 20
346.97004502532121
 30
0.0
 11
324.451249576934
 21
476.3729140733148
 31
0.0
  0
LINE
  5
1F09
  8
0
 10
2196.4512495769341
 20
81.000000000004533
 30
0.0
 11
2096.4512495769341
 21
81.000000000004533
 31
0.0
  0
LINE
  5
1F0A
  8
0
 10
2096.4512495769341
 20
95.000000000004533
 30
0.0
 11
2196.4512495769341
 21
95.000000000005457
 31
0.0
  0
LINE
  5
1F0B
  8
0
  6
CENTER
 10
2108.9512495769341
 20
104.0000000000045
 30
0.0
 11
2108.9512495769341
 21
71.000000000004547
 31
0.0
  0
LINE
  5
1F0E
  8
0
 10
2096.4512495769341
 20
81.000000000004533
 30
0.0
 11
2096.4512495769341
 21
95.000000000004533
 31
0.0
  0
LINE
  5
1F0F
  8
0
  6
CENTER
 10
2183.9512495769341
 20
104.0000000000045
 30
0.0
 11
2183.9512495769341
 21
71.000000000004547
 31
0.0
  0
LINE
  5
1F12
  8
0
 10
2196.4512495769341
 20
95.000000000005457
 30
0.0
 11
2196.4512495769341
 21
81.000000000004533
 31
0.0
  0
LINE
  5
1F13
  8
0
  6
CENTER
 10
2146.4512495769341
 20
105.0000000000045
 30
0.0
 11
2146.4512495769341
 21
-0.0000000000009095
 31
0.0
  0
LINE
  5
1F14
  8
0
 10
2132.8512495769328
 20
81.000000000004533
 30
0.0
 11
2132.8512495769342
 21
31.74999999999363
 31
0.0
  0
LINE
  5
1F15
  8
0
 10
2160.051249576934
 20
81.000000000004533
 30
0.0
 11
2160.0512495769331
 21
31.74999999999272
 31
0.0
  0
ARC
  5
1F16
  8
AM_0_T3
 10
2146.451249576935
 20
60.439762982630782
 30
0.0
 40
31.749999999998138
 50
244.6373321808654
 51
295.36266781908739
  0
LINE
  5
1F17
  8
0
 10
1272.1512495769341
 20
31.749999999996358
 30
0.0
 11
2132.8512495769342
 21
31.74999999999363
 31
0.0
  0
LINE
  5
1F18
  8
0
 10
2160.0512495769331
 20
31.74999999999272
 30
0.0
 11
2228.701249576935
 21
31.74999999999363
 31
0.0
  0
LINE
  5
25A4
  8
0
  6
CENTER
 10
188.30250685587899
 20
411.67147954931352
 30
0.0
 11
2282.5999922979909
 21
411.67147954931801
 31
0.0
  0
LINE
  5
25A5
  8
0
 10
198.86907646238069
 20
-23.975680005640239
 30
0.0
 11
198.86907646238069
 21
0.9756800056284191
 31
0.0
  0
LINE
  5
25A6
  8
0
 10
191.45124957693491
 20
13.74999999999363
 30
0.0
 11
191.45124957693491
 21
-36.750000000006359
 31
0.0
  0
LINE
  5
25A7
  8
0
 10
194.30124957693531
 20
12.925224941689519
 30
0.0
 11
194.3012495769344
 21
-35.925224941702247
 31
0.0
  0
LINE
  5
25A8
  8
0
  6
CENTER
 10
188.30250685587899
 20
-11.500000000006359
 30
0.0
 11
219.48225944315161
 21
-11.500000000006359
 31
0.0
  0
LINE
  5
25A9
  8
0
 10
200.26949109339509
 20
1.199999999993451
 30
0.0
 11
213.4512485769246
 21
1.199999999993451
 31
0.0
  0
ARC
  5
25AA
  8
0
 10
200.26949109339509
 20
3.1999999999934512
 30
0.0
 40
2.0
 50
199.9999999999981
 51
270.0
1001
GENIUS_GENOBJ-N-FIL_13
1002
{
1000
OWNER
1000
GEN
1002
}
1001
GENIUS_GENODEF_13
1002
{
1000
HIER
1070
     0
1002
}
1002
{
1000
MANEDIT
1070
     0
1002
}
1002
{
1000
NOSEL
1070
     0
1002
}
1002
{
1000
BEHIND
1070
     0
1002
}
1002
{
1000
OTHER
1070
     0
1002
}
1002
{
1000
REACTOR
1002
}
  0
LINE
  5
25AB
  8
0
 10
191.45124957693491
 20
13.74999999999363
 30
0.0
 11
193.74108354636701
 21
13.74999999999363
 31
0.0
  0
LINE
  5
25AD
  8
0
 10
194.49283764299611
 20
13.22361611465476
 30
0.0
 11
198.39010585182311
 21
2.5159597133424541
 31
0.0
  0
ARC
  5
25AE
  8
0
 10
193.74108354636701
 20
12.94999999999345
 30
0.0
 40
0.8
 50
19.999999999998149
 51
90.0
1001
GENIUS_GENOBJ-N-FIL_13
1002
{
1000
OWNER
1000
GEN
1002
}
1001
GENIUS_GENODEF_13
1002
{
1000
HIER
1070
     0
1002
}
1002
{
1000
MANEDIT
1070
     0
1002
}
1002
{
1000
NOSEL
1070
     0
1002
}
1002
{
1000
BEHIND
1070
     0
1002
}
1002
{
1000
OTHER
1070
     0
1002
}
1002
{
1000
REACTOR
1002
}
  0
LINE
  5
25AF
  8
0
 10
200.26949109339509
 20
-24.200000000006181
 30
0.0
 11
213.4512485769246
 21
-24.200000000006181
 31
0.0
  0
ARC
  5
25B0
  8
0
 10
200.26949109339509
 20
-26.200000000006181
 30
0.0
 40
2.0
 50
90.0
 51
160.00000000000179
1001
GENIUS_GENOBJ-N-FIL_13
1002
{
1000
OWNER
1000
GEN
1002
}
1001
GENIUS_GENODEF_13
1002
{
1000
HIER
1070
     0
1002
}
1002
{
1000
MANEDIT
1070
     0
1002
}
1002
{
1000
NOSEL
1070
     0
1002
}
1002
{
1000
BEHIND
1070
     0
1002
}
1002
{
1000
OTHER
1070
     0
1002
}
1002
{
1000
REACTOR
1002
}
  0
LINE
  5
25B1
  8
0
 10
191.45124957693491
 20
-36.750000000006359
 30
0.0
 11
193.74108354636701
 21
-36.750000000006359
 31
0.0
  0
LINE
  5
25B2
  8
0
 10
194.4928376429952
 20
-36.223616114666576
 30
0.0
 11
198.39010585182311
 21
-25.51595971335518
 31
0.0
  0
ARC
  5
25B3
  8
0
 10
193.74108354636701
 20
-35.950000000006177
 30
0.0
 40
0.8
 50
270.0
 51
340.00000000000188
1001
GENIUS_GENOBJ-N-FIL_13
1002
{
1000
OWNER
1000
GEN
1002
}
1001
GENIUS_GENODEF_13
1002
{
1000
HIER
1070
     0
1002
}
1002
{
1000
MANEDIT
1070
     0
1002
}
1002
{
1000
NOSEL
1070
     0
1002
}
1002
{
1000
BEHIND
1070
     0
1002
}
1002
{
1000
OTHER
1070
     0
1002
}
1002
{
1000
REACTOR
1002
}
  0
LINE
  5
25B4
  8
0
 10
2272.0334226914888
 20
23.975680005634779
 30
0.0
 11
2272.0334226914888
 21
-0.9756800056347856
 31
0.0
  0
LINE
  5
25B5
  8
0
 10
2279.451249576935
 20
-13.75
 30
0.0
 11
2279.451249576935
 21
36.75
 31
0.0
  0
LINE
  5
25B6
  8
0
 10
2276.6012495769342
 20
-12.92522494169679
 30
0.0
 11
2276.6012495769351
 21
35.925224941695888
 31
0.0
  0
LINE
  5
25B7
  8
0
  6
CENTER
 10
2282.5999922979909
 20
11.5
 30
0.0
 11
2251.4202397107179
 21
11.5
 31
0.0
  0
LINE
  5
25B8
  8
0
 10
2270.6330080604739
 20
-1.2000000000007269
 30
0.0
 11
2257.4512505769449
 21
-1.2000000000007269
 31
0.0
  0
ARC
  5
25B9
  8
0
 10
2270.6330080604739
 20
-3.2000000000007272
 30
0.0
 40
2.0
 50
19.999999999998149
 51
90.0
1001
GENIUS_GENOBJ-N-FIL_13
1002
{
1000
OWNER
1000
GEN
1002
}
1001
GENIUS_GENODEF_13
1002
{
1000
HIER
1070
     0
1002
}
1002
{
1000
MANEDIT
1070
     0
1002
}
1002
{
1000
NOSEL
1070
     0
1002
}
1002
{
1000
BEHIND
1070
     0
1002
}
1002
{
1000
OTHER
1070
     0
1002
}
1002
{
1000
REACTOR
1002
}
  0
LINE
  5
25BA
  8
0
 10
2279.451249576935
 20
-13.75
 30
0.0
 11
2277.1614156075029
 21
-13.75
 31
0.0
  0
LINE
  5
25BC
  8
0
 10
2276.4096615108729
 20
-13.22361611466112
 30
0.0
 11
2272.5123933020468
 21
-2.5159597133488201
 31
0.0
  0
ARC
  5
25BD
  8
0
 10
2277.1614156075029
 20
-12.95000000000072
 30
0.0
 40
0.8
 50
199.9999999999981
 51
270.0
1001
GENIUS_GENOBJ-N-FIL_13
1002
{
1000
OWNER
1000
GEN
1002
}
1001
GENIUS_GENODEF_13
1002
{
1000
HIER
1070
     0
1002
}
1002
{
1000
MANEDIT
1070
     0
1002
}
1002
{
1000
NOSEL
1070
     0
1002
}
1002
{
1000
BEHIND
1070
     0
1002
}
1002
{
1000
OTHER
1070
     0
1002
}
1002
{
1000
REACTOR
1002
}
  0
LINE
  5
25BE
  8
0
 10
2270.6330080604739
 20
24.199999999999822
 30
0.0
 11
2257.4512505769449
 21
24.199999999999822
 31
0.0
  0
ARC
  5
25BF
  8
0
 10
2270.6330080604739
 20
26.199999999999811
 30
0.0
 40
2.0
 50
270.0
 51
340.00000000000188
1001
GENIUS_GENOBJ-N-FIL_13
1002
{
1000
OWNER
1000
GEN
1002
}
1001
GENIUS_GENODEF_13
1002
{
1000
HIER
1070
     0
1002
}
1002
{
1000
MANEDIT
1070
     0
1002
}
1002
{
1000
NOSEL
1070
     0
1002
}
1002
{
1000
BEHIND
1070
     0
1002
}
1002
{
1000
OTHER
1070
     0
1002
}
1002
{
1000
REACTOR
1002
}
  0
LINE
  5
25C0
  8
0
 10
2279.451249576935
 20
36.75
 30
0.0
 11
2277.1614156075029
 21
36.75
 31
0.0
  0
LINE
  5
25C1
  8
0
 10
2276.4096615108751
 20
36.22361611466021
 30
0.0
 11
2272.5123933020468
 21
25.515959713347911
 31
0.0
  0
ARC
  5
25C2
  8
0
 10
2277.1614156075029
 20
35.949999999999811
 30
0.0
 40
0.8
 50
90.0
 51
160.00000000000179
1001
GENIUS_GENOBJ-N-FIL_13
1002
{
1000
OWNER
1000
GEN
1002
}
1001
GENIUS_GENODEF_13
1002
{
1000
HIER
1070
     0
1002
}
1002
{
1000
MANEDIT
1070
     0
1002
}
1002
{
1000
NOSEL
1070
     0
1002
}
1002
{
1000
BEHIND
1070
     0
1002
}
1002
{
1000
OTHER
1070
     0
1002
}
1002
{
1000
REACTOR
1002
}
  0
LINE
  5
25C3
  8
0
 10
2272.0334226914888
 20
424.14715955495279
 30
0.0
 11
2272.0334226914888
 21
399.19579954368322
 31
0.0
  0
LINE
  5
25C4
  8
0
 10
2279.451249576935
 20
386.42147954931801
 30
0.0
 11
2279.451249576935
 21
436.92147954931812
 31
0.0
  0
LINE
  5
25C5
  8
0
 10
2276.6012495769342
 20
387.24625460762212
 30
0.0
 11
2276.6012495769351
 21
436.0967044910139
 31
0.0
  0
LINE
  5
25C6
  8
0
 10
2270.6330080604739
 20
398.97147954931819
 30
0.0
 11
2257.4512505769449
 21
398.97147954931819
 31
0.0
  0
ARC
  5
25C7
  8
0
 10
2270.6330080604739
 20
396.97147954931819
 30
0.0
 40
2.0
 50
19.999999999998149
 51
90.0
1001
GENIUS_GENOBJ-N-FIL_13
1002
{
1000
OWNER
1000
GEN
1002
}
1001
GENIUS_GENODEF_13
1002
{
1000
HIER
1070
     0
1002
}
1002
{
1000
MANEDIT
1070
     0
1002
}
1002
{
1000
NOSEL
1070
     0
1002
}
1002
{
1000
BEHIND
1070
     0
1002
}
1002
{
1000
OTHER
1070
     0
1002
}
1002
{
1000
REACTOR
1002
}
  0
LINE
  5
25C8
  8
0
 10
2279.451249576935
 20
386.42147954931801
 30
0.0
 11
2277.1614156075029
 21
386.42147954931801
 31
0.0
  0
LINE
  5
25CA
  8
0
 10
2276.4096615108729
 20
386.94786343465779
 30
0.0
 11
2272.5123933020468
 21
397.65551983596919
 31
0.0
  0
ARC
  5
25CB
  8
0
 10
2277.1614156075029
 20
387.22147954931819
 30
0.0
 40
0.8
 50
199.9999999999981
 51
270.0
1001
GENIUS_GENOBJ-N-FIL_13
1002
{
1000
OWNER
1000
GEN
1002
}
1001
GENIUS_GENODEF_13
1002
{
1000
HIER
1070
     0
1002
}
1002
{
1000
MANEDIT
1070
     0
1002
}
1002
{
1000
NOSEL
1070
     0
1002
}
1002
{
1000
BEHIND
1070
     0
1002
}
1002
{
1000
OTHER
1070
     0
1002
}
1002
{
1000
REACTOR
1002
}
  0
LINE
  5
25CC
  8
0
 10
2270.6330080604739
 20
424.37147954931783
 30
0.0
 11
2257.4512505769449
 21
424.37147954931783
 31
0.0
  0
ARC
  5
25CD
  8
0
 10
2270.6330080604739
 20
426.37147954931788
 30
0.0
 40
2.0
 50
270.0
 51
340.00000000000188
1001
GENIUS_GENOBJ-N-FIL_13
1002
{
1000
OWNER
1000
GEN
1002
}
1001
GENIUS_GENODEF_13
1002
{
1000
HIER
1070
     0
1002
}
1002
{
1000
MANEDIT
1070
     0
1002
}
1002
{
1000
NOSEL
1070
     0
1002
}
1002
{
1000
BEHIND
1070
     0
1002
}
1002
{
1000
OTHER
1070
     0
1002
}
1002
{
1000
REACTOR
1002
}
  0
LINE
  5
25CE
  8
0
 10
2279.451249576935
 20
436.92147954931812
 30
0.0
 11
2277.1614156075029
 21
436.92147954931812
 31
0.0
  0
LINE
  5
25CF
  8
0
 10
2276.4096615108751
 20
436.39509566397822
 30
0.0
 11
2272.5123933020468
 21
425.68743926266683
 31
0.0
  0
ARC
  5
25D0
  8
0
 10
2277.1614156075029
 20
436.12147954931788
 30
0.0
 40
0.8
 50
90.0
 51
160.00000000000179
1001
GENIUS_GENOBJ-N-FIL_13
1002
{
1000
OWNER
1000
GEN
1002
}
1001
GENIUS_GENODEF_13
1002
{
1000
HIER
1070
     0
1002
}
1002
{
1000
MANEDIT
1070
     0
1002
}
1002
{
1000
NOSEL
1070
     0
1002
}
1002
{
1000
BEHIND
1070
     0
1002
}
1002
{
1000
OTHER
1070
     0
1002
}
1002
{
1000
REACTOR
1002
}
  0
LINE
  5
25D1
  8
0
 10
198.86907646238069
 20
399.19579954367867
 30
0.0
 11
198.86907646238069
 21
424.1471595549483
 31
0.0
  0
LINE
  5
25D2
  8
0
 10
191.45124957693491
 20
436.9214795493134
 30
0.0
 11
191.45124957693491
 21
386.42147954931352
 31
0.0
  0
LINE
  5
25D3
  8
0
 10
194.30124957693531
 20
436.09670449100929
 30
0.0
 11
194.3012495769344
 21
387.24625460761757
 31
0.0
  0
LINE
  5
25D4
  8
0
 10
200.26949109339509
 20
424.37147954931328
 30
0.0
 11
213.4512485769246
 21
424.37147954931328
 31
0.0
  0
ARC
  5
25D5
  8
0
 10
200.26949109339509
 20
426.37147954931328
 30
0.0
 40
2.0
 50
199.9999999999981
 51
270.0
1001
GENIUS_GENOBJ-N-FIL_13
1002
{
1000
OWNER
1000
GEN
1002
}
1001
GENIUS_GENODEF_13
1002
{
1000
HIER
1070
     0
1002
}
1002
{
1000
MANEDIT
1070
     0
1002
}
1002
{
1000
NOSEL
1070
     0
1002
}
1002
{
1000
BEHIND
1070
     0
1002
}
1002
{
1000
OTHER
1070
     0
1002
}
1002
{
1000
REACTOR
1002
}
  0
LINE
  5
25D6
  8
0
 10
191.45124957693491
 20
436.9214795493134
 30
0.0
 11
193.74108354636701
 21
436.9214795493134
 31
0.0
  0
LINE
  5
25D8
  8
0
 10
194.49283764299611
 20
436.39509566397459
 30
0.0
 11
198.39010585182311
 21
425.68743926266228
 31
0.0
  0
ARC
  5
25D9
  8
0
 10
193.74108354636701
 20
436.12147954931328
 30
0.0
 40
0.8
 50
19.999999999998149
 51
90.0
1001
GENIUS_GENOBJ-N-FIL_13
1002
{
1000
OWNER
1000
GEN
1002
}
1001
GENIUS_GENODEF_13
1002
{
1000
HIER
1070
     0
1002
}
1002
{
1000
MANEDIT
1070
     0
1002
}
1002
{
1000
NOSEL
1070
     0
1002
}
1002
{
1000
BEHIND
1070
     0
1002
}
1002
{
1000
OTHER
1070
     0
1002
}
1002
{
1000
REACTOR
1002
}
  0
LINE
  5
25DA
  8
0
 10
200.26949109339509
 20
398.97147954931359
 30
0.0
 11
213.4512485769246
 21
398.97147954931359
 31
0.0
  0
ARC
  5
25DB
  8
0
 10
200.26949109339509
 20
396.97147954931359
 30
0.0
 40
2.0
 50
90.0
 51
160.00000000000179
1001
GENIUS_GENOBJ-N-FIL_13
1002
{
1000
OWNER
1000
GEN
1002
}
1001
GENIUS_GENODEF_13
1002
{
1000
HIER
1070
     0
1002
}
1002
{
1000
MANEDIT
1070
     0
1002
}
1002
{
1000
NOSEL
1070
     0
1002
}
1002
{
1000
BEHIND
1070
     0
1002
}
1002
{
1000
OTHER
1070
     0
1002
}
1002
{
1000
REACTOR
1002
}
  0
LINE
  5
25DC
  8
0
 10
191.45124957693491
 20
386.42147954931352
 30
0.0
 11
193.74108354636701
 21
386.42147954931352
 31
0.0
  0
LINE
  5
25DD
  8
0
 10
194.4928376429952
 20
386.9478634346533
 30
0.0
 11
198.39010585182311
 21
397.6555198359647
 31
0.0
  0
ARC
  5
25DE
  8
0
 10
193.74108354636701
 20
387.2214795493137
 30
0.0
 40
0.8
 50
270.0
 51
340.00000000000188
1001
GENIUS_GENOBJ-N-FIL_13
1002
{
1000
OWNER
1000
GEN
1002
}
1001
GENIUS_GENODEF_13
1002
{
1000
HIER
1070
     0
1002
}
1002
{
1000
MANEDIT
1070
     0
1002
}
1002
{
1000
NOSEL
1070
     0
1002
}
1002
{
1000
BEHIND
1070
     0
1002
}
1002
{
1000
OTHER
1070
     0
1002
}
1002
{
1000
REACTOR
1002
}
  0
LINE
  5
25E1
  8
0
  6
CENTER
 10
-30.518080352571811
 20
-11.5
 30
0.0
 11
30.518080352571811
 21
-11.5
 31
0.0
  0
LINE
  5
25E3
  8
0
  6
CENTER
 10
2261.067530157191
 20
0.0
 30
0.0
 11
209.8349689966789
 21
-0.000000000007276
 31
0.0
  0
CIRCLE
  5
637A
  8
0
 10
2146.451249576935
 20
411.67147954931801
 30
0.0
 40
50.0
  0
CIRCLE
  5
637B
  8
0
  6
CENTER
 10
2146.451249576935
 20
411.67147954931801
 30
0.0
 40
37.5
  0
CIRCLE
  5
637C
  8
0
 10
2119.9347452824391
 20
438.18798384381353
 30
0.0
 40
7.5
  0
CIRCLE
  5
637D
  8
0
 10
2172.96775387143
 20
438.18798384381353
 30
0.0
 40
7.5
  0
CIRCLE
  5
637E
  8
0
 10
2119.9347452824391
 20
385.1549752548226
 30
0.0
 40
7.5
  0
CIRCLE
  5
637F
  8
0
 10
2172.96775387143
 20
385.1549752548226
 30
0.0
 40
7.5
  0
CIRCLE
  5
638E
  8
AM_0_T3
 10
2146.4512495769341
 20
411.67147954931801
 30
0.0
 40
13.5999999999999
  0
CIRCLE
  5
63A8
  8
AM_0_T3
 10
0.0
 20
-11.5
 30
0.0
 40
25.25
  0
CIRCLE
  5
63A9
  8
AM_0_T3
 10
0.0
 20
-11.5
 30
0.0
 40
12.70000000000004
  0
ENDSEC
  0
EOF
