  0
SECTION
  2
HEADER
  9
$ACADVER
  1
AC1009
  9
$INSBASE
 10
0.0
 20
0.0
 30
0.0
  9
$EXTMIN
 10
-70.0
 20
-98.0
 30
0.0
  9
$EXTMAX
 10
2278.657219603766
 20
584.28139750375885
 30
0.0
  9
$LIMMIN
 10
0.0
 20
0.0
  9
$LIMMAX
 10
420.0
 20
297.0
  9
$ORTHOMODE
 70
     0
  9
$REGENMODE
 70
     1
  9
$FILLMODE
 70
     1
  9
$QTEXTMODE
 70
     0
  9
$MIRRTEXT
 70
     1
  9
$DRAGMODE
 70
     2
  9
$LTSCALE
 40
1.0
  9
$OSMODE
 70
    37
  9
$ATTMODE
 70
     1
  9
$TEXTSIZE
 40
73.985717453579113
  9
$TRACEWID
 40
1.0
  9
$TEXTSTYLE
  7
STANDARD
  9
$CLAYER
  8
0
  9
$CELTYPE
  6
BYLAYER
  9
$CECOLOR
 62
   256
  9
$DIMSCALE
 40
1.0
  9
$DIMASZ
 40
3.0
  9
$DIMEXO
 40
1.0
  9
$DIMDLI
 40
10.0
  9
$DIMRND
 40
0.0
  9
$DIMDLE
 40
0.0
  9
$DIMEXE
 40
1.0
  9
$DIMTP
 40
0.1
  9
$DIMTM
 40
0.1
  9
$DIMTXT
 40
30.0
  9
$DIMCEN
 40
0.0
  9
$DIMTSZ
 40
0.0
  9
$DIMTOL
 70
     0
  9
$DIMLIM
 70
     0
  9
$DIMTIH
 70
     0
  9
$DIMTOH
 70
     0
  9
$DIMSE1
 70
     0
  9
$DIMSE2
 70
     0
  9
$DIMTAD
 70
     3
  9
$DIMZIN
 70
     8
  9
$DIMBLK
  1
OPEN
  9
$DIMASO
 70
     1
  9
$DIMSHO
 70
     1
  9
$DIMPOST
  1

  9
$DIMAPOST
  1
"
  9
$DIMALT
 70
     0
  9
$DIMALTD
 70
     2
  9
$DIMALTF
 40
0.0393701
  9
$DIMLFAC
 40
1.0
  9
$DIMTOFL
 70
     1
  9
$DIMTVP
 40
0.0
  9
$DIMTIX
 70
     0
  9
$DIMSOXD
 70
     0
  9
$DIMSAH
 70
     0
  9
$DIMBLK1
  1

  9
$DIMBLK2
  1

  9
$DIMSTYLE
  2
TSK
  9
$DIMCLRD
 70
   256
  9
$DIMCLRE
 70
   256
  9
$DIMCLRT
 70
     2
  9
$DIMTFAC
 40
0.71
  9
$DIMGAP
 40
1.5
  9
$LUNITS
 70
     2
  9
$LUPREC
 70
     8
  9
$SKETCHINC
 40
1.0
  9
$FILLETRAD
 40
0.0
  9
$AUNITS
 70
     0
  9
$AUPREC
 70
     8
  9
$MENU
  1
.
  9
$ELEVATION
 40
0.0
  9
$PELEVATION
 40
0.0
  9
$THICKNESS
 40
0.0
  9
$LIMCHECK
 70
     0
  9
$BLIPMODE
 70
     0
  9
$CHAMFERA
 40
2.5
  9
$CHAMFERB
 40
2.5
  9
$SKPOLY
 70
     0
  9
$TDCREATE
 40
2454739.7204081588
  9
$TDUPDATE
 40
2454748.5619995482
  9
$TDINDWG
 40
0.2777016551
  9
$TDUSRTIMER
 40
0.2777016551
  9
$USRTIMER
 70
     1
  9
$ANGBASE
 50
0.0
  9
$ANGDIR
 70
     1
  9
$PDMODE
 70
     0
  9
$PDSIZE
 40
0.0
  9
$PLINEWID
 40
0.0
  9
$COORDS
 70
     1
  9
$SPLFRAME
 70
     0
  9
$SPLINETYPE
 70
     6
  9
$SPLINESEGS
 70
     8
  9
$ATTDIA
 70
     0
  9
$ATTREQ
 70
     1
  9
$HANDLING
 70
 22529
  9
$HANDSEED
  5
6B9E
  9
$SURFTAB1
 70
     6
  9
$SURFTAB2
 70
     6
  9
$SURFTYPE
 70
     6
  9
$SURFU
 70
     6
  9
$SURFV
 70
     6
  9
$UCSNAME
  2

  9
$UCSORG
 10
0.0
 20
0.0
 30
0.0
  9
$UCSXDIR
 10
1.0
 20
0.0
 30
0.0
  9
$UCSYDIR
 10
0.0
 20
1.0
 30
0.0
  9
$PUCSNAME
  2

  9
$PUCSORG
 10
0.0
 20
0.0
 30
0.0
  9
$PUCSXDIR
 10
1.0
 20
0.0
 30
0.0
  9
$PUCSYDIR
 10
0.0
 20
1.0
 30
0.0
  9
$USERI1
 70
     0
  9
$USERI2
 70
     0
  9
$USERI3
 70
     0
  9
$USERI4
 70
     0
  9
$USERI5
 70
     0
  9
$USERR1
 40
0.0
  9
$USERR2
 40
0.0
  9
$USERR3
 40
0.0
  9
$USERR4
 40
0.0
  9
$USERR5
 40
0.0
  9
$WORLDVIEW
 70
     1
  9
$SHADEDGE
 70
     3
  9
$SHADEDIF
 70
    70
  9
$TILEMODE
 70
     1
  9
$MAXACTVP
 70
    48
  9
$PLIMCHECK
 70
     0
  9
$PEXTMIN
 10
1.0000000000000000E+020
 20
1.0000000000000000E+020
 30
1.0000000000000000E+020
  9
$PEXTMAX
 10
-1.0000000000000000E+020
 20
-1.0000000000000000E+020
 30
-1.0000000000000000E+020
  9
$PLIMMIN
 10
0.0
 20
0.0
  9
$PLIMMAX
 10
420.0
 20
297.0
  9
$UNITMODE
 70
     0
  9
$VISRETAIN
 70
     1
  9
$PLINEGEN
 70
     0
  9
$PSLTSCALE
 70
     1
  0
ENDSEC
  0
SECTION
  2
TABLES
  0
TABLE
  2
VPORT
 70
     2
  0
VPORT
  2
*ACTIVE
 70
     0
 10
0.0
 20
0.0
 11
1.0
 21
1.0
 12
1179.2543281704991
 22
243.14266217318871
 13
0.0
 23
0.0
 14
2.5
 24
2.5
 15
10.0
 25
10.0
 16
0.0
 26
0.0
 36
1.0
 17
0.0
 27
0.0
 37
0.0
 40
1540.979910806034
 41
1.6290097629009761
 42
50.0
 43
0.0
 44
0.0
 50
0.0
 51
0.0
 71
     0
 72
   100
 73
     1
 74
     3
 75
     0
 76
     0
 77
     0
 78
     0
  0
ENDTAB
  0
TABLE
  2
LTYPE
 70
     2
  0
LTYPE
  2
CONTINUOUS
 70
     0
  3
Solid line
 72
    65
 73
     0
 40
0.0
  0
LTYPE
  2
CENTER
 70
     0
  3
__ . __
 72
    65
 73
     4
 40
7.0
 49
4.0
 49
-1.0
 49
1.0
 49
-1.0
  0
ENDTAB
  0
TABLE
  2
LAYER
 70
     2
  0
LAYER
  2
0
 70
     0
 62
     7
  6
CONTINUOUS
  0
LAYER
  2
AM_0_T3
 70
     0
 62
     7
  6
CONTINUOUS
  0
ENDTAB
  0
TABLE
  2
STYLE
 70
     2
  0
STYLE
  2
STANDARD
 70
     0
 40
0.0
 41
0.7
 50
0.0
 71
     0
 42
73.985717453579113
  3
romans.shx
  4
bigfont.shx
  0
STYLE
  2
TSKDIM
 70
     0
 40
0.0
 41
0.75
 50
0.0
 71
     0
 42
4.0
  3
romans.shx
  4
EXTFONT.SHX
  0
ENDTAB
  0
TABLE
  2
VIEW
 70
     0
  0
ENDTAB
  0
TABLE
  2
UCS
 70
     0
  0
ENDTAB
  0
TABLE
  2
APPID
 70
    41
  0
APPID
  2
ACAD
 70
     0
  0
APPID
  2
MCAD_NO_VIS
 70
     0
  0
APPID
  2
ACAD_TEMP_GRAPHIC
 70
     0
  0
APPID
  2
ACATTRIBSERVICES
 70
     0
  0
APPID
  2
AD_DRAW
 70
     0
  0
APPID
  2
DESIGNERASSEMBLIES
 70
     0
  0
APPID
  2
ASURF_PCURVE_APPNAME
 70
     0
  0
APPID
  2
ACADM_DIM_EDIT
 70
     0
  0
APPID
  2
GENIUS_GENDIM_13
 70
     0
  0
APPID
  2
GENIUS_GENDTOL_13
 70
     0
  0
APPID
  2
GENIUS_GE3DTOL_13
 70
     0
  0
APPID
  2
AMG_3D2D_5_0
 70
     0
  0
APPID
  2
AMDT_DM_ADJ
 70
     0
  0
APPID
  2
CK_MATE-SERIES
 70
     0
  0
APPID
  2
GEVID1042077799
 70
     0
  0
APPID
  2
GEVMK
 70
     0
  0
APPID
  2
GEVDC
 70
     0
  0
APPID
  2
GENIUS_GENBH_13
 70
     0
  0
APPID
  2
GENIUS_GENOLIS_13
 70
     0
  0
APPID
  2
GENIUS_GENOENT_13
 70
     0
  0
APPID
  2
GENIUS_GENODEF_13
 70
     0
  0
APPID
  2
GENIUS_GENOBJ-NBEHI-BHF_13
 70
     0
  0
APPID
  2
GENIUS_GENOREF_13
 70
     0
  0
APPID
  2
GENIUS_GENOBJ-NBEHI-BHB_13
 70
     0
  0
APPID
  2
GEVID1042183772
 70
     0
  0
APPID
  2
GEVID1042183773
 70
     0
  0
APPID
  2
GEVID1042183774
 70
     0
  0
APPID
  2
DCO15
 70
     0
  0
APPID
  2
ACAD_DSTYLE_DIMARC_LENGTH_
 70
     0
  0
APPID
  2
ACAD_DSTYLE_DIMJOGGED_JOGA
 70
     0
  0
APPID
  2
ACAD_MLEADERVER
 70
     0
  0
APPID
  2
ACAD_DSTYLE_DIMJAG
 70
     0
  0
APPID
  2
ACAD_DSTYLE_DIMTALN
 70
     0
  0
APPID
  2
ACAD_PSEXT
 70
     0
  0
APPID
  2
ACAD_EXEMPT_FROM_CAD_STANDARDS
 70
     0
  0
APPID
  2
ACAD_DSTYLE_DIMINSPECT
 70
     0
  0
APPID
  2
ACAD_DSTYLE_DIMANGULAR_EXT
 70
     0
  0
APPID
  2
GENIUS_GENOBJ-N-FIL_13
 70
     0
  0
APPID
  2
ACAD_DSTYLE_DIM_LINETYPE
 70
     0
  0
APPID
  2
ACAD_DSTYLE_DIM_EXT1_LINETYPE
 70
     0
  0
APPID
  2
ACAD_DSTYLE_DIM_EXT2_LINETYPE
 70
     0
  0
ENDTAB
  0
TABLE
  2
DIMSTYLE
 70
     1
  0
DIMSTYLE
  2
TSK
 70
     0
  3

  4
"
  5
OPEN
  6

  7

 40
1.0
 41
3.0
 42
1.0
 43
10.0
 44
1.0
 45
0.0
 46
0.0
 47
0.1
 48
0.1
140
3.0
141
0.0
142
0.0
143
0.0393701
144
1.0
145
0.0
146
0.71
147
1.5
 71
     0
 72
     0
 73
     0
 74
     0
 75
     0
 76
     0
 77
     3
 78
     8
170
     0
171
     2
172
     1
173
     0
174
     0
175
     0
176
   256
177
   256
178
     2
  0
ENDTAB
  0
ENDSEC
  0
SECTION
  2
BLOCKS
  0
BLOCK
  8
0
  2
$MODEL_SPACE
 70
     0
 10
0.0
 20
0.0
 30
0.0
  3
$MODEL_SPACE
  1

  0
ENDBLK
  5
21
  8
0
  0
BLOCK
 67
     1
  8
0
  2
$PAPER_SPACE
 70
     0
 10
0.0
 20
0.0
 30
0.0
  3
$PAPER_SPACE
  1

  0
ENDBLK
  5
1D
 67
     1
  8
0
  0
BLOCK
  8
0
  2
_OPEN
 70
     0
 10
0.0
 20
0.0
 30
0.0
  3
_OPEN
  1

  0
LINE
  5
15A
  8
0
  6
BYBLOCK
 62
     0
 10
-1.0
 20
0.1666666666666666
 30
0.0
 11
0.0
 21
0.0
 31
0.0
  0
LINE
  5
15B
  8
0
  6
BYBLOCK
 62
     0
 10
-1.0
 20
-0.1666666666666666
 30
0.0
 11
0.0
 21
0.0
 31
0.0
  0
LINE
  5
15C
  8
0
  6
BYBLOCK
 62
     0
 10
0.0
 20
0.0
 30
0.0
 11
-1.0
 21
0.0
 31
0.0
  0
ENDBLK
  5
15E
  8
0
  0
ENDSEC
  0
SECTION
  2
ENTITIES
  0
LINE
  5
3A6D
  8
0
 10
1219.70124957693
 20
-37.499999999997492
 30
0.0
 11
1219.7012495769261
 21
37.500000000002267
 31
0.0
  0
LINE
  5
3A6E
  8
0
 10
1215.20124957693
 20
-37.499999999997492
 30
0.0
 11
1215.2012495769261
 21
37.500000000002267
 31
0.0
  0
LINE
  5
3A6F
  8
0
 10
1210.70124957693
 20
-37.499999999997492
 30
0.0
 11
1210.7012495769261
 21
37.500000000002267
 31
0.0
  0
LINE
  5
3A70
  8
0
 10
1224.2012495769261
 20
-37.499999999997492
 30
0.0
 11
1224.2012495769261
 21
37.500000000002267
 31
0.0
  0
LINE
  5
3A71
  8
0
 10
1228.70124957693
 20
-37.499999999997492
 30
0.0
 11
1228.70124957693
 21
37.500000000002267
 31
0.0
  0
LINE
  5
3A72
  8
0
 10
1233.2012495769261
 20
-37.499999999997492
 30
0.0
 11
1233.2012495769261
 21
37.500000000002267
 31
0.0
  0
LINE
  5
3A73
  8
0
 10
1198.7512495769261
 20
-31.040918148760738
 30
0.0
 11
1202.4804022224589
 21
-37.499999999997719
 31
0.0
  0
LINE
  5
3A74
  8
0
 10
1202.4804022224589
 20
-37.499999999997719
 30
0.0
 11
1268.4220969313969
 21
-37.499999999997719
 31
0.0
  0
LINE
  5
3A75
  8
0
 10
1198.7512495769261
 20
-31.040918148760738
 30
0.0
 11
1198.7512495769261
 21
31.040918148761651
 31
0.0
  0
LINE
  5
3A76
  8
0
 10
1205.7512495769261
 20
-37.499999999997719
 30
0.0
 11
1205.7512495769261
 21
37.500000000002267
 31
0.0
  0
LINE
  5
3A77
  8
0
 10
1198.7512495769261
 20
31.040918148761651
 30
0.0
 11
1202.4804022224589
 21
37.500000000002267
 31
0.0
  0
LINE
  5
3A78
  8
0
 10
1202.4804022224589
 20
37.500000000002267
 30
0.0
 11
1268.4220969313969
 21
37.500000000002267
 31
0.0
  0
LINE
  5
3A7A
  8
0
 10
1202.4804022224589
 20
-37.499999999994081
 30
0.0
 11
1202.4804022224589
 21
37.500000000002267
 31
0.0
  0
LINE
  5
3A7B
  8
0
 10
1272.1512495769271
 20
-31.040918148760738
 30
0.0
 11
1268.4220969313969
 21
-37.499999999997719
 31
0.0
  0
LINE
  5
3A7C
  8
0
 10
1272.1512495769271
 20
-31.040918148760738
 30
0.0
 11
1272.1512495769271
 21
31.040918148761651
 31
0.0
  0
LINE
  5
3A7D
  8
0
 10
1272.1512495769271
 20
31.040918148761651
 30
0.0
 11
1268.4220969313969
 21
37.500000000002267
 31
0.0
  0
LINE
  5
3A7E
  8
0
 10
1268.4220969313969
 20
-37.499999999994081
 30
0.0
 11
1268.4220969313969
 21
37.500000000002267
 31
0.0
  0
LINE
  5
3A7F
  8
0
 10
1251.2012495769261
 20
-37.499999999997492
 30
0.0
 11
1251.2012495769261
 21
37.500000000002267
 31
0.0
  0
LINE
  5
3A80
  8
0
 10
1255.7012495769261
 20
-37.499999999997492
 30
0.0
 11
1255.7012495769261
 21
37.500000000002267
 31
0.0
  0
LINE
  5
3A81
  8
0
 10
1260.2012495769261
 20
-37.499999999997492
 30
0.0
 11
1260.2012495769261
 21
37.500000000002267
 31
0.0
  0
LINE
  5
3A82
  8
0
 10
1246.7012495769261
 20
-37.499999999997492
 30
0.0
 11
1246.70124957693
 21
37.500000000002267
 31
0.0
  0
LINE
  5
3A83
  8
0
 10
1242.2012495769229
 20
-37.499999999997492
 30
0.0
 11
1242.2012495769229
 21
37.500000000002267
 31
0.0
  0
LINE
  5
3A84
  8
0
 10
1237.7012495769261
 20
-37.499999999997492
 30
0.0
 11
1237.70124957693
 21
37.500000000002267
 31
0.0
  0
LINE
  5
3A85
  8
0
 10
1265.1512495769271
 20
-37.499999999997719
 30
0.0
 11
1265.1512495769271
 21
37.500000000002267
 31
0.0
  0
ARC
  5
3ACD
  8
0
 10
234.45124933850821
 20
-48.0
 30
0.0
 40
7.0
 50
132.20616791855261
 51
171.78674173948519
  0
ARC
  5
3ACE
  8
0
 10
234.45124933850821
 20
-48.0
 30
0.0
 40
7.0
 50
188.21320240125519
 51
231.7867959184548
  0
ARC
  5
3ACF
  8
0
 10
234.45124933850821
 20
-48.0
 30
0.0
 40
7.0
 50
248.21312248938511
 51
291.78687751061477
  0
ARC
  5
3AD0
  8
0
 10
234.45124933850821
 20
-48.0
 30
0.0
 40
7.0
 50
308.21320408154509
 51
351.78679759874473
  0
ARC
  5
3AD1
  8
0
 10
234.45124933850821
 20
-48.0
 30
0.0
 40
7.0
 50
8.2132582605148148
 51
47.793826811981923
  0
ARC
  5
3AD2
  8
0
 10
234.45124933850821
 20
48.0
 30
0.0
 40
7.0
 50
312.12875643080048
 51
351.78674173948508
  0
ARC
  5
3AD3
  8
0
 10
234.45124933850821
 20
48.0
 30
0.0
 40
7.0
 50
8.2132024012294806
 51
51.786795918454878
  0
ARC
  5
3AD4
  8
0
 10
234.45124933850821
 20
48.0
 30
0.0
 40
7.0
 50
68.2131224893851
 51
111.7868775106148
  0
ARC
  5
3AD5
  8
0
 10
234.45124933850821
 20
48.0
 30
0.0
 40
7.0
 50
128.21320408154509
 51
171.7867975987447
  0
LINE
  5
3AD8
  8
0
 10
1219.70124957693
 20
374.17147954932079
 30
0.0
 11
1219.7012495769261
 21
449.17147954932079
 31
0.0
  0
LINE
  5
3AD9
  8
0
 10
1215.20124957693
 20
374.17147954932079
 30
0.0
 11
1215.2012495769261
 21
449.17147954932079
 31
0.0
  0
LINE
  5
3ADA
  8
0
 10
1210.70124957693
 20
374.17147954932079
 30
0.0
 11
1210.7012495769261
 21
449.17147954932079
 31
0.0
  0
LINE
  5
3ADB
  8
0
 10
1224.2012495769261
 20
374.17147954932079
 30
0.0
 11
1224.2012495769261
 21
449.17147954932079
 31
0.0
  0
LINE
  5
3ADC
  8
0
 10
1228.70124957693
 20
374.17147954932079
 30
0.0
 11
1228.70124957693
 21
449.17147954932079
 31
0.0
  0
LINE
  5
3ADD
  8
0
 10
1233.2012495769261
 20
374.17147954932079
 30
0.0
 11
1233.2012495769261
 21
449.17147954932079
 31
0.0
  0
LINE
  5
3ADE
  8
0
 10
1198.7512495769261
 20
380.63056140055772
 30
0.0
 11
1202.4804022224589
 21
374.17147954932079
 31
0.0
  0
LINE
  5
3ADF
  8
0
 10
1202.4804022224589
 20
374.17147954932079
 30
0.0
 11
1268.4220969313969
 21
374.17147954932079
 31
0.0
  0
LINE
  5
3AE0
  8
0
 10
1198.7512495769261
 20
380.63056140055772
 30
0.0
 11
1198.7512495769261
 21
442.71239769808011
 31
0.0
  0
LINE
  5
3AE1
  8
0
 10
1205.7512495769261
 20
374.17147954932079
 30
0.0
 11
1205.7512495769261
 21
449.17147954932079
 31
0.0
  0
LINE
  5
3AE2
  8
0
 10
1198.7512495769261
 20
442.71239769808011
 30
0.0
 11
1202.4804022224589
 21
449.17147954932079
 31
0.0
  0
LINE
  5
3AE3
  8
0
 10
1202.4804022224589
 20
449.17147954932079
 30
0.0
 11
1268.4220969313969
 21
449.17147954932079
 31
0.0
  0
LINE
  5
3AE5
  8
0
 10
1202.4804022224589
 20
374.17147954932437
 30
0.0
 11
1202.4804022224589
 21
449.17147954932079
 31
0.0
  0
LINE
  5
3AE6
  8
0
 10
1272.1512495769271
 20
380.63056140055772
 30
0.0
 11
1268.4220969313969
 21
374.17147954932079
 31
0.0
  0
LINE
  5
3AE7
  8
0
 10
1272.1512495769271
 20
380.63056140055772
 30
0.0
 11
1272.1512495769271
 21
442.71239769808011
 31
0.0
  0
LINE
  5
3AE8
  8
0
 10
1272.1512495769271
 20
442.71239769808011
 30
0.0
 11
1268.4220969313969
 21
449.17147954932079
 31
0.0
  0
LINE
  5
3AE9
  8
0
 10
1268.4220969313969
 20
374.17147954932437
 30
0.0
 11
1268.4220969313969
 21
449.17147954932079
 31
0.0
  0
LINE
  5
3AEA
  8
0
 10
1251.2012495769261
 20
374.17147954932079
 30
0.0
 11
1251.2012495769261
 21
449.17147954932079
 31
0.0
  0
LINE
  5
3AEB
  8
0
 10
1255.7012495769261
 20
374.17147954932079
 30
0.0
 11
1255.7012495769261
 21
449.17147954932079
 31
0.0
  0
LINE
  5
3AEC
  8
0
 10
1260.2012495769261
 20
374.17147954932079
 30
0.0
 11
1260.2012495769261
 21
449.17147954932079
 31
0.0
  0
LINE
  5
3AED
  8
0
 10
1246.7012495769261
 20
374.17147954932079
 30
0.0
 11
1246.70124957693
 21
449.17147954932079
 31
0.0
  0
LINE
  5
3AEE
  8
0
 10
1242.2012495769229
 20
374.17147954932079
 30
0.0
 11
1242.2012495769229
 21
449.17147954932079
 31
0.0
  0
LINE
  5
3AEF
  8
0
 10
1237.7012495769261
 20
374.17147954932079
 30
0.0
 11
1237.70124957693
 21
449.17147954932079
 31
0.0
  0
LINE
  5
3AF0
  8
0
 10
1265.1512495769271
 20
374.17147954932079
 30
0.0
 11
1265.1512495769271
 21
449.17147954932079
 31
0.0
  0
ARC
  5
3AF1
  8
0
 10
2241.45124957693
 20
432.1714795493171
 30
0.0
 40
1.0
 50
0.0
 51
90.000005008833185
  0
ARC
  5
3AF2
  8
0
 10
2231.45124957693
 20
432.1714795493171
 30
0.0
 40
1.0
 50
89.999989999842668
 51
179.99999600002039
  0
ARC
  5
3AF3
  8
0
 10
2233.20124957693
 20
423.52348454931769
 30
0.0
 40
7.6479949999999981
 50
64.852620000101439
 51
115.14737199976651
  0
ARC
  5
3AF4
  8
0
 10
2239.70124957693
 20
423.52348454931769
 30
0.0
 40
7.6479949999999981
 50
64.852630000094493
 51
115.14737199976651
  0
ARC
  5
3AF5
  8
0
 10
2233.20124957693
 20
432.3194745493164
 30
0.0
 40
7.6479949999999981
 50
244.85263000009451
 51
295.14736999990549
  0
ARC
  5
3AF6
  8
0
 10
2239.70124957693
 20
432.3194745493164
 30
0.0
 40
7.6479949999999981
 50
244.85263000009451
 51
295.14736999990549
  0
ARC
  5
3AF7
  8
0
 10
2239.70124957693
 20
400.81947454931651
 30
0.0
 40
7.647994500000002
 50
244.85263000009451
 51
295.14736999990549
  0
ARC
  5
3AF8
  8
0
 10
2233.20124957693
 20
400.81947454931651
 30
0.0
 40
7.647994500000002
 50
244.85263000009451
 51
295.14736999990549
  0
ARC
  5
3AF9
  8
AM_0_T3
 10
319.45124957692673
 20
-32.793916418242588
 30
0.0
 40
25.400000000000109
 50
16.923767291376169
 51
163.07623270862379
  0
ARC
  5
3AFA
  8
0
 10
234.45124933850821
 20
48.0
 30
0.0
 40
7.0
 50
188.21325826051481
 51
227.8712488313713
  0
LINE
  5
3AFB
  8
0
 10
2229.20124957693
 20
386.27147954931928
 30
0.0
 11
2216.6803841718311
 21
386.27147954931843
 31
0.0
  0
LINE
  5
3AFC
  8
0
 10
2086.2221149820248
 20
386.27147954931843
 30
0.0
 11
1272.1108793763119
 21
386.27147954931928
 31
0.0
  0
LINE
  5
3AFD
  8
0
 10
2229.20124957693
 20
437.07147954931861
 30
0.0
 11
2216.6803841718311
 21
437.07147954931861
 31
0.0
  0
LINE
  5
3AFE
  8
0
 10
2086.2221149820248
 20
437.07147954931861
 30
0.0
 11
1272.1108793763119
 21
437.07147954931861
 31
0.0
  0
LINE
  5
3AFF
  8
0
 10
2257.4512495769268
 20
386.32147954931861
 30
0.0
 11
2257.45124957693
 21
437.02147954931752
 31
0.0
  0
LINE
  5
3B00
  8
0
 10
2243.70124957693
 20
386.32147954931861
 30
0.0
 11
2257.4512495769268
 21
386.32147954931861
 31
0.0
  0
LINE
  5
3B01
  8
0
 10
2243.7012495769259
 20
437.02147954931752
 30
0.0
 11
2257.45124957693
 21
437.02147954931752
 31
0.0
  0
LINE
  5
3B02
  8
0
 10
2229.20124957693
 20
380.81698230823622
 30
0.0
 11
2229.20124957693
 21
442.6714795493171
 31
0.0
  0
LINE
  5
3B03
  8
0
 10
2243.70124957693
 20
380.81698359366959
 30
0.0
 11
2243.70124957693
 21
442.6714795493171
 31
0.0
  0
LINE
  5
3B04
  8
0
 10
2231.7490412167931
 20
449.6714795493171
 30
0.0
 11
2231.7503921347702
 21
433.1714795493171
 31
0.0
  0
LINE
  5
3B05
  8
0
 10
2231.7536557685162
 20
393.30972807970278
 30
0.0
 11
2231.7552636268442
 21
373.67148005877152
 31
0.0
  0
LINE
  5
3B06
  8
0
 10
2241.1534579370668
 20
449.6714795493171
 30
0.0
 11
2241.1521070190861
 21
433.1714795493171
 31
0.0
  0
LINE
  5
3B07
  8
0
 10
2241.148843385341
 20
393.30972807970278
 30
0.0
 11
2241.1472355270121
 21
373.67148005877152
 31
0.0
  0
LINE
  5
3B08
  8
0
 10
2229.45124957693
 20
408.6714795493171
 30
0.0
 11
2243.45124957693
 21
408.6714795493171
 31
0.0
  0
LINE
  5
3B09
  8
0
 10
2229.45124957693
 20
398.6714795493171
 30
0.0
 11
2243.45124957693
 21
398.6714795493171
 31
0.0
  0
LINE
  5
3B0A
  8
0
 10
2229.45124957693
 20
414.67147954931721
 30
0.0
 11
2243.45124957693
 21
414.67147954931721
 31
0.0
  0
LINE
  5
3B0B
  8
0
 10
2229.45124957693
 20
424.6714795493171
 30
0.0
 11
2243.45124957693
 21
424.6714795493171
 31
0.0
  0
LINE
  5
3B0C
  8
0
 10
2229.45124957693
 20
398.6714795493171
 30
0.0
 11
2229.45124957693
 21
408.6714795493171
 31
0.0
  0
LINE
  5
3B0D
  8
0
 10
2229.45124957693
 20
424.6714795493171
 30
0.0
 11
2229.45124957693
 21
414.67147954931721
 31
0.0
  0
LINE
  5
3B0E
  8
0
 10
2232.45124957693
 20
414.67147954931721
 30
0.0
 11
2232.45124957693
 21
408.6714795493171
 31
0.0
  0
LINE
  5
3B0F
  8
0
 10
2240.45124957693
 20
414.67147954931721
 30
0.0
 11
2240.45124957693
 21
408.6714795493171
 31
0.0
  0
LINE
  5
3B10
  8
0
 10
2240.45124957693
 20
438.6714795493171
 30
0.0
 11
2240.45124957693
 21
433.1714795493171
 31
0.0
  0
LINE
  5
3B11
  8
0
 10
2241.45124957693
 20
433.1714795493171
 30
0.0
 11
2231.45124957693
 21
433.1714795493171
 31
0.0
  0
LINE
  5
3B12
  8
0
 10
2240.45124957693
 20
438.6714795493171
 30
0.0
 11
2232.45124957693
 21
438.6714795493171
 31
0.0
  0
LINE
  5
3B13
  8
0
 10
2242.45124957693
 20
432.1714795493171
 30
0.0
 11
2242.45124957693
 21
431.17147954931721
 31
0.0
  0
LINE
  5
3B14
  8
0
 10
2230.45124957693
 20
432.1714795493171
 30
0.0
 11
2230.45124957693
 21
431.17147954931721
 31
0.0
  0
LINE
  5
3B15
  8
0
 10
2229.95124957693
 20
431.17147954931721
 30
0.0
 11
2242.95124957693
 21
431.17147954931721
 31
0.0
  0
LINE
  5
3B16
  8
0
 10
2229.95124957693
 20
431.17147954931721
 30
0.0
 11
2229.95124957693
 21
424.6714795493171
 31
0.0
  0
LINE
  5
3B17
  8
0
 10
2242.95124957693
 20
431.17147954931721
 30
0.0
 11
2242.95124957693
 21
424.6714795493171
 31
0.0
  0
LINE
  5
3B18
  8
0
 10
2232.45124957693
 20
438.6714795493171
 30
0.0
 11
2232.45124957693
 21
433.1714795493171
 31
0.0
  0
LINE
  5
3B19
  8
0
  6
CENTER
 10
2236.45124957693
 20
440.32281454931581
 30
0.0
 11
2236.45124957693
 21
389.84375354931763
 31
0.0
  0
LINE
  5
3B1A
  8
0
 10
2239.70124957693
 20
393.1714795493171
 30
0.0
 11
2233.20124957693
 21
393.1714795493171
 31
0.0
  0
LINE
  5
3B1B
  8
0
 10
2242.95124957693
 20
393.89637354931619
 30
0.0
 11
2242.95124957693
 21
398.6714795493171
 31
0.0
  0
LINE
  5
3B1C
  8
0
 10
2229.95124957693
 20
393.89637354931619
 30
0.0
 11
2229.95124957693
 21
398.6714795493171
 31
0.0
  0
LINE
  5
3B1D
  8
0
 10
2243.45124957693
 20
398.6714795493171
 30
0.0
 11
2243.45124957693
 21
408.6714795493171
 31
0.0
  0
LINE
  5
3B1E
  8
0
 10
2243.45124957693
 20
424.6714795493171
 30
0.0
 11
2243.45124957693
 21
414.67147954931721
 31
0.0
  0
LINE
  5
3B1F
  8
AM_0_T3
 10
2231.7490412167931
 20
449.6714795493171
 30
0.0
 11
2241.1534579370668
 21
449.6714795493171
 31
0.0
  0
LINE
  5
3B20
  8
AM_0_T3
 10
2229.20124957693
 20
442.6714795493171
 30
0.0
 11
2231.7490412167931
 21
449.6714795493171
 31
0.0
  0
LINE
  5
3B21
  8
AM_0_T3
 10
2241.1534579370668
 20
449.6714795493171
 30
0.0
 11
2243.70124957693
 21
442.6714795493171
 31
0.0
  0
LINE
  5
3B22
  8
AM_0_T3
 10
2231.7490412167931
 20
373.67147954931892
 30
0.0
 11
2241.1534579370668
 21
373.67147954931892
 31
0.0
  0
LINE
  5
3B23
  8
AM_0_T3
 10
2229.20124957693
 20
380.67147954931892
 30
0.0
 11
2231.7490412167931
 21
373.67147954931892
 31
0.0
  0
LINE
  5
3B24
  8
AM_0_T3
 10
2241.1534579370668
 20
373.67147954931892
 30
0.0
 11
2243.70124957693
 21
380.67147954931892
 31
0.0
  0
LINE
  5
3B25
  8
0
  6
CENTER
 10
2174.7857733560809
 20
388.33695577016158
 30
0.0
 11
2202.3629378223591
 21
360.75979130388617
 31
0.0
  0
LINE
  5
3B26
  8
0
  6
CENTER
 10
2174.7857733560809
 20
435.00600332847353
 30
0.0
 11
2202.3629378223591
 21
462.58316779474887
 31
0.0
  0
LINE
  5
3B27
  8
0
  6
CENTER
 10
2128.1167257977718
 20
388.33695577016158
 30
0.0
 11
2100.539561331494
 21
360.75979130388617
 31
0.0
  0
LINE
  5
3B28
  8
0
  6
CENTER
 10
2128.1167257977718
 20
435.00600332847353
 30
0.0
 11
2100.539561331494
 21
462.58316779474887
 31
0.0
  0
LINE
  5
3B29
  8
0
 10
249.4512495769267
 20
-73.999999999999773
 30
0.0
 11
389.45124957692678
 21
-73.999999999999773
 31
0.0
  0
LINE
  5
3B2A
  8
0
 10
241.70124957692309
 20
25.399999999999629
 30
0.0
 11
1198.791619777541
 21
25.399999999999402
 31
0.0
  0
LINE
  5
3B2B
  8
0
 10
241.70124957692309
 20
-25.399999999999629
 30
0.0
 11
295.15124957692751
 21
-25.399999999999629
 31
0.0
  0
LINE
  5
3B2C
  8
0
 10
343.75124957692969
 20
-25.399999999999629
 30
0.0
 11
1198.791619777541
 21
-25.39999999999986
 31
0.0
  0
LINE
  5
3B2D
  8
0
 10
213.4512495769267
 20
25.350000000000129
 30
0.0
 11
213.4512495769267
 21
-25.349999999998541
 31
0.0
  0
LINE
  5
3B2E
  8
0
 10
227.20124957692681
 20
25.35000000000036
 30
0.0
 11
213.4512495769267
 21
25.350000000000129
 31
0.0
  0
LINE
  5
3B2F
  8
0
 10
227.20124957692681
 20
-25.349999999998541
 30
0.0
 11
213.4512495769267
 21
-25.349999999998541
 31
0.0
  0
LINE
  5
3B30
  8
0
 10
238.2040257385087
 20
-54.49999600000001
 30
0.0
 11
230.69847153850779
 21
-54.49999600000001
 31
0.0
  0
LINE
  5
3B31
  8
0
 10
230.6984723385066
 20
-54.499999000000123
 30
0.0
 11
226.9456951385072
 21
-47.999998000000232
 31
0.0
  0
LINE
  5
3B32
  8
0
 10
226.94569453850991
 20
-47.999998000000232
 30
0.0
 11
230.69847163850861
 21
-41.499996999999887
 31
0.0
  0
LINE
  5
3B33
  8
0
 10
230.69847153850779
 20
-41.5
 30
0.0
 11
238.2040257385087
 21
-41.5
 31
0.0
  0
LINE
  5
3B34
  8
0
 10
241.95680413850641
 20
-47.999998000000232
 30
0.0
 11
238.20402703850769
 21
-41.499996999999887
 31
0.0
  0
LINE
  5
3B35
  8
0
 10
238.20402633850969
 20
-54.499999000000123
 30
0.0
 11
241.95680353850909
 21
-47.999998000000232
 31
0.0
  0
LINE
  5
3B36
  8
0
 10
230.69847293850759
 20
54.49999600000001
 30
0.0
 11
238.20402713850851
 21
54.49999600000001
 31
0.0
  0
LINE
  5
3B37
  8
0
 10
238.20402633850969
 20
54.499999000000123
 30
0.0
 11
241.95680353850909
 21
47.999997999999771
 31
0.0
  0
LINE
  5
3B38
  8
0
 10
241.95680413850641
 20
47.999997999999771
 30
0.0
 11
238.20402703850769
 21
41.499996999999887
 31
0.0
  0
LINE
  5
3B39
  8
0
 10
226.94569453850991
 20
47.999997999999771
 30
0.0
 11
230.69847163850861
 21
41.499996999999887
 31
0.0
  0
LINE
  5
3B3A
  8
0
 10
230.6984723385066
 20
54.499999000000123
 30
0.0
 11
226.9456951385072
 21
47.999997999999771
 31
0.0
  0
LINE
  5
3B3B
  8
0
 10
238.20402713850851
 20
41.5
 30
0.0
 11
230.69847293850759
 21
41.5
 31
0.0
  0
LINE
  5
3B3C
  8
0
  6
CENTER
 10
244.45124933850821
 20
48.0
 30
0.0
 11
224.45124933850809
 21
48.0
 31
0.0
  0
LINE
  5
3B3D
  8
0
  6
CENTER
 10
234.4512491000896
 20
58.0
 30
0.0
 11
234.4512491000896
 21
38.0
 31
0.0
  0
LINE
  5
3B3E
  8
0
  6
CENTER
 10
244.45124933850821
 20
-48.0
 30
0.0
 11
224.45124933850809
 21
-48.0
 31
0.0
  0
LINE
  5
3B3F
  8
0
  6
CENTER
 10
234.4512495769267
 20
-38.0
 30
0.0
 11
234.4512495769267
 21
-58.0
 31
0.0
  0
LINE
  5
3B40
  8
0
 10
241.70124957692681
 20
30.85449724108275
 30
0.0
 11
241.70124957692681
 21
-30.854497241083202
 31
0.0
  0
LINE
  5
3B41
  8
0
 10
227.20124957692681
 20
30.854495955648868
 30
0.0
 11
227.20124957692681
 21
-30.854495955648868
 31
0.0
  0
LINE
  5
3B42
  8
0
 10
239.15385214921471
 20
-42.814874465865159
 30
0.0
 11
239.14684183466301
 21
42.808525150782309
 31
0.0
  0
LINE
  5
3B43
  8
0
 10
229.74864700467509
 20
-42.814874033369499
 30
0.0
 11
229.75565731915771
 21
42.80852471952312
 31
0.0
  0
LINE
  5
3B44
  8
0
 10
239.15344822632679
 20
-37.881393849751468
 30
0.0
 11
241.70124957692681
 21
-30.854497241083202
 31
0.0
  0
LINE
  5
3B45
  8
0
 10
229.7490509331837
 20
-37.88139362553283
 30
0.0
 11
227.20124957692681
 21
-30.854495955648868
 31
0.0
  0
LINE
  5
3B46
  8
0
 10
239.15327021203839
 20
-35.707142142714467
 30
0.0
 11
229.74922894181501
 21
-35.707142142714467
 31
0.0
  0
LINE
  5
3B47
  8
0
 10
239.15344822632679
 20
37.881393849751468
 30
0.0
 11
241.70124957692681
 21
30.85449724108275
 31
0.0
  0
LINE
  5
3B48
  8
0
 10
229.7490509331837
 20
37.88139362553283
 30
0.0
 11
227.20124957692681
 21
30.854495955648868
 31
0.0
  0
LINE
  5
3B49
  8
0
 10
239.15327021203839
 20
35.707142142714019
 30
0.0
 11
229.74922894181501
 21
35.707142142714019
 31
0.0
  0
LINE
  5
3B4A
  8
0
 10
343.751249576926
 20
-73.999999999999304
 30
0.0
 11
343.75124957692969
 21
-25.399999999999629
 31
0.0
  0
LINE
  5
3B4B
  8
0
 10
389.45124957692678
 20
-89.999999999999758
 30
0.0
 11
249.4512495769267
 21
-89.999999999999758
 31
0.0
  0
LINE
  5
3B4C
  8
0
 10
389.45124957692678
 20
-73.999999999999773
 30
0.0
 11
389.45124957692678
 21
-89.999999999999758
 31
0.0
  0
LINE
  5
3B4D
  8
0
  6
CENTER
 10
371.95124957692673
 20
-97.999999999999773
 30
0.0
 11
371.95124957692673
 21
-63.999999999999773
 31
0.0
  0
LINE
  5
3B4E
  8
0
 10
295.15124957692751
 20
-73.999999999999304
 30
0.0
 11
295.15124957692751
 21
-25.399999999999629
 31
0.0
  0
LINE
  5
3B4F
  8
0
  6
CENTER
 10
266.95124957692673
 20
-97.999999999999773
 30
0.0
 11
266.95124957692673
 21
-63.999999999999773
 31
0.0
  0
LINE
  5
3B50
  8
0
 10
249.4512495769267
 20
-89.999999999999758
 30
0.0
 11
249.4512495769267
 21
-73.999999999999773
 31
0.0
  0
ARC
  5
3B51
  8
0
 10
229.4512495769267
 20
432.1714795493171
 30
0.0
 40
1.0
 50
89.999994991166815
 51
180.0
  0
ARC
  5
3B52
  8
0
 10
239.45124957692681
 20
432.1714795493171
 30
0.0
 40
1.0
 50
0.0000039999795585
 51
90.000010000157346
  0
ARC
  5
3B53
  8
0
 10
237.7012495769267
 20
423.52348454931769
 30
0.0
 40
7.6479949999999981
 50
64.852628000238994
 51
115.147379999893
  0
ARC
  5
3B54
  8
0
 10
231.20124957692681
 20
423.52348454931769
 30
0.0
 40
7.6479949999999981
 50
64.852628000238994
 51
115.14736999989989
  0
ARC
  5
3B55
  8
0
 10
237.7012495769267
 20
432.3194745493164
 30
0.0
 40
7.6479949999999981
 50
244.85263000009999
 51
295.14736999989992
  0
ARC
  5
3B56
  8
0
 10
231.20124957692681
 20
432.3194745493164
 30
0.0
 40
7.6479949999999981
 50
244.85263000009999
 51
295.14736999989992
  0
ARC
  5
3B57
  8
0
 10
231.20124957692681
 20
400.81947454931651
 30
0.0
 40
7.647994500000002
 50
244.85263000009999
 51
295.14736999989992
  0
ARC
  5
3B58
  8
0
 10
237.7012495769267
 20
400.81947454931651
 30
0.0
 40
7.647994500000002
 50
244.85263000009999
 51
295.14736999989992
  0
ARC
  5
3B59
  8
0
 10
319.45124957692673
 20
411.67147954931801
 30
0.0
 40
70.0
 50
21.275766975563769
 51
158.72423302443619
  0
ARC
  5
3B5A
  8
0
 10
319.45124957692673
 20
411.67147954931801
 30
0.0
 40
70.0
 50
201.27576697555159
 51
338.72423302444832
  0
ARC
  5
3B5B
  8
0
  6
CENTER
 10
319.45124957692673
 20
411.67147954931801
 30
0.0
 40
52.5
 50
28.934505055511458
 51
151.06549494448851
  0
ARC
  5
3B5C
  8
0
  6
CENTER
 10
319.45124957692673
 20
411.67147954931801
 30
0.0
 40
52.5
 50
208.93450505551141
 51
331.06549494448848
  0
LINE
  5
3B5D
  8
0
 10
241.70124957692309
 20
386.27147954931928
 30
0.0
 11
1198.791619777541
 21
386.27147954931928
 31
0.0
  0
LINE
  5
3B5E
  8
0
 10
241.70124957692309
 20
437.07147954931861
 30
0.0
 11
1198.791619777541
 21
437.07147954931861
 31
0.0
  0
LINE
  5
3B5F
  8
0
 10
213.4512495769267
 20
386.32147954931861
 30
0.0
 11
213.4512495769267
 21
437.02147954931752
 31
0.0
  0
LINE
  5
3B60
  8
0
 10
227.20124957692681
 20
386.32147954931861
 30
0.0
 11
213.4512495769267
 21
386.32147954931861
 31
0.0
  0
LINE
  5
3B61
  8
0
 10
227.20124957692681
 20
437.02147954931752
 30
0.0
 11
213.4512495769267
 21
437.02147954931752
 31
0.0
  0
LINE
  5
3B62
  8
0
 10
241.70124957692681
 20
380.81698230823622
 30
0.0
 11
241.70124957692681
 21
442.6714795493171
 31
0.0
  0
LINE
  5
3B63
  8
0
 10
227.20124957692681
 20
380.81698359366959
 30
0.0
 11
227.20124957692681
 21
442.6714795493171
 31
0.0
  0
LINE
  5
3B64
  8
0
 10
239.15345793706359
 20
449.6714795493171
 30
0.0
 11
239.15210701908291
 21
433.1714795493171
 31
0.0
  0
LINE
  5
3B65
  8
0
 10
239.1488433853373
 20
393.30972807970278
 30
0.0
 11
239.1472355270125
 21
373.67148005877152
 31
0.0
  0
LINE
  5
3B66
  8
0
 10
229.74904121678989
 20
449.6714795493171
 30
0.0
 11
229.75039213477061
 21
433.1714795493171
 31
0.0
  0
LINE
  5
3B67
  8
0
 10
229.75365576851621
 20
393.30972807970278
 30
0.0
 11
229.75526362684101
 21
373.67148005877152
 31
0.0
  0
LINE
  5
3B68
  8
0
 10
241.45124957692681
 20
408.6714795493171
 30
0.0
 11
227.4512495769267
 21
408.6714795493171
 31
0.0
  0
LINE
  5
3B69
  8
0
 10
241.45124957692681
 20
398.6714795493171
 30
0.0
 11
227.4512495769267
 21
398.6714795493171
 31
0.0
  0
LINE
  5
3B6A
  8
0
 10
241.45124957692681
 20
414.67147954931721
 30
0.0
 11
227.4512495769267
 21
414.67147954931721
 31
0.0
  0
LINE
  5
3B6B
  8
0
 10
241.45124957692681
 20
424.6714795493171
 30
0.0
 11
227.4512495769267
 21
424.6714795493171
 31
0.0
  0
LINE
  5
3B6C
  8
0
 10
241.45124957692681
 20
398.6714795493171
 30
0.0
 11
241.45124957692681
 21
408.6714795493171
 31
0.0
  0
LINE
  5
3B6D
  8
0
 10
241.45124957692681
 20
424.6714795493171
 30
0.0
 11
241.45124957692681
 21
414.67147954931721
 31
0.0
  0
LINE
  5
3B6E
  8
0
 10
238.4512495769267
 20
414.67147954931721
 30
0.0
 11
238.4512495769267
 21
408.6714795493171
 31
0.0
  0
LINE
  5
3B6F
  8
0
 10
230.4512495769267
 20
414.67147954931721
 30
0.0
 11
230.4512495769267
 21
408.6714795493171
 31
0.0
  0
LINE
  5
3B70
  8
0
 10
230.4512495769267
 20
438.6714795493171
 30
0.0
 11
230.4512495769267
 21
433.1714795493171
 31
0.0
  0
LINE
  5
3B71
  8
0
 10
229.4512495769267
 20
433.1714795493171
 30
0.0
 11
239.45124957692681
 21
433.1714795493171
 31
0.0
  0
LINE
  5
3B72
  8
0
 10
230.4512495769267
 20
438.6714795493171
 30
0.0
 11
238.4512495769267
 21
438.6714795493171
 31
0.0
  0
LINE
  5
3B73
  8
0
 10
228.4512495769267
 20
432.1714795493171
 30
0.0
 11
228.4512495769267
 21
431.17147954931721
 31
0.0
  0
LINE
  5
3B74
  8
0
 10
240.4512495769267
 20
432.1714795493171
 30
0.0
 11
240.4512495769267
 21
431.17147954931721
 31
0.0
  0
LINE
  5
3B75
  8
0
 10
240.9512495769267
 20
431.17147954931721
 30
0.0
 11
227.9512495769267
 21
431.17147954931721
 31
0.0
  0
LINE
  5
3B76
  8
0
 10
240.9512495769267
 20
431.17147954931721
 30
0.0
 11
240.9512495769267
 21
424.6714795493171
 31
0.0
  0
LINE
  5
3B77
  8
0
 10
227.9512495769267
 20
431.17147954931721
 30
0.0
 11
227.9512495769267
 21
424.6714795493171
 31
0.0
  0
LINE
  5
3B78
  8
0
 10
238.4512495769267
 20
438.6714795493171
 30
0.0
 11
238.4512495769267
 21
433.1714795493171
 31
0.0
  0
LINE
  5
3B79
  8
0
  6
CENTER
 10
234.4512495769267
 20
440.32281454931581
 30
0.0
 11
234.4512495769267
 21
389.84375354931763
 31
0.0
  0
LINE
  5
3B7A
  8
0
 10
231.20124957692681
 20
393.1714795493171
 30
0.0
 11
237.7012495769267
 21
393.1714795493171
 31
0.0
  0
LINE
  5
3B7B
  8
0
 10
227.9512495769267
 20
393.89637354931619
 30
0.0
 11
227.9512495769267
 21
398.6714795493171
 31
0.0
  0
LINE
  5
3B7C
  8
0
 10
240.9512495769267
 20
393.89637354931619
 30
0.0
 11
240.9512495769267
 21
398.6714795493171
 31
0.0
  0
LINE
  5
3B7D
  8
0
 10
227.4512495769267
 20
398.6714795493171
 30
0.0
 11
227.4512495769267
 21
408.6714795493171
 31
0.0
  0
LINE
  5
3B7E
  8
0
 10
227.4512495769267
 20
424.6714795493171
 30
0.0
 11
227.4512495769267
 21
414.67147954931721
 31
0.0
  0
LINE
  5
3B7F
  8
AM_0_T3
 10
239.15345793706359
 20
449.6714795493171
 30
0.0
 11
229.74904121678989
 21
449.6714795493171
 31
0.0
  0
LINE
  5
3B80
  8
AM_0_T3
 10
241.70124957692681
 20
442.6714795493171
 30
0.0
 11
239.15345793706359
 21
449.6714795493171
 31
0.0
  0
LINE
  5
3B81
  8
AM_0_T3
 10
229.74904121678989
 20
449.6714795493171
 30
0.0
 11
227.20124957692681
 21
442.6714795493171
 31
0.0
  0
LINE
  5
3B82
  8
AM_0_T3
 10
239.15345793706359
 20
373.67147954931892
 30
0.0
 11
229.74904121678989
 21
373.67147954931892
 31
0.0
  0
LINE
  5
3B83
  8
AM_0_T3
 10
241.70124957692681
 20
380.67147954931892
 30
0.0
 11
239.15345793706359
 21
373.67147954931892
 31
0.0
  0
LINE
  5
3B84
  8
AM_0_T3
 10
229.74904121678989
 20
373.67147954931892
 30
0.0
 11
227.20124957692681
 21
380.67147954931892
 31
0.0
  0
LINE
  5
3B85
  8
0
  6
CENTER
 10
296.11672579777218
 20
388.33695577016158
 30
0.0
 11
268.53956133149762
 21
360.75979130388617
 31
0.0
  0
LINE
  5
3B86
  8
0
  6
CENTER
 10
296.11672579777218
 20
435.00600332847353
 30
0.0
 11
268.53956133149762
 21
462.58316779474887
 31
0.0
  0
LINE
  5
3B87
  8
0
  6
CENTER
 10
342.78577335608492
 20
388.33695577016158
 30
0.0
 11
370.36293782235953
 21
360.75979130388617
 31
0.0
  0
LINE
  5
3B88
  8
0
  6
CENTER
 10
342.78577335608492
 20
435.00600332847353
 30
0.0
 11
370.36293782235953
 21
462.58316779474887
 31
0.0
  0
ARC
  5
3B94
  8
0
 10
2236.451249815349
 20
48.000000000000462
 30
0.0
 40
7.0
 50
312.20616791854383
 51
351.78674173945927
  0
ARC
  5
3B95
  8
0
 10
2236.451249815349
 20
48.000000000000462
 30
0.0
 40
7.0
 50
8.2132024012294806
 51
51.786795918454878
  0
ARC
  5
3B96
  8
0
 10
2236.451249815349
 20
48.000000000000462
 30
0.0
 40
7.0
 50
68.2131224893851
 51
111.7868775106148
  0
ARC
  5
3B97
  8
0
 10
2236.451249815349
 20
48.000000000000462
 30
0.0
 40
7.0
 50
128.21320408154509
 51
171.78679759877051
  0
ARC
  5
3B98
  8
0
 10
2236.451249815349
 20
48.000000000000462
 30
0.0
 40
7.0
 50
188.21325826054061
 51
227.79382681198189
  0
ARC
  5
3B99
  8
0
 10
2236.451249815349
 20
-47.999999999999538
 30
0.0
 40
7.0
 50
132.12875643080051
 51
171.7867417394593
  0
ARC
  5
3B9A
  8
0
 10
2236.451249815349
 20
-47.999999999999538
 30
0.0
 40
7.0
 50
188.21320240122941
 51
231.7867959184548
  0
ARC
  5
3B9B
  8
0
 10
2236.451249815349
 20
-47.999999999999538
 30
0.0
 40
7.0
 50
248.2131224893802
 51
291.78687751061477
  0
ARC
  5
3B9C
  8
0
 10
2236.451249815349
 20
-47.999999999999538
 30
0.0
 40
7.0
 50
308.21320408154509
 51
351.78679759877042
  0
ARC
  5
3B9D
  8
AM_0_T3
 10
2151.4512495769259
 20
32.793916418243043
 30
0.0
 40
25.400000000000109
 50
196.92376729137609
 51
343.07623270861131
  0
ARC
  5
3B9E
  8
0
 10
2236.451249815349
 20
-47.999999999999538
 30
0.0
 40
7.0
 50
8.2132582605406022
 51
47.871248831388762
  0
LINE
  5
3B9F
  8
0
 10
2221.4512495769259
 20
74.0
 30
0.0
 11
2081.4512495769268
 21
74.0
 31
0.0
  0
LINE
  5
3BA0
  8
0
 10
2229.20124957693
 20
-25.399999999999181
 30
0.0
 11
1272.1108793763119
 21
-25.399999999999181
 31
0.0
  0
LINE
  5
3BA1
  8
0
 10
2229.20124957693
 20
25.400000000000091
 30
0.0
 11
2175.7512495769288
 21
25.400000000000091
 31
0.0
  0
LINE
  5
3BA2
  8
0
 10
2127.1512495769239
 20
25.400000000000091
 30
0.0
 11
1272.1108793763119
 21
25.400000000000091
 31
0.0
  0
LINE
  5
3BA3
  8
0
 10
2257.4512495769268
 20
-25.349999999999682
 30
0.0
 11
2257.45124957693
 21
25.349999999999
 31
0.0
  0
LINE
  5
3BA4
  8
0
 10
2243.70124957693
 20
-25.349999999999909
 30
0.0
 11
2257.4512495769268
 21
-25.349999999999682
 31
0.0
  0
LINE
  5
3BA5
  8
0
 10
2243.7012495769259
 20
25.349999999999
 30
0.0
 11
2257.45124957693
 21
25.349999999999
 31
0.0
  0
LINE
  5
3BA6
  8
0
 10
2232.698473415348
 20
54.499996000000472
 30
0.0
 11
2240.2040276153489
 21
54.499996000000472
 31
0.0
  0
LINE
  5
3BA7
  8
0
 10
2240.2040268153501
 20
54.499999000000571
 30
0.0
 11
2243.9568040153499
 21
47.99999800000068
 31
0.0
  0
LINE
  5
3BA8
  8
0
 10
2243.9568046153472
 20
47.99999800000068
 30
0.0
 11
2240.2040275153481
 21
41.499997000000349
 31
0.0
  0
LINE
  5
3BA9
  8
0
 10
2240.2040276153489
 20
41.500000000000448
 30
0.0
 11
2232.698473415348
 21
41.500000000000448
 31
0.0
  0
LINE
  5
3BAA
  8
0
 10
2228.9456950153508
 20
47.99999800000068
 30
0.0
 11
2232.698472115349
 21
41.499997000000349
 31
0.0
  0
LINE
  5
3BAB
  8
0
 10
2232.698472815347
 20
54.499999000000571
 30
0.0
 11
2228.9456956153481
 21
47.99999800000068
 31
0.0
  0
LINE
  5
3BAC
  8
0
 10
2240.2040262153491
 20
-54.499995999999548
 30
0.0
 11
2232.6984720153482
 21
-54.499995999999548
 31
0.0
  0
LINE
  5
3BAD
  8
0
 10
2232.698472815347
 20
-54.499998999999661
 30
0.0
 11
2228.9456956153481
 21
-47.999997999999323
 31
0.0
  0
LINE
  5
3BAE
  8
0
 10
2228.9456950153508
 20
-47.999997999999323
 30
0.0
 11
2232.698472115349
 21
-41.499996999999439
 31
0.0
  0
LINE
  5
3BAF
  8
0
 10
2243.9568046153472
 20
-47.999997999999323
 30
0.0
 11
2240.2040275153481
 21
-41.499996999999439
 31
0.0
  0
LINE
  5
3BB0
  8
0
 10
2240.2040268153501
 20
-54.499998999999661
 30
0.0
 11
2243.9568040153499
 21
-47.999997999999323
 31
0.0
  0
LINE
  5
3BB1
  8
0
 10
2232.6984720153482
 20
-41.499999999999552
 30
0.0
 11
2240.2040262153491
 21
-41.499999999999552
 31
0.0
  0
LINE
  5
3BB2
  8
0
  6
CENTER
 10
2226.451249815349
 20
-47.999999999999538
 30
0.0
 11
2246.4512498153481
 21
-47.999999999999538
 31
0.0
  0
LINE
  5
3BB3
  8
0
  6
CENTER
 10
2236.4512500537671
 20
-57.999999999999538
 30
0.0
 11
2236.4512500537671
 21
-37.999999999999538
 31
0.0
  0
LINE
  5
3BB4
  8
0
  6
CENTER
 10
2226.451249815349
 20
48.000000000000462
 30
0.0
 11
2246.4512498153481
 21
48.000000000000462
 31
0.0
  0
LINE
  5
3BB5
  8
0
  6
CENTER
 10
2236.45124957693
 20
38.000000000000448
 30
0.0
 11
2236.45124957693
 21
58.000000000000462
 31
0.0
  0
LINE
  5
3BB6
  8
0
 10
2229.20124957693
 20
-30.854497241082289
 30
0.0
 11
2229.20124957693
 21
30.85449724108366
 31
0.0
  0
LINE
  5
3BB7
  8
0
 10
2243.70124957693
 20
-30.85449595564841
 30
0.0
 11
2243.70124957693
 21
30.85449595564933
 31
0.0
  0
LINE
  5
3BB8
  8
0
 10
2231.748647004642
 20
42.814874465865607
 30
0.0
 11
2231.7556573191941
 21
-42.808525150781861
 31
0.0
  0
LINE
  5
3BB9
  8
0
 10
2241.1538521491821
 20
42.814874033369961
 30
0.0
 11
2241.146841834699
 21
-42.808524719522659
 31
0.0
  0
LINE
  5
3BBA
  8
0
 10
2231.7490509275299
 20
37.88139384975193
 30
0.0
 11
2229.20124957693
 21
30.85449724108366
 31
0.0
  0
LINE
  5
3BBB
  8
0
 10
2241.153448220673
 20
37.881393625533292
 30
0.0
 11
2243.70124957693
 21
30.85449595564933
 31
0.0
  0
LINE
  5
3BBC
  8
0
 10
2231.7492289418178
 20
35.707142142714929
 30
0.0
 11
2241.1532702120421
 21
35.707142142714929
 31
0.0
  0
LINE
  5
3BBD
  8
0
 10
2231.7490509275299
 20
-37.881393849751021
 30
0.0
 11
2229.20124957693
 21
-30.854497241082289
 31
0.0
  0
LINE
  5
3BBE
  8
0
 10
2241.153448220673
 20
-37.881393625532382
 30
0.0
 11
2243.70124957693
 21
-30.85449595564841
 31
0.0
  0
LINE
  5
3BBF
  8
0
 10
2231.7492289418178
 20
-35.707142142713558
 30
0.0
 11
2241.1532702120421
 21
-35.707142142713558
 31
0.0
  0
LINE
  5
3BC0
  8
0
 10
2127.1512495769271
 20
74.0
 30
0.0
 11
2127.1512495769271
 21
25.400000000000091
 31
0.0
  0
LINE
  5
3BC1
  8
0
 10
2081.4512495769268
 20
90.0
 30
0.0
 11
2221.4512495769259
 21
90.0
 31
0.0
  0
LINE
  5
3BC2
  8
0
 10
2081.4512495769268
 20
74.0
 30
0.0
 11
2081.4512495769268
 21
90.0
 31
0.0
  0
LINE
  5
3BC3
  8
0
  6
CENTER
 10
2098.9512495769268
 20
98.0
 30
0.0
 11
2098.9512495769268
 21
64.000000000000227
 31
0.0
  0
LINE
  5
3BC4
  8
0
 10
2175.7512495769288
 20
74.0
 30
0.0
 11
2175.7512495769288
 21
25.400000000000091
 31
0.0
  0
LINE
  5
3BC5
  8
0
  6
CENTER
 10
2203.9512495769268
 20
98.0
 30
0.0
 11
2203.9512495769268
 21
64.000000000000227
 31
0.0
  0
LINE
  5
3BC6
  8
0
 10
2221.4512495769259
 20
90.0
 30
0.0
 11
2221.4512495769259
 21
74.0
 31
0.0
  0
LINE
  5
3FC7
  8
0
  6
CENTER
 10
2151.4512495769259
 20
327.67151673118673
 30
0.0
 11
2151.45124957693
 21
495.67144236744929
 31
0.0
  0
LINE
  5
3FCA
  8
0
  6
CENTER
 10
319.45124957692673
 20
-97.999999999999773
 30
0.0
 11
319.45124957692673
 21
0.0000000000004547
 31
0.0
  0
LINE
  5
3FCD
  8
0
  6
CENTER
 10
2151.4512495769259
 20
98.0
 30
0.0
 11
2151.4512495769259
 21
0.0
 31
0.0
  0
LINE
  5
3FD2
  8
0
  6
CENTER
 10
319.45124957692673
 20
327.67151673118673
 30
0.0
 11
319.45124957693042
 21
495.67144236744929
 31
0.0
  0
TEXT
  5
46B2
  8
0
 10
853.30839243407331
 20
534.28139750375885
 30
0.0
 40
50.0
  1
2SX2000L-40AX10A
 72
     4
 11
1235.45124957693
 21
559.28139750375885
 31
0.0
  0
ARC
  5
46D0
  8
0
 10
201.74081610947169
 20
-2.6999999999998181
 30
0.0
 40
2.0
 50
200.00000000007711
 51
270.0
1001
GENIUS_GENODEF_13
1002
{
1000
HIER
1070
     0
1002
}
1002
{
1000
MANEDIT
1070
     0
1002
}
1002
{
1000
NOSEL
1070
     0
1002
}
1002
{
1000
BEHIND
1070
     0
1002
}
1002
{
1000
OTHER
1070
     0
1002
}
1002
{
1000
REACTOR
1002
}
1001
GENIUS_GENOBJ-N-FIL_13
1002
{
1000
OWNER
1000
GEN
1002
}
  0
ARC
  5
46D4
  8
0
 10
196.74108354636331
 20
2.8500000000003629
 30
0.0
 40
0.8
 50
20.000000000077179
 51
90.0
1001
GENIUS_GENODEF_13
1002
{
1000
HIER
1070
     0
1002
}
1002
{
1000
MANEDIT
1070
     0
1002
}
1002
{
1000
NOSEL
1070
     0
1002
}
1002
{
1000
BEHIND
1070
     0
1002
}
1002
{
1000
OTHER
1070
     0
1002
}
1002
{
1000
REACTOR
1002
}
1001
GENIUS_GENOBJ-N-FIL_13
1002
{
1000
OWNER
1000
GEN
1002
}
  0
ARC
  5
46D7
  8
0
 10
201.74081610947169
 20
-24.0
 30
0.0
 40
2.0
 50
90.0
 51
159.99999999992281
1001
GENIUS_GENODEF_13
1002
{
1000
HIER
1070
     0
1002
}
1002
{
1000
MANEDIT
1070
     0
1002
}
1002
{
1000
NOSEL
1070
     0
1002
}
1002
{
1000
BEHIND
1070
     0
1002
}
1002
{
1000
OTHER
1070
     0
1002
}
1002
{
1000
REACTOR
1002
}
1001
GENIUS_GENOBJ-N-FIL_13
1002
{
1000
OWNER
1000
GEN
1002
}
  0
ARC
  5
46D9
  8
0
 10
196.74108354636331
 20
-29.549999999999731
 30
0.0
 40
0.8
 50
270.0
 51
339.99999999992281
1001
GENIUS_GENODEF_13
1002
{
1000
HIER
1070
     0
1002
}
1002
{
1000
MANEDIT
1070
     0
1002
}
1002
{
1000
NOSEL
1070
     0
1002
}
1002
{
1000
BEHIND
1070
     0
1002
}
1002
{
1000
OTHER
1070
     0
1002
}
1002
{
1000
REACTOR
1002
}
1001
GENIUS_GENOBJ-N-FIL_13
1002
{
1000
OWNER
1000
GEN
1002
}
  0
LINE
  5
46DD
  8
0
 10
2276.45124957693
 20
428.67147954931801
 30
0.0
 11
2276.45124957693
 21
394.67147954931801
 31
0.0
  0
LINE
  5
46DE
  8
0
 10
2273.6012495769319
 20
427.92051118870222
 30
0.0
 11
2273.6012495769319
 21
395.42244790993391
 31
0.0
  0
LINE
  5
46DF
  8
0
  6
CENTER
 10
2278.657219603766
 20
411.67147954931801
 30
0.0
 11
192.2452795500939
 21
411.67147954931801
 31
0.0
  0
LINE
  5
46E0
  8
0
 10
2274.161415607497
 20
394.67147954931801
 30
0.0
 11
2276.45124957693
 21
394.67147954931801
 31
0.0
  0
LINE
  5
46E1
  8
0
 10
2269.1616830443891
 20
403.02147954931792
 30
0.0
 11
2257.45124957693
 21
403.02147954931792
 31
0.0
  0
ARC
  5
46E2
  8
0
 10
2269.1616830443891
 20
401.02147954931797
 30
0.0
 40
2.0
 50
20.000000000064929
 51
90.0
1001
GENIUS_GENODEF_13
1002
{
1000
HIER
1070
     0
1002
}
1002
{
1000
MANEDIT
1070
     0
1002
}
1002
{
1000
NOSEL
1070
     0
1002
}
1002
{
1000
BEHIND
1070
     0
1002
}
1002
{
1000
OTHER
1070
     0
1002
}
1002
{
1000
REACTOR
1002
}
1001
GENIUS_GENOBJ-N-FIL_13
1002
{
1000
OWNER
1000
GEN
1002
}
  0
LINE
  5
46E3
  8
0
 10
2270.5621822178719
 20
403.0214704462673
 30
0.0
 11
2270.562097825346
 21
420.3214886523682
 31
0.0
  0
LINE
  5
46E4
  8
0
 10
2273.4096615108679
 20
395.19786343465728
 30
0.0
 11
2271.0410682859579
 21
401.70551983596943
 31
0.0
  0
ARC
  5
46E5
  8
0
 10
2274.161415607497
 20
395.47147954931779
 30
0.0
 40
0.8
 50
200.00000000006489
 51
270.0
1001
GENIUS_GENODEF_13
1002
{
1000
HIER
1070
     0
1002
}
1002
{
1000
MANEDIT
1070
     0
1002
}
1002
{
1000
NOSEL
1070
     0
1002
}
1002
{
1000
BEHIND
1070
     0
1002
}
1002
{
1000
OTHER
1070
     0
1002
}
1002
{
1000
REACTOR
1002
}
1001
GENIUS_GENOBJ-N-FIL_13
1002
{
1000
OWNER
1000
GEN
1002
}
  0
LINE
  5
46E6
  8
0
 10
2274.161415607497
 20
428.67147954931801
 30
0.0
 11
2276.45124957693
 21
428.67147954931801
 31
0.0
  0
LINE
  5
46E7
  8
0
 10
2269.1616830443891
 20
420.3214795493181
 30
0.0
 11
2257.45124957693
 21
420.3214795493181
 31
0.0
  0
ARC
  5
46E8
  8
0
 10
2269.1616830443891
 20
422.32147954931821
 30
0.0
 40
2.0
 50
270.0
 51
339.99999999993503
1001
GENIUS_GENODEF_13
1002
{
1000
HIER
1070
     0
1002
}
1002
{
1000
MANEDIT
1070
     0
1002
}
1002
{
1000
NOSEL
1070
     0
1002
}
1002
{
1000
BEHIND
1070
     0
1002
}
1002
{
1000
OTHER
1070
     0
1002
}
1002
{
1000
REACTOR
1002
}
1001
GENIUS_GENOBJ-N-FIL_13
1002
{
1000
OWNER
1000
GEN
1002
}
  0
LINE
  5
46E9
  8
0
 10
2273.4096615108679
 20
428.14509566397822
 30
0.0
 11
2271.0410682859579
 21
421.6374392626667
 31
0.0
  0
ARC
  5
46EA
  8
0
 10
2274.161415607497
 20
427.87147954931783
 30
0.0
 40
0.8
 50
90.0
 51
159.999999999935
1001
GENIUS_GENODEF_13
1002
{
1000
HIER
1070
     0
1002
}
1002
{
1000
MANEDIT
1070
     0
1002
}
1002
{
1000
NOSEL
1070
     0
1002
}
1002
{
1000
BEHIND
1070
     0
1002
}
1002
{
1000
OTHER
1070
     0
1002
}
1002
{
1000
REACTOR
1002
}
1001
GENIUS_GENOBJ-N-FIL_13
1002
{
1000
OWNER
1000
GEN
1002
}
  0
LINE
  5
4794
  8
0
  6
CENTER
 10
205.45124957693039
 20
0.0
 30
0.0
 11
2265.45124957693
 21
0.0
 31
0.0
  0
LINE
  5
4796
  8
0
 10
197.30124957692891
 20
-29.599031639384059
 30
0.0
 11
197.30124957692891
 21
2.8990316393842468
 31
0.0
  0
LINE
  5
4797
  8
0
  6
CENTER
 10
214.04256055544101
 20
-13.349999999999911
 30
0.0
 11
192.2452795500939
 21
-13.349999999999911
 31
0.0
  0
LINE
  5
4798
  8
0
 10
196.74108354636331
 20
3.6500000000000901
 30
0.0
 11
194.45124957693039
 21
3.6500000000000901
 31
0.0
  0
LINE
  5
4799
  8
0
 10
201.74081610947169
 20
-4.6999999999998181
 30
0.0
 11
213.45124957693039
 21
-4.6999999999998181
 31
0.0
  0
LINE
  5
479B
  8
0
 10
200.340316935988
 20
-4.6999908969492017
 30
0.0
 11
200.34040132851439
 21
-22.00000910305015
 31
0.0
  0
LINE
  5
479C
  8
0
 10
197.4928376429925
 20
3.1236161146607619
 30
0.0
 11
199.8614308679025
 21
-3.38404028665127
 31
0.0
  0
LINE
  5
479E
  8
0
 10
196.74108354636331
 20
-30.349999999999909
 30
0.0
 11
194.45124957693039
 21
-30.349999999999909
 31
0.0
  0
LINE
  5
479F
  8
0
 10
201.74081610947169
 20
-22.0
 30
0.0
 11
213.45124957693039
 21
-22.0
 31
0.0
  0
LINE
  5
47A1
  8
0
 10
197.4928376429925
 20
-29.823616114660119
 30
0.0
 11
199.8614308679025
 21
-23.315959713348541
 31
0.0
  0
ARC
  5
47A8
  8
0
 10
2269.1616830443891
 20
2.6999999999998181
 30
0.0
 40
2.0
 50
20.000000000064929
 51
90.0
1001
GENIUS_GENODEF_13
1002
{
1000
HIER
1070
     0
1002
}
1002
{
1000
MANEDIT
1070
     0
1002
}
1002
{
1000
NOSEL
1070
     0
1002
}
1002
{
1000
BEHIND
1070
     0
1002
}
1002
{
1000
OTHER
1070
     0
1002
}
1002
{
1000
REACTOR
1002
}
1001
GENIUS_GENOBJ-N-FIL_13
1002
{
1000
OWNER
1000
GEN
1002
}
  0
ARC
  5
47AB
  8
0
 10
2274.161415607497
 20
-2.8500000000003629
 30
0.0
 40
0.8
 50
200.00000000006489
 51
270.0
1001
GENIUS_GENODEF_13
1002
{
1000
HIER
1070
     0
1002
}
1002
{
1000
MANEDIT
1070
     0
1002
}
1002
{
1000
NOSEL
1070
     0
1002
}
1002
{
1000
BEHIND
1070
     0
1002
}
1002
{
1000
OTHER
1070
     0
1002
}
1002
{
1000
REACTOR
1002
}
1001
GENIUS_GENOBJ-N-FIL_13
1002
{
1000
OWNER
1000
GEN
1002
}
  0
ARC
  5
47AE
  8
0
 10
2269.1616830443891
 20
24.0
 30
0.0
 40
2.0
 50
270.0
 51
339.99999999993503
1001
GENIUS_GENODEF_13
1002
{
1000
HIER
1070
     0
1002
}
1002
{
1000
MANEDIT
1070
     0
1002
}
1002
{
1000
NOSEL
1070
     0
1002
}
1002
{
1000
BEHIND
1070
     0
1002
}
1002
{
1000
OTHER
1070
     0
1002
}
1002
{
1000
REACTOR
1002
}
1001
GENIUS_GENOBJ-N-FIL_13
1002
{
1000
OWNER
1000
GEN
1002
}
  0
ARC
  5
47B0
  8
0
 10
2274.161415607497
 20
29.549999999999731
 30
0.0
 40
0.8
 50
90.0
 51
159.999999999935
1001
GENIUS_GENODEF_13
1002
{
1000
HIER
1070
     0
1002
}
1002
{
1000
MANEDIT
1070
     0
1002
}
1002
{
1000
NOSEL
1070
     0
1002
}
1002
{
1000
BEHIND
1070
     0
1002
}
1002
{
1000
OTHER
1070
     0
1002
}
1002
{
1000
REACTOR
1002
}
1001
GENIUS_GENOBJ-N-FIL_13
1002
{
1000
OWNER
1000
GEN
1002
}
  0
LINE
  5
47B2
  8
0
 10
2276.45124957693
 20
30.349999999999909
 30
0.0
 11
2276.45124957693
 21
-3.6500000000000901
 31
0.0
  0
LINE
  5
47B3
  8
0
 10
2273.6012495769319
 20
29.599031639384059
 30
0.0
 11
2273.6012495769319
 21
-2.8990316393842468
 31
0.0
  0
LINE
  5
47B4
  8
0
  6
CENTER
 10
2256.8599385984198
 20
13.349999999999911
 30
0.0
 11
2278.657219603766
 21
13.349999999999911
 31
0.0
  0
LINE
  5
47B5
  8
0
 10
2274.161415607497
 20
-3.6500000000000901
 30
0.0
 11
2276.45124957693
 21
-3.6500000000000901
 31
0.0
  0
LINE
  5
47B6
  8
0
 10
2269.1616830443891
 20
4.6999999999998181
 30
0.0
 11
2257.45124957693
 21
4.6999999999998181
 31
0.0
  0
LINE
  5
47B8
  8
0
 10
2270.5621822178719
 20
4.6999908969492017
 30
0.0
 11
2270.562097825346
 21
22.00000910305015
 31
0.0
  0
LINE
  5
47B9
  8
0
 10
2273.4096615108679
 20
-3.1236161146607619
 30
0.0
 11
2271.0410682859579
 21
3.38404028665127
 31
0.0
  0
LINE
  5
47BB
  8
0
 10
2274.161415607497
 20
30.349999999999909
 30
0.0
 11
2276.45124957693
 21
30.349999999999909
 31
0.0
  0
LINE
  5
47BC
  8
0
 10
2269.1616830443891
 20
22.0
 30
0.0
 11
2257.45124957693
 21
22.0
 31
0.0
  0
LINE
  5
47BE
  8
0
 10
2273.4096615108679
 20
29.823616114660119
 30
0.0
 11
2271.0410682859579
 21
23.315959713348541
 31
0.0
  0
LINE
  5
47C0
  8
0
 10
194.45124957693039
 20
428.67147954931801
 30
0.0
 11
194.45124957693039
 21
394.67147954931801
 31
0.0
  0
LINE
  5
47C1
  8
0
 10
197.30124957692891
 20
427.92051118870222
 30
0.0
 11
197.30124957692891
 21
395.42244790993391
 31
0.0
  0
LINE
  5
47C3
  8
0
 10
196.74108354636331
 20
394.67147954931801
 30
0.0
 11
194.45124957693039
 21
394.67147954931801
 31
0.0
  0
LINE
  5
47C4
  8
0
 10
201.74081610947169
 20
403.02147954931792
 30
0.0
 11
213.45124957693039
 21
403.02147954931792
 31
0.0
  0
ARC
  5
47C5
  8
0
 10
201.74081610947169
 20
401.02147954931797
 30
0.0
 40
2.0
 50
90.0
 51
159.99999999992281
1001
GENIUS_GENODEF_13
1002
{
1000
HIER
1070
     0
1002
}
1002
{
1000
MANEDIT
1070
     0
1002
}
1002
{
1000
NOSEL
1070
     0
1002
}
1002
{
1000
BEHIND
1070
     0
1002
}
1002
{
1000
OTHER
1070
     0
1002
}
1002
{
1000
REACTOR
1002
}
1001
GENIUS_GENOBJ-N-FIL_13
1002
{
1000
OWNER
1000
GEN
1002
}
  0
LINE
  5
47C6
  8
0
 10
200.340316935988
 20
403.0214704462673
 30
0.0
 11
200.34040132851439
 21
420.3214886523682
 31
0.0
  0
LINE
  5
47C7
  8
0
 10
197.4928376429925
 20
395.19786343465728
 30
0.0
 11
199.8614308679025
 21
401.70551983596943
 31
0.0
  0
ARC
  5
47C8
  8
0
 10
196.74108354636331
 20
395.47147954931779
 30
0.0
 40
0.8
 50
270.0
 51
339.99999999992281
1001
GENIUS_GENODEF_13
1002
{
1000
HIER
1070
     0
1002
}
1002
{
1000
MANEDIT
1070
     0
1002
}
1002
{
1000
NOSEL
1070
     0
1002
}
1002
{
1000
BEHIND
1070
     0
1002
}
1002
{
1000
OTHER
1070
     0
1002
}
1002
{
1000
REACTOR
1002
}
1001
GENIUS_GENOBJ-N-FIL_13
1002
{
1000
OWNER
1000
GEN
1002
}
  0
LINE
  5
47C9
  8
0
 10
196.74108354636331
 20
428.67147954931801
 30
0.0
 11
194.45124957693039
 21
428.67147954931801
 31
0.0
  0
LINE
  5
47CA
  8
0
 10
201.74081610947169
 20
420.3214795493181
 30
0.0
 11
213.45124957693039
 21
420.3214795493181
 31
0.0
  0
ARC
  5
47CB
  8
0
 10
201.74081610947169
 20
422.32147954931821
 30
0.0
 40
2.0
 50
200.00000000007711
 51
270.0
1001
GENIUS_GENODEF_13
1002
{
1000
HIER
1070
     0
1002
}
1002
{
1000
MANEDIT
1070
     0
1002
}
1002
{
1000
NOSEL
1070
     0
1002
}
1002
{
1000
BEHIND
1070
     0
1002
}
1002
{
1000
OTHER
1070
     0
1002
}
1002
{
1000
REACTOR
1002
}
1001
GENIUS_GENOBJ-N-FIL_13
1002
{
1000
OWNER
1000
GEN
1002
}
  0
LINE
  5
47CC
  8
0
 10
197.4928376429925
 20
428.14509566397822
 30
0.0
 11
199.8614308679025
 21
421.6374392626667
 31
0.0
  0
ARC
  5
47CD
  8
0
 10
196.74108354636331
 20
427.87147954931783
 30
0.0
 40
0.8
 50
20.000000000077179
 51
90.0
1001
GENIUS_GENODEF_13
1002
{
1000
HIER
1070
     0
1002
}
1002
{
1000
MANEDIT
1070
     0
1002
}
1002
{
1000
NOSEL
1070
     0
1002
}
1002
{
1000
BEHIND
1070
     0
1002
}
1002
{
1000
OTHER
1070
     0
1002
}
1002
{
1000
REACTOR
1002
}
1001
GENIUS_GENOBJ-N-FIL_13
1002
{
1000
OWNER
1000
GEN
1002
}
  0
LINE
  5
492D
  8
AM_0_T3
 10
194.45124957693039
 20
3.6500000000000901
 30
0.0
 11
194.45124957693039
 21
-30.349999999999909
 31
0.0
  0
CIRCLE
  5
62CF
  8
0
 10
282.3281435646349
 20
448.79458556161171
 30
0.0
 40
9.5
  0
CIRCLE
  5
62D0
  8
0
 10
282.3281435646349
 20
374.54837353702442
 30
0.0
 40
9.5
  0
CIRCLE
  5
62D1
  8
0
 10
356.57435558922219
 20
374.54837353702442
 30
0.0
 40
9.5
  0
CIRCLE
  5
62D2
  8
0
 10
356.57435558922219
 20
448.79458556161171
 30
0.0
 40
9.5
  0
CIRCLE
  5
62D3
  8
0
 10
2151.4512495769259
 20
411.67147954931801
 30
0.0
 40
70.0
  0
CIRCLE
  5
62D4
  8
0
 10
2188.5743555892182
 20
448.79458556161171
 30
0.0
 40
9.5
  0
CIRCLE
  5
62D5
  8
0
 10
2188.5743555892182
 20
374.54837353702442
 30
0.0
 40
9.5
  0
CIRCLE
  5
62D6
  8
0
  6
CENTER
 10
2151.4512495769259
 20
411.67147954931801
 30
0.0
 40
52.5
  0
CIRCLE
  5
62D7
  8
0
 10
2114.3281435646309
 20
374.54837353702442
 30
0.0
 40
9.5
  0
CIRCLE
  5
62D8
  8
0
 10
2114.3281435646309
 20
448.79458556161171
 30
0.0
 40
9.5
  0
CIRCLE
  5
62D9
  8
AM_0_T3
 10
2151.4512495769259
 20
411.67147954931801
 30
0.0
 40
24.299999999999731
  0
LINE
  5
694E
  8
0
 10
3.0
 20
-55.0
 30
0.0
 11
3.0000000000036371
 21
-30.08320053068109
 31
0.0
  0
LINE
  5
694F
  8
0
 10
13.0
 20
-55.0
 30
0.0
 11
13.0
 21
-35.707142000000204
 31
0.0
  0
LINE
  5
6950
  8
0
 10
-3.0
 20
-55.0
 30
0.0
 11
-2.999999999996362
 21
-30.083200530681779
 31
0.0
  0
LINE
  5
6951
  8
0
 10
-13.0
 20
-55.0
 30
0.0
 11
-13.0
 21
-35.707142000000204
 31
0.0
  0
LINE
  5
6952
  8
0
 10
13.0
 20
55.0
 30
0.0
 11
13.0
 21
35.707142000000204
 31
0.0
  0
LINE
  5
6953
  8
0
 10
3.0
 20
55.0
 30
0.0
 11
3.0
 21
28.844409999999701
 31
0.0
  0
LINE
  5
6954
  8
0
 10
-3.0
 20
55.0
 30
0.0
 11
-3.0
 21
28.844409999999701
 31
0.0
  0
LINE
  5
6955
  8
0
 10
-13.0
 20
55.0
 30
0.0
 11
-13.0
 21
35.707142000000204
 31
0.0
  0
LINE
  5
6956
  8
0
 10
13.0
 20
-55.0
 30
0.0
 11
3.0
 21
-55.0
 31
0.0
  0
LINE
  5
6957
  8
0
 10
-13.0
 20
-55.0
 30
0.0
 11
-3.0
 21
-55.0
 31
0.0
  0
LINE
  5
6958
  8
0
 10
13.0
 20
55.0
 30
0.0
 11
3.0
 21
55.0
 31
0.0
  0
LINE
  5
6959
  8
0
 10
-13.0
 20
55.0
 30
0.0
 11
-3.0
 21
55.0
 31
0.0
  0
LINE
  5
695A
  8
0
 10
-3.0
 20
52.0
 30
0.0
 11
3.0
 21
52.0
 31
0.0
  0
LINE
  5
695B
  8
0
 10
-3.0
 20
44.0
 30
0.0
 11
3.0
 21
44.0
 31
0.0
  0
LINE
  5
695C
  8
0
 10
-3.0
 20
-52.0
 30
0.0
 11
3.0
 21
-52.0
 31
0.0
  0
LINE
  5
695D
  8
0
 10
-3.0
 20
-44.0
 30
0.0
 11
3.0
 21
-44.0
 31
0.0
  0
LINE
  5
695E
  8
0
 10
-27.0
 20
44.0
 30
0.0
 11
-21.499999999999989
 21
44.0
 31
0.0
  0
LINE
  5
695F
  8
0
 10
-21.499999999999989
 20
43.0
 30
0.0
 11
-21.499999999999989
 21
53.0
 31
0.0
  0
LINE
  5
6960
  8
0
 10
-27.0
 20
44.0
 30
0.0
 11
-27.0
 21
52.0
 31
0.0
  0
LINE
  5
6961
  8
0
 10
-20.5
 20
42.0
 30
0.0
 11
-19.5
 21
42.0
 31
0.0
  0
LINE
  5
6962
  8
0
 10
-20.5
 20
54.0
 30
0.0
 11
-19.5
 21
54.0
 31
0.0
  0
LINE
  5
6963
  8
0
 10
-19.5
 20
54.5
 30
0.0
 11
-19.5
 21
41.5
 31
0.0
  0
LINE
  5
6964
  8
0
 10
-19.5
 20
54.5
 30
0.0
 11
-13.0
 21
54.5
 31
0.0
  0
LINE
  5
6965
  8
0
 10
-19.5
 20
41.5
 30
0.0
 11
-13.0
 21
41.5
 31
0.0
  0
LINE
  5
6966
  8
0
 10
-27.0
 20
52.0
 30
0.0
 11
-21.499999999999989
 21
52.0
 31
0.0
  0
LINE
  5
6967
  8
0
  6
CENTER
 10
-28.65133499999865
 20
48.0
 30
0.0
 11
22.389211999998221
 21
48.0
 31
0.0
  0
LINE
  5
6968
  8
0
 10
-27.0
 20
-44.0
 30
0.0
 11
-21.499999999999989
 21
-44.0
 31
0.0
  0
LINE
  5
6969
  8
0
 10
-21.499999999999989
 20
-43.0
 30
0.0
 11
-21.499999999999989
 21
-53.0
 31
0.0
  0
LINE
  5
696A
  8
0
 10
-27.0
 20
-44.0
 30
0.0
 11
-27.0
 21
-52.0
 31
0.0
  0
LINE
  5
696B
  8
0
 10
-20.5
 20
-42.0
 30
0.0
 11
-19.5
 21
-42.0
 31
0.0
  0
LINE
  5
696C
  8
0
 10
-20.5
 20
-54.0
 30
0.0
 11
-19.5
 21
-54.0
 31
0.0
  0
LINE
  5
696D
  8
0
 10
-19.5
 20
-54.5
 30
0.0
 11
-19.5
 21
-41.5
 31
0.0
  0
LINE
  5
696E
  8
0
 10
-19.5
 20
-54.5
 30
0.0
 11
-13.0
 21
-54.5
 31
0.0
  0
LINE
  5
696F
  8
0
 10
-19.5
 20
-41.5
 30
0.0
 11
-13.0
 21
-41.5
 31
0.0
  0
LINE
  5
6970
  8
0
 10
-27.0
 20
-52.0
 30
0.0
 11
-21.499999999999989
 21
-52.0
 31
0.0
  0
LINE
  5
6971
  8
0
  6
CENTER
 10
-28.65133499999865
 20
-48.0
 30
0.0
 11
21.827725999999529
 21
-48.0
 31
0.0
  0
LINE
  5
6972
  8
0
 10
18.5
 20
-44.75
 30
0.0
 11
18.5
 21
-51.25
 31
0.0
  0
LINE
  5
6973
  8
0
 10
17.77510600000096
 20
-41.5
 30
0.0
 11
13.0
 21
-41.5
 31
0.0
  0
LINE
  5
6974
  8
0
 10
17.77510600000096
 20
-54.5
 30
0.0
 11
13.0
 21
-54.5
 31
0.0
  0
LINE
  5
6975
  8
0
 10
18.5
 20
44.75
 30
0.0
 11
18.5
 21
51.25
 31
0.0
  0
LINE
  5
6976
  8
0
 10
17.77510600000096
 20
41.5
 30
0.0
 11
13.0
 21
41.5
 31
0.0
  0
LINE
  5
6977
  8
0
 10
17.77510600000096
 20
54.5
 30
0.0
 11
13.0
 21
54.5
 31
0.0
  0
ARC
  5
6978
  8
0
 10
0.0
 20
0.0
 30
0.0
 40
38.0
 50
94.528059999869868
 51
265.47193499986992
  0
ARC
  5
6979
  8
0
 10
0.0
 20
0.0
 30
0.0
 40
29.0
 50
95.937769999707484
 51
250.5744408270443
  0
ARC
  5
697A
  8
0
 10
0.0
 20
0.0
 30
0.0
 40
31.0
 50
95.937769999707484
 51
264.06222500006783
  0
ARC
  5
697B
  8
0
 10
0.0
 20
0.0
 30
0.0
 40
38.0
 50
274.52806299994222
 51
85.471936986257219
  0
ARC
  5
697C
  8
0
 10
0.0
 20
0.0
 30
0.0
 40
29.0
 50
289.42555917295562
 51
84.062220000261803
  0
ARC
  5
697D
  8
0
 10
0.0
 20
0.0
 30
0.0
 40
31.0
 50
275.93777299984231
 51
84.446555804084582
  0
ARC
  5
697E
  8
0
 10
-20.5
 20
43.0
 30
0.0
 40
1.0
 50
179.99998999999889
 51
269.99999600002042
  0
ARC
  5
697F
  8
0
 10
-20.5
 20
53.0
 30
0.0
 40
1.0
 50
90.0
 51
180.00000500893739
  0
ARC
  5
6980
  8
0
 10
-11.85200500000064
 20
51.25
 30
0.0
 40
7.6479949999999981
 50
154.85263000010701
 51
205.1473750000753
  0
ARC
  5
6981
  8
0
 10
-11.85200500000064
 20
44.75
 30
0.0
 40
7.6479949999999981
 50
154.85263000010701
 51
205.1473680000901
  0
ARC
  5
6982
  8
0
 10
-20.647994999999352
 20
51.25
 30
0.0
 40
7.6479949999999981
 50
334.85263000010701
 51
25.147369999892991
  0
ARC
  5
6983
  8
0
 10
-20.647994999999352
 20
44.75
 30
0.0
 40
7.6479949999999981
 50
334.85263000010701
 51
25.147369999892991
  0
ARC
  5
6984
  8
0
 10
-20.5
 20
-43.0
 30
0.0
 40
1.0
 50
90.0
 51
180.00000500893739
  0
ARC
  5
6985
  8
0
 10
-20.5
 20
-53.0
 30
0.0
 40
1.0
 50
179.99998999999889
 51
269.99999600002042
  0
ARC
  5
6986
  8
0
 10
-11.85200500000064
 20
-51.25
 30
0.0
 40
7.6479949999999981
 50
154.85261999999599
 51
205.14737199986081
  0
ARC
  5
6987
  8
0
 10
-11.85200500000064
 20
-44.75
 30
0.0
 40
7.6479949999999981
 50
154.85263000010701
 51
205.14737199986081
  0
ARC
  5
6988
  8
0
 10
-20.647994999999352
 20
-51.25
 30
0.0
 40
7.6479949999999981
 50
334.85263000010701
 51
25.147369999892991
  0
ARC
  5
6989
  8
0
 10
-20.647994999999352
 20
-44.75
 30
0.0
 40
7.6479949999999981
 50
334.85263000010701
 51
25.147369999892991
  0
ARC
  5
698A
  8
0
 10
10.85200500000064
 20
-44.75
 30
0.0
 40
7.647994500000002
 50
334.85263000010701
 51
25.147369999892991
  0
ARC
  5
698B
  8
0
 10
10.85200500000064
 20
-51.25
 30
0.0
 40
7.647994500000002
 50
334.85263000010701
 51
25.147369999892991
  0
ARC
  5
698C
  8
0
 10
10.85200500000064
 20
44.75
 30
0.0
 40
7.647994500000002
 50
334.85263000010701
 51
25.147369999892991
  0
ARC
  5
698D
  8
0
 10
10.85200500000064
 20
51.25
 30
0.0
 40
7.647994500000002
 50
334.85263000010701
 51
25.147369999892991
  0
LINE
  5
698E
  8
0
  6
CENTER
 10
0.0
 20
-98.0
 30
0.0
 11
0.0
 21
98.0
 31
0.0
  0
LINE
  5
698F
  8
0
  6
CENTER
 10
-55.759478892276093
 20
0.0
 30
0.0
 11
55.759478892276093
 21
0.0
 31
0.0
  0
LINE
  5
6A53
  8
0
  6
CENTER
 10
-22.104679705953451
 20
-13.349999999999911
 30
0.0
 11
22.104679705953451
 21
-13.349999999999911
 31
0.0
  0
LINE
  5
6A54
  8
0
 10
-70.0
 20
-74.0
 30
0.0
 11
70.0
 21
-74.0
 31
0.0
  0
LINE
  5
6A55
  8
0
 10
24.299999999999269
 20
-73.999999999999545
 30
0.0
 11
24.30000000000291
 21
-29.214893462067259
 31
0.0
  0
LINE
  5
6A56
  8
0
 10
70.0
 20
-90.0
 30
0.0
 11
-70.0
 21
-90.0
 31
0.0
  0
LINE
  5
6A57
  8
0
 10
70.0
 20
-74.0
 30
0.0
 11
70.0
 21
-90.0
 31
0.0
  0
LINE
  5
6A58
  8
0
  6
CENTER
 10
52.5
 20
-98.0
 30
0.0
 11
52.5
 21
-64.0
 31
0.0
  0
LINE
  5
6A59
  8
0
 10
-24.30000000000291
 20
-73.999999999999545
 30
0.0
 11
-24.30000000000291
 21
-51.999999999999773
 31
0.0
  0
LINE
  5
6A5A
  8
0
 10
-24.30000000000291
 20
-43.999999999999552
 30
0.0
 11
-24.30000000000291
 21
-29.21489346206636
 31
0.0
  0
LINE
  5
6A5B
  8
0
  6
CENTER
 10
-52.5
 20
-98.0
 30
0.0
 11
-52.5
 21
-64.0
 31
0.0
  0
LINE
  5
6A5C
  8
0
 10
-70.0
 20
-90.0
 30
0.0
 11
-70.0
 21
-74.0
 31
0.0
  0
LINE
  5
6A5D
  8
0
 10
-70.0
 20
74.000000000000455
 30
0.0
 11
70.0
 21
74.000000000000455
 31
0.0
  0
LINE
  5
6A5E
  8
0
 10
24.299999999999269
 20
74.0
 30
0.0
 11
24.30000000000291
 21
29.214893462067721
 31
0.0
  0
LINE
  5
6A5F
  8
0
 10
70.0
 20
90.000000000000455
 30
0.0
 11
-70.0
 21
90.000000000000455
 31
0.0
  0
LINE
  5
6A60
  8
0
 10
70.0
 20
74.000000000000455
 30
0.0
 11
70.0
 21
90.000000000000455
 31
0.0
  0
LINE
  5
6A61
  8
0
  6
CENTER
 10
52.5
 20
98.000000000000455
 30
0.0
 11
52.5
 21
64.000000000000455
 31
0.0
  0
LINE
  5
6A62
  8
0
 10
-24.30000000000291
 20
74.0
 30
0.0
 11
-24.299999999999269
 21
52.0
 31
0.0
  0
LINE
  5
6A63
  8
0
 10
-24.299999999999269
 20
44.0
 30
0.0
 11
-24.299999999995631
 21
29.214893462071579
 31
0.0
  0
LINE
  5
6A64
  8
0
  6
CENTER
 10
-52.5
 20
98.000000000000455
 30
0.0
 11
-52.5
 21
64.000000000000455
 31
0.0
  0
LINE
  5
6A65
  8
0
 10
-70.0
 20
90.000000000000455
 30
0.0
 11
-70.0
 21
74.000000000000455
 31
0.0
  0
CIRCLE
  5
6AA4
  8
AM_0_T3
 10
0.0
 20
-13.349999999999911
 30
0.0
 40
17.0
  0
CIRCLE
  5
6AA5
  8
AM_0_T3
 10
0.0
 20
-13.349999999999911
 30
0.0
 40
8.6500000000000892
  0
ENDSEC
  0
EOF
