  0
SECTION
  2
HEADER
  9
$ACADVER
  1
AC1009
  9
$INSBASE
 10
0.0
 20
0.0
 30
0.0
  9
$EXTMIN
 10
-62.5
 20
-99.000000000000455
 30
0.0
  9
$EXTMAX
 10
2282.59999229799
 20
584.28139750375885
 30
0.0
  9
$LIMMIN
 10
0.0
 20
0.0
  9
$LIMMAX
 10
420.0
 20
297.0
  9
$ORTHOMODE
 70
     0
  9
$REGENMODE
 70
     1
  9
$FILLMODE
 70
     1
  9
$QTEXTMODE
 70
     0
  9
$MIRRTEXT
 70
     1
  9
$DRAGMODE
 70
     2
  9
$LTSCALE
 40
1.0
  9
$OSMODE
 70
    37
  9
$ATTMODE
 70
     1
  9
$TEXTSIZE
 40
73.985717453579113
  9
$TRACEWID
 40
1.0
  9
$TEXTSTYLE
  7
STANDARD
  9
$CLAYER
  8
0
  9
$CELTYPE
  6
BYLAYER
  9
$CECOLOR
 62
   256
  9
$DIMSCALE
 40
1.0
  9
$DIMASZ
 40
3.0
  9
$DIMEXO
 40
1.0
  9
$DIMDLI
 40
10.0
  9
$DIMRND
 40
0.0
  9
$DIMDLE
 40
0.0
  9
$DIMEXE
 40
1.0
  9
$DIMTP
 40
0.1
  9
$DIMTM
 40
0.1
  9
$DIMTXT
 40
30.0
  9
$DIMCEN
 40
0.0
  9
$DIMTSZ
 40
0.0
  9
$DIMTOL
 70
     0
  9
$DIMLIM
 70
     0
  9
$DIMTIH
 70
     0
  9
$DIMTOH
 70
     0
  9
$DIMSE1
 70
     0
  9
$DIMSE2
 70
     0
  9
$DIMTAD
 70
     3
  9
$DIMZIN
 70
     8
  9
$DIMBLK
  1
OPEN
  9
$DIMASO
 70
     1
  9
$DIMSHO
 70
     1
  9
$DIMPOST
  1

  9
$DIMAPOST
  1
"
  9
$DIMALT
 70
     0
  9
$DIMALTD
 70
     2
  9
$DIMALTF
 40
0.0393701
  9
$DIMLFAC
 40
1.0
  9
$DIMTOFL
 70
     1
  9
$DIMTVP
 40
0.0
  9
$DIMTIX
 70
     0
  9
$DIMSOXD
 70
     0
  9
$DIMSAH
 70
     0
  9
$DIMBLK1
  1

  9
$DIMBLK2
  1

  9
$DIMSTYLE
  2
TSK
  9
$DIMCLRD
 70
   256
  9
$DIMCLRE
 70
   256
  9
$DIMCLRT
 70
     2
  9
$DIMTFAC
 40
0.71
  9
$DIMGAP
 40
1.5
  9
$LUNITS
 70
     2
  9
$LUPREC
 70
     8
  9
$SKETCHINC
 40
1.0
  9
$FILLETRAD
 40
0.0
  9
$AUNITS
 70
     0
  9
$AUPREC
 70
     8
  9
$MENU
  1
.
  9
$ELEVATION
 40
0.0
  9
$PELEVATION
 40
0.0
  9
$THICKNESS
 40
0.0
  9
$LIMCHECK
 70
     0
  9
$BLIPMODE
 70
     0
  9
$CHAMFERA
 40
2.5
  9
$CHAMFERB
 40
2.5
  9
$SKPOLY
 70
     0
  9
$TDCREATE
 40
2454739.7204081588
  9
$TDUPDATE
 40
2454750.438839328
  9
$TDINDWG
 40
0.2782103704
  9
$TDUSRTIMER
 40
0.2782103704
  9
$USRTIMER
 70
     1
  9
$ANGBASE
 50
0.0
  9
$ANGDIR
 70
     1
  9
$PDMODE
 70
     0
  9
$PDSIZE
 40
0.0
  9
$PLINEWID
 40
0.0
  9
$COORDS
 70
     1
  9
$SPLFRAME
 70
     0
  9
$SPLINETYPE
 70
     6
  9
$SPLINESEGS
 70
     8
  9
$ATTDIA
 70
     0
  9
$ATTREQ
 70
     1
  9
$HANDLING
 70
 22529
  9
$HANDSEED
  5
6BF4
  9
$SURFTAB1
 70
     6
  9
$SURFTAB2
 70
     6
  9
$SURFTYPE
 70
     6
  9
$SURFU
 70
     6
  9
$SURFV
 70
     6
  9
$UCSNAME
  2

  9
$UCSORG
 10
0.0
 20
0.0
 30
0.0
  9
$UCSXDIR
 10
1.0
 20
0.0
 30
0.0
  9
$UCSYDIR
 10
0.0
 20
1.0
 30
0.0
  9
$PUCSNAME
  2

  9
$PUCSORG
 10
0.0
 20
0.0
 30
0.0
  9
$PUCSXDIR
 10
1.0
 20
0.0
 30
0.0
  9
$PUCSYDIR
 10
0.0
 20
1.0
 30
0.0
  9
$USERI1
 70
     0
  9
$USERI2
 70
     0
  9
$USERI3
 70
     0
  9
$USERI4
 70
     0
  9
$USERI5
 70
     0
  9
$USERR1
 40
0.0
  9
$USERR2
 40
0.0
  9
$USERR3
 40
0.0
  9
$USERR4
 40
0.0
  9
$USERR5
 40
0.0
  9
$WORLDVIEW
 70
     1
  9
$SHADEDGE
 70
     3
  9
$SHADEDIF
 70
    70
  9
$TILEMODE
 70
     1
  9
$MAXACTVP
 70
    48
  9
$PLIMCHECK
 70
     0
  9
$PEXTMIN
 10
1.0000000000000000E+020
 20
1.0000000000000000E+020
 30
1.0000000000000000E+020
  9
$PEXTMAX
 10
-1.0000000000000000E+020
 20
-1.0000000000000000E+020
 30
-1.0000000000000000E+020
  9
$PLIMMIN
 10
0.0
 20
0.0
  9
$PLIMMAX
 10
420.0
 20
297.0
  9
$UNITMODE
 70
     0
  9
$VISRETAIN
 70
     1
  9
$PLINEGEN
 70
     0
  9
$PSLTSCALE
 70
     1
  0
ENDSEC
  0
SECTION
  2
TABLES
  0
TABLE
  2
VPORT
 70
     2
  0
VPORT
  2
*ACTIVE
 70
     0
 10
0.0
 20
0.0
 11
1.0
 21
1.0
 12
1110.0960541596439
 22
242.6545032330832
 13
0.0
 23
0.0
 14
2.5
 24
2.5
 15
10.0
 25
10.0
 16
0.0
 26
0.0
 36
1.0
 17
0.0
 27
0.0
 37
0.0
 40
1538.7230554600101
 41
1.531806615776081
 42
50.0
 43
0.0
 44
0.0
 50
0.0
 51
0.0
 71
     0
 72
   100
 73
     1
 74
     3
 75
     0
 76
     0
 77
     0
 78
     0
  0
ENDTAB
  0
TABLE
  2
LTYPE
 70
     2
  0
LTYPE
  2
CONTINUOUS
 70
     0
  3
Solid line
 72
    65
 73
     0
 40
0.0
  0
LTYPE
  2
CENTER
 70
     0
  3
__ . __
 72
    65
 73
     4
 40
7.0
 49
4.0
 49
-1.0
 49
1.0
 49
-1.0
  0
ENDTAB
  0
TABLE
  2
LAYER
 70
     2
  0
LAYER
  2
0
 70
     0
 62
     7
  6
CONTINUOUS
  0
LAYER
  2
AM_0_T3
 70
     0
 62
     7
  6
CONTINUOUS
  0
ENDTAB
  0
TABLE
  2
STYLE
 70
     2
  0
STYLE
  2
STANDARD
 70
     0
 40
0.0
 41
0.7
 50
0.0
 71
     0
 42
73.985717453579113
  3
romans.shx
  4
bigfont.shx
  0
STYLE
  2
TSKDIM
 70
     0
 40
0.0
 41
0.75
 50
0.0
 71
     0
 42
4.0
  3
romans.shx
  4
EXTFONT.SHX
  0
ENDTAB
  0
TABLE
  2
VIEW
 70
     0
  0
ENDTAB
  0
TABLE
  2
UCS
 70
     0
  0
ENDTAB
  0
TABLE
  2
APPID
 70
    41
  0
APPID
  2
ACAD
 70
     0
  0
APPID
  2
MCAD_NO_VIS
 70
     0
  0
APPID
  2
ACAD_TEMP_GRAPHIC
 70
     0
  0
APPID
  2
ACATTRIBSERVICES
 70
     0
  0
APPID
  2
AD_DRAW
 70
     0
  0
APPID
  2
DESIGNERASSEMBLIES
 70
     0
  0
APPID
  2
ASURF_PCURVE_APPNAME
 70
     0
  0
APPID
  2
ACADM_DIM_EDIT
 70
     0
  0
APPID
  2
GENIUS_GENDIM_13
 70
     0
  0
APPID
  2
GENIUS_GENDTOL_13
 70
     0
  0
APPID
  2
GENIUS_GE3DTOL_13
 70
     0
  0
APPID
  2
AMG_3D2D_5_0
 70
     0
  0
APPID
  2
AMDT_DM_ADJ
 70
     0
  0
APPID
  2
CK_MATE-SERIES
 70
     0
  0
APPID
  2
GEVID1042077799
 70
     0
  0
APPID
  2
GEVMK
 70
     0
  0
APPID
  2
GEVDC
 70
     0
  0
APPID
  2
GENIUS_GENBH_13
 70
     0
  0
APPID
  2
GENIUS_GENOLIS_13
 70
     0
  0
APPID
  2
GENIUS_GENOENT_13
 70
     0
  0
APPID
  2
GENIUS_GENODEF_13
 70
     0
  0
APPID
  2
GENIUS_GENOBJ-NBEHI-BHF_13
 70
     0
  0
APPID
  2
GENIUS_GENOREF_13
 70
     0
  0
APPID
  2
GENIUS_GENOBJ-NBEHI-BHB_13
 70
     0
  0
APPID
  2
GEVID1042183772
 70
     0
  0
APPID
  2
GEVID1042183773
 70
     0
  0
APPID
  2
GEVID1042183774
 70
     0
  0
APPID
  2
DCO15
 70
     0
  0
APPID
  2
ACAD_DSTYLE_DIMARC_LENGTH_
 70
     0
  0
APPID
  2
ACAD_DSTYLE_DIMJOGGED_JOGA
 70
     0
  0
APPID
  2
ACAD_MLEADERVER
 70
     0
  0
APPID
  2
ACAD_DSTYLE_DIMJAG
 70
     0
  0
APPID
  2
ACAD_DSTYLE_DIMTALN
 70
     0
  0
APPID
  2
ACAD_PSEXT
 70
     0
  0
APPID
  2
ACAD_EXEMPT_FROM_CAD_STANDARDS
 70
     0
  0
APPID
  2
ACAD_DSTYLE_DIMINSPECT
 70
     0
  0
APPID
  2
ACAD_DSTYLE_DIMANGULAR_EXT
 70
     0
  0
APPID
  2
GENIUS_GENOBJ-N-FIL_13
 70
     0
  0
APPID
  2
ACAD_DSTYLE_DIM_LINETYPE
 70
     0
  0
APPID
  2
ACAD_DSTYLE_DIM_EXT1_LINETYPE
 70
     0
  0
APPID
  2
ACAD_DSTYLE_DIM_EXT2_LINETYPE
 70
     0
  0
ENDTAB
  0
TABLE
  2
DIMSTYLE
 70
     1
  0
DIMSTYLE
  2
TSK
 70
     0
  3

  4
"
  5
OPEN
  6

  7

 40
1.0
 41
3.0
 42
1.0
 43
10.0
 44
1.0
 45
0.0
 46
0.0
 47
0.1
 48
0.1
140
3.0
141
0.0
142
0.0
143
0.0393701
144
1.0
145
0.0
146
0.71
147
1.5
 71
     0
 72
     0
 73
     0
 74
     0
 75
     0
 76
     0
 77
     3
 78
     8
170
     0
171
     2
172
     1
173
     0
174
     0
175
     0
176
   256
177
   256
178
     2
  0
ENDTAB
  0
ENDSEC
  0
SECTION
  2
BLOCKS
  0
BLOCK
  8
0
  2
$MODEL_SPACE
 70
     0
 10
0.0
 20
0.0
 30
0.0
  3
$MODEL_SPACE
  1

  0
ENDBLK
  5
21
  8
0
  0
BLOCK
 67
     1
  8
0
  2
$PAPER_SPACE
 70
     0
 10
0.0
 20
0.0
 30
0.0
  3
$PAPER_SPACE
  1

  0
ENDBLK
  5
1D
 67
     1
  8
0
  0
BLOCK
  8
0
  2
_OPEN
 70
     0
 10
0.0
 20
0.0
 30
0.0
  3
_OPEN
  1

  0
LINE
  5
15A
  8
0
  6
BYBLOCK
 62
     0
 10
-1.0
 20
0.1666666666666666
 30
0.0
 11
0.0
 21
0.0
 31
0.0
  0
LINE
  5
15B
  8
0
  6
BYBLOCK
 62
     0
 10
-1.0
 20
-0.1666666666666666
 30
0.0
 11
0.0
 21
0.0
 31
0.0
  0
LINE
  5
15C
  8
0
  6
BYBLOCK
 62
     0
 10
0.0
 20
0.0
 30
0.0
 11
-1.0
 21
0.0
 31
0.0
  0
ENDBLK
  5
15E
  8
0
  0
ENDSEC
  0
SECTION
  2
ENTITIES
  0
LINE
  5
304F
  8
0
 10
1219.701249576935
 20
-37.499999999997272
 30
0.0
 11
1219.7012495769341
 21
37.500000000002267
 31
0.0
  0
LINE
  5
3050
  8
0
 10
1215.201249576935
 20
-37.499999999997272
 30
0.0
 11
1215.2012495769341
 21
37.500000000002267
 31
0.0
  0
LINE
  5
3051
  8
0
 10
1210.7012495769361
 20
-37.499999999997272
 30
0.0
 11
1210.7012495769341
 21
37.500000000002267
 31
0.0
  0
LINE
  5
3052
  8
0
 10
1224.2012495769341
 20
-37.499999999997272
 30
0.0
 11
1224.201249576932
 21
37.500000000002267
 31
0.0
  0
LINE
  5
3053
  8
0
 10
1228.701249576937
 20
-37.499999999997272
 30
0.0
 11
1228.701249576937
 21
37.500000000002267
 31
0.0
  0
LINE
  5
3054
  8
0
 10
1233.2012495769341
 20
-37.499999999997272
 30
0.0
 11
1233.201249576932
 21
37.500000000002267
 31
0.0
  0
LINE
  5
3055
  8
0
 10
1198.7512495769331
 20
-31.040918148760738
 30
0.0
 11
1202.480402222465
 21
-37.499999999997719
 31
0.0
  0
LINE
  5
3056
  8
0
 10
1202.480402222465
 20
-37.499999999997719
 30
0.0
 11
1268.422096931404
 21
-37.499999999997719
 31
0.0
  0
LINE
  5
3057
  8
0
 10
1198.7512495769331
 20
-31.040918148760738
 30
0.0
 11
1198.7512495769331
 21
31.040918148761651
 31
0.0
  0
LINE
  5
3058
  8
0
 10
1205.7512495769331
 20
-37.499999999997719
 30
0.0
 11
1205.7512495769331
 21
37.500000000002267
 31
0.0
  0
LINE
  5
3059
  8
0
 10
1198.7512495769331
 20
31.040918148761651
 30
0.0
 11
1202.480402222465
 21
37.500000000002267
 31
0.0
  0
LINE
  5
305A
  8
0
 10
1202.480402222465
 20
37.500000000002267
 30
0.0
 11
1268.4220969314019
 21
37.500000000002267
 31
0.0
  0
LINE
  5
305C
  8
0
 10
1202.480402222465
 20
-37.499999999994081
 30
0.0
 11
1202.480402222465
 21
37.500000000002267
 31
0.0
  0
LINE
  5
305D
  8
0
 10
1272.1512495769341
 20
-31.040918148760738
 30
0.0
 11
1268.422096931404
 21
-37.499999999997719
 31
0.0
  0
LINE
  5
305E
  8
0
 10
1272.1512495769341
 20
-31.040918148760738
 30
0.0
 11
1272.1512495769341
 21
31.040918148761651
 31
0.0
  0
LINE
  5
305F
  8
0
 10
1272.1512495769341
 20
31.040918148761651
 30
0.0
 11
1268.4220969314019
 21
37.500000000002267
 31
0.0
  0
LINE
  5
3060
  8
0
 10
1268.4220969314019
 20
-37.499999999994081
 30
0.0
 11
1268.4220969314019
 21
37.500000000002267
 31
0.0
  0
LINE
  5
3061
  8
0
 10
1251.201249576932
 20
-37.499999999997272
 30
0.0
 11
1251.2012495769341
 21
37.500000000002267
 31
0.0
  0
LINE
  5
3062
  8
0
 10
1255.701249576932
 20
-37.499999999997272
 30
0.0
 11
1255.7012495769341
 21
37.500000000002267
 31
0.0
  0
LINE
  5
3063
  8
0
 10
1260.201249576932
 20
-37.499999999997272
 30
0.0
 11
1260.2012495769341
 21
37.500000000002267
 31
0.0
  0
LINE
  5
3064
  8
0
 10
1246.7012495769341
 20
-37.499999999997272
 30
0.0
 11
1246.701249576935
 21
37.500000000002267
 31
0.0
  0
LINE
  5
3065
  8
0
 10
1242.20124957693
 20
-37.499999999997272
 30
0.0
 11
1242.20124957693
 21
37.500000000002267
 31
0.0
  0
LINE
  5
3066
  8
0
 10
1237.7012495769341
 20
-37.499999999997272
 30
0.0
 11
1237.701249576935
 21
37.500000000002267
 31
0.0
  0
LINE
  5
3067
  8
0
 10
1265.1512495769341
 20
-37.499999999997719
 30
0.0
 11
1265.1512495769341
 21
37.500000000002267
 31
0.0
  0
ARC
  5
30AF
  8
0
 10
234.45124933851361
 20
-48.0
 30
0.0
 40
7.0
 50
132.20616791857009
 51
171.78674173948309
  0
ARC
  5
30B0
  8
0
 10
234.45124933851361
 20
-48.0
 30
0.0
 40
7.0
 50
188.21320240122751
 51
231.7867959184548
  0
ARC
  5
30B1
  8
0
 10
234.45124933851361
 20
-48.0
 30
0.0
 40
7.0
 50
248.2131224893802
 51
291.78687751061972
  0
ARC
  5
30B2
  8
0
 10
234.45124933851361
 20
-48.0
 30
0.0
 40
7.0
 50
308.21320408154509
 51
351.78679759877252
  0
ARC
  5
30B3
  8
0
 10
234.45124933851361
 20
-48.0
 30
0.0
 40
7.0
 50
8.2132582605168114
 51
47.793826811964429
  0
ARC
  5
30B4
  8
0
 10
234.45124933851361
 20
48.0
 30
0.0
 40
7.0
 50
312.12875643080048
 51
351.7867417394832
  0
ARC
  5
30B5
  8
0
 10
234.45124933851361
 20
48.0
 30
0.0
 40
7.0
 50
8.2132024012274858
 51
51.786795918454878
  0
ARC
  5
30B6
  8
0
 10
234.45124933851361
 20
48.0
 30
0.0
 40
7.0
 50
68.213122489380268
 51
111.7868775106197
  0
ARC
  5
30B7
  8
0
 10
234.45124933851361
 20
48.0
 30
0.0
 40
7.0
 50
128.21320408154509
 51
171.78679759877241
  0
LINE
  5
30B8
  8
0
 10
1219.701249576935
 20
374.17147954932079
 30
0.0
 11
1219.7012495769341
 21
449.17147954932079
 31
0.0
  0
LINE
  5
30B9
  8
0
 10
1215.201249576935
 20
374.17147954932079
 30
0.0
 11
1215.2012495769341
 21
449.17147954932079
 31
0.0
  0
LINE
  5
30BA
  8
0
 10
1210.7012495769361
 20
374.17147954932079
 30
0.0
 11
1210.7012495769341
 21
449.17147954932079
 31
0.0
  0
LINE
  5
30BB
  8
0
 10
1224.2012495769341
 20
374.17147954932079
 30
0.0
 11
1224.201249576932
 21
449.17147954932079
 31
0.0
  0
LINE
  5
30BC
  8
0
 10
1228.701249576937
 20
374.17147954932079
 30
0.0
 11
1228.701249576937
 21
449.17147954932079
 31
0.0
  0
LINE
  5
30BD
  8
0
 10
1233.2012495769341
 20
374.17147954932079
 30
0.0
 11
1233.201249576932
 21
449.17147954932079
 31
0.0
  0
LINE
  5
30BE
  8
0
 10
1198.7512495769331
 20
380.63056140055772
 30
0.0
 11
1202.480402222465
 21
374.17147954932079
 31
0.0
  0
LINE
  5
30BF
  8
0
 10
1202.480402222465
 20
374.17147954932079
 30
0.0
 11
1268.422096931404
 21
374.17147954932079
 31
0.0
  0
LINE
  5
30C0
  8
0
 10
1198.7512495769331
 20
380.63056140055772
 30
0.0
 11
1198.7512495769331
 21
442.71239769808011
 31
0.0
  0
LINE
  5
30C1
  8
0
 10
1205.7512495769331
 20
374.17147954932079
 30
0.0
 11
1205.7512495769331
 21
449.17147954932079
 31
0.0
  0
LINE
  5
30C2
  8
0
 10
1198.7512495769331
 20
442.71239769808011
 30
0.0
 11
1202.480402222465
 21
449.17147954932079
 31
0.0
  0
LINE
  5
30C3
  8
0
 10
1202.480402222465
 20
449.17147954932079
 30
0.0
 11
1268.4220969314019
 21
449.17147954932079
 31
0.0
  0
LINE
  5
30C5
  8
0
 10
1202.480402222465
 20
374.17147954932437
 30
0.0
 11
1202.480402222465
 21
449.17147954932079
 31
0.0
  0
LINE
  5
30C6
  8
0
 10
1272.1512495769341
 20
380.63056140055772
 30
0.0
 11
1268.422096931404
 21
374.17147954932079
 31
0.0
  0
LINE
  5
30C7
  8
0
 10
1272.1512495769341
 20
380.63056140055772
 30
0.0
 11
1272.1512495769341
 21
442.71239769808011
 31
0.0
  0
LINE
  5
30C8
  8
0
 10
1272.1512495769341
 20
442.71239769808011
 30
0.0
 11
1268.4220969314019
 21
449.17147954932079
 31
0.0
  0
LINE
  5
30C9
  8
0
 10
1268.4220969314019
 20
374.17147954932437
 30
0.0
 11
1268.4220969314019
 21
449.17147954932079
 31
0.0
  0
LINE
  5
30CA
  8
0
 10
1251.201249576932
 20
374.17147954932079
 30
0.0
 11
1251.2012495769341
 21
449.17147954932079
 31
0.0
  0
LINE
  5
30CB
  8
0
 10
1255.701249576932
 20
374.17147954932079
 30
0.0
 11
1255.7012495769341
 21
449.17147954932079
 31
0.0
  0
LINE
  5
30CC
  8
0
 10
1260.201249576932
 20
374.17147954932079
 30
0.0
 11
1260.2012495769341
 21
449.17147954932079
 31
0.0
  0
LINE
  5
30CD
  8
0
 10
1246.7012495769341
 20
374.17147954932079
 30
0.0
 11
1246.701249576935
 21
449.17147954932079
 31
0.0
  0
LINE
  5
30CE
  8
0
 10
1242.20124957693
 20
374.17147954932079
 30
0.0
 11
1242.20124957693
 21
449.17147954932079
 31
0.0
  0
LINE
  5
30CF
  8
0
 10
1237.7012495769341
 20
374.17147954932079
 30
0.0
 11
1237.701249576935
 21
449.17147954932079
 31
0.0
  0
LINE
  5
30D0
  8
0
 10
1265.1512495769341
 20
374.17147954932079
 30
0.0
 11
1265.1512495769341
 21
449.17147954932079
 31
0.0
  0
ARC
  5
30D1
  8
0
 10
2241.4512495769359
 20
432.1714795493171
 30
0.0
 40
1.0
 50
0.0
 51
90.000005008833185
  0
ARC
  5
30D2
  8
0
 10
2231.4512495769359
 20
432.1714795493171
 30
0.0
 40
1.0
 50
89.999989999842668
 51
179.99999600002039
  0
ARC
  5
30D3
  8
0
 10
2233.201249576935
 20
423.52348454931769
 30
0.0
 40
7.6479949999999981
 50
64.852620000101439
 51
115.14737199976651
  0
ARC
  5
30D4
  8
0
 10
2239.7012495769359
 20
423.52348454931769
 30
0.0
 40
7.6479949999999981
 50
64.852630000094493
 51
115.14737199976651
  0
ARC
  5
30D5
  8
0
 10
2233.201249576935
 20
432.3194745493164
 30
0.0
 40
7.6479949999999981
 50
244.85263000009451
 51
295.14736999990549
  0
ARC
  5
30D6
  8
0
 10
2239.7012495769359
 20
432.3194745493164
 30
0.0
 40
7.6479949999999981
 50
244.85263000009451
 51
295.14736999990549
  0
ARC
  5
30D7
  8
0
 10
2239.7012495769359
 20
400.81947454931651
 30
0.0
 40
7.647994500000002
 50
244.85263000009451
 51
295.14736999990549
  0
ARC
  5
30D8
  8
0
 10
2233.201249576935
 20
400.81947454931651
 30
0.0
 40
7.647994500000002
 50
244.85263000009451
 51
295.14736999990549
  0
ARC
  5
30DA
  8
0
 10
234.45124933851361
 20
48.0
 30
0.0
 40
7.0
 50
188.2132582605168
 51
227.87124883138
  0
LINE
  5
30DB
  8
0
 10
2229.2012495769368
 20
386.27147954931928
 30
0.0
 11
2208.557203732345
 21
386.27147954931792
 31
0.0
  0
LINE
  5
30DC
  8
0
 10
2094.3452954215222
 20
386.27147954931888
 30
0.0
 11
1272.110879376319
 21
386.27147954931928
 31
0.0
  0
LINE
  5
30DD
  8
0
 10
2229.2012495769368
 20
437.07147954931861
 30
0.0
 11
2208.557203732345
 21
437.07147954931861
 31
0.0
  0
LINE
  5
30DE
  8
0
 10
2094.3452954215222
 20
437.07147954931861
 30
0.0
 11
1272.110879376319
 21
437.07147954931861
 31
0.0
  0
LINE
  5
30DF
  8
0
 10
2257.4512495769341
 20
386.32147954931861
 30
0.0
 11
2257.4512495769359
 21
437.02147954931752
 31
0.0
  0
LINE
  5
30E0
  8
0
 10
2243.7012495769359
 20
386.32147954931861
 30
0.0
 11
2257.4512495769341
 21
386.32147954931861
 31
0.0
  0
LINE
  5
30E1
  8
0
 10
2243.7012495769341
 20
437.02147954931752
 30
0.0
 11
2257.4512495769359
 21
437.02147954931752
 31
0.0
  0
LINE
  5
30E2
  8
0
 10
2229.2012495769359
 20
380.81698230823622
 30
0.0
 11
2229.2012495769359
 21
442.6714795493171
 31
0.0
  0
LINE
  5
30E3
  8
0
 10
2243.7012495769359
 20
380.81698359366959
 30
0.0
 11
2243.7012495769359
 21
442.6714795493171
 31
0.0
  0
LINE
  5
30E4
  8
0
 10
2231.749041216799
 20
449.6714795493171
 30
0.0
 11
2231.750392134777
 21
433.1714795493171
 31
0.0
  0
LINE
  5
30E5
  8
0
 10
2231.753655768523
 20
393.30972807970278
 30
0.0
 11
2231.7552636268501
 21
373.67148005877152
 31
0.0
  0
LINE
  5
30E6
  8
0
 10
2241.1534579370718
 20
449.6714795493171
 30
0.0
 11
2241.152107019092
 21
433.1714795493171
 31
0.0
  0
LINE
  5
30E7
  8
0
 10
2241.148843385346
 20
393.30972807970278
 30
0.0
 11
2241.1472355270189
 21
373.67148005877152
 31
0.0
  0
LINE
  5
30E8
  8
0
 10
2229.4512495769359
 20
408.6714795493171
 30
0.0
 11
2243.451249576935
 21
408.6714795493171
 31
0.0
  0
LINE
  5
30E9
  8
0
 10
2229.4512495769359
 20
398.6714795493171
 30
0.0
 11
2243.451249576935
 21
398.6714795493171
 31
0.0
  0
LINE
  5
30EA
  8
0
 10
2229.4512495769359
 20
414.67147954931721
 30
0.0
 11
2243.451249576935
 21
414.67147954931721
 31
0.0
  0
LINE
  5
30EB
  8
0
 10
2229.4512495769359
 20
424.6714795493171
 30
0.0
 11
2243.451249576935
 21
424.6714795493171
 31
0.0
  0
LINE
  5
30EC
  8
0
 10
2229.4512495769359
 20
398.6714795493171
 30
0.0
 11
2229.4512495769359
 21
408.6714795493171
 31
0.0
  0
LINE
  5
30ED
  8
0
 10
2229.4512495769359
 20
424.6714795493171
 30
0.0
 11
2229.4512495769359
 21
414.67147954931721
 31
0.0
  0
LINE
  5
30EE
  8
0
 10
2232.451249576935
 20
414.67147954931721
 30
0.0
 11
2232.451249576935
 21
408.6714795493171
 31
0.0
  0
LINE
  5
30EF
  8
0
 10
2240.4512495769359
 20
414.67147954931721
 30
0.0
 11
2240.4512495769359
 21
408.6714795493171
 31
0.0
  0
LINE
  5
30F0
  8
0
 10
2240.4512495769359
 20
438.6714795493171
 30
0.0
 11
2240.4512495769359
 21
433.1714795493171
 31
0.0
  0
LINE
  5
30F1
  8
0
 10
2241.4512495769359
 20
433.1714795493171
 30
0.0
 11
2231.4512495769359
 21
433.1714795493171
 31
0.0
  0
LINE
  5
30F2
  8
0
 10
2240.4512495769359
 20
438.6714795493171
 30
0.0
 11
2232.451249576935
 21
438.6714795493171
 31
0.0
  0
LINE
  5
30F3
  8
0
 10
2242.451249576935
 20
432.1714795493171
 30
0.0
 11
2242.451249576935
 21
431.17147954931721
 31
0.0
  0
LINE
  5
30F4
  8
0
 10
2230.451249576935
 20
432.1714795493171
 30
0.0
 11
2230.451249576935
 21
431.17147954931721
 31
0.0
  0
LINE
  5
30F5
  8
0
 10
2229.9512495769359
 20
431.17147954931721
 30
0.0
 11
2242.9512495769359
 21
431.17147954931721
 31
0.0
  0
LINE
  5
30F6
  8
0
 10
2229.9512495769359
 20
431.17147954931721
 30
0.0
 11
2229.9512495769359
 21
424.6714795493171
 31
0.0
  0
LINE
  5
30F7
  8
0
 10
2242.9512495769359
 20
431.17147954931721
 30
0.0
 11
2242.9512495769359
 21
424.6714795493171
 31
0.0
  0
LINE
  5
30F8
  8
0
 10
2232.451249576935
 20
438.6714795493171
 30
0.0
 11
2232.451249576935
 21
433.1714795493171
 31
0.0
  0
LINE
  5
30F9
  8
0
  6
CENTER
 10
2236.451249576935
 20
440.32281454931581
 30
0.0
 11
2236.451249576935
 21
389.84375354931763
 31
0.0
  0
LINE
  5
30FA
  8
0
 10
2239.7012495769359
 20
393.1714795493171
 30
0.0
 11
2233.201249576935
 21
393.1714795493171
 31
0.0
  0
LINE
  5
30FB
  8
0
 10
2242.9512495769359
 20
393.89637354931619
 30
0.0
 11
2242.9512495769359
 21
398.6714795493171
 31
0.0
  0
LINE
  5
30FC
  8
0
 10
2229.9512495769359
 20
393.89637354931619
 30
0.0
 11
2229.9512495769359
 21
398.6714795493171
 31
0.0
  0
LINE
  5
30FD
  8
0
 10
2243.451249576935
 20
398.6714795493171
 30
0.0
 11
2243.451249576935
 21
408.6714795493171
 31
0.0
  0
LINE
  5
30FE
  8
0
 10
2243.451249576935
 20
424.6714795493171
 30
0.0
 11
2243.451249576935
 21
414.67147954931721
 31
0.0
  0
LINE
  5
30FF
  8
AM_0_T3
 10
2231.749041216799
 20
449.6714795493171
 30
0.0
 11
2241.1534579370718
 21
449.6714795493171
 31
0.0
  0
LINE
  5
3100
  8
AM_0_T3
 10
2229.2012495769359
 20
442.6714795493171
 30
0.0
 11
2231.749041216799
 21
449.6714795493171
 31
0.0
  0
LINE
  5
3101
  8
AM_0_T3
 10
2241.1534579370718
 20
449.6714795493171
 30
0.0
 11
2243.7012495769359
 21
442.6714795493171
 31
0.0
  0
LINE
  5
3102
  8
AM_0_T3
 10
2231.749041216799
 20
373.67147954931892
 30
0.0
 11
2241.1534579370718
 21
373.67147954931892
 31
0.0
  0
LINE
  5
3103
  8
AM_0_T3
 10
2229.2012495769359
 20
380.67147954931892
 30
0.0
 11
2231.749041216799
 21
373.67147954931892
 31
0.0
  0
LINE
  5
3104
  8
AM_0_T3
 10
2241.1534579370718
 20
373.67147954931892
 30
0.0
 11
2243.7012495769359
 21
380.67147954931892
 31
0.0
  0
LINE
  5
310A
  8
0
 10
241.70124957693039
 20
25.399999999999629
 30
0.0
 11
1198.791619777548
 21
25.399999999999629
 31
0.0
  0
LINE
  5
310D
  8
0
 10
213.451249576934
 20
25.35000000000036
 30
0.0
 11
213.45124957693221
 21
-25.349999999998541
 31
0.0
  0
LINE
  5
310E
  8
0
 10
227.20124957693221
 20
25.35000000000036
 30
0.0
 11
213.451249576934
 21
25.35000000000036
 31
0.0
  0
LINE
  5
310F
  8
0
 10
227.201249576934
 20
-25.349999999998541
 30
0.0
 11
213.45124957693221
 21
-25.349999999998541
 31
0.0
  0
LINE
  5
3110
  8
0
 10
238.20402573851419
 20
-54.49999600000001
 30
0.0
 11
230.6984715385133
 21
-54.49999600000001
 31
0.0
  0
LINE
  5
3111
  8
0
 10
230.69847233851209
 20
-54.499999000000123
 30
0.0
 11
226.94569513851269
 21
-47.999998000000232
 31
0.0
  0
LINE
  5
3112
  8
0
 10
226.9456945385154
 20
-47.999998000000232
 30
0.0
 11
230.69847163851401
 21
-41.499996999999887
 31
0.0
  0
LINE
  5
3113
  8
0
 10
230.6984715385133
 20
-41.5
 30
0.0
 11
238.20402573851419
 21
-41.5
 31
0.0
  0
LINE
  5
3114
  8
0
 10
241.95680413851181
 20
-47.999998000000232
 30
0.0
 11
238.2040270385132
 21
-41.499996999999887
 31
0.0
  0
LINE
  5
3115
  8
0
 10
238.20402633851509
 20
-54.499999000000123
 30
0.0
 11
241.95680353851449
 21
-47.999998000000232
 31
0.0
  0
LINE
  5
3116
  8
0
 10
230.69847293851299
 20
54.49999600000001
 30
0.0
 11
238.20402713851399
 21
54.49999600000001
 31
0.0
  0
LINE
  5
3117
  8
0
 10
238.20402633851509
 20
54.499999000000123
 30
0.0
 11
241.95680353851449
 21
47.999997999999771
 31
0.0
  0
LINE
  5
3118
  8
0
 10
241.95680413851181
 20
47.999997999999771
 30
0.0
 11
238.2040270385132
 21
41.499996999999887
 31
0.0
  0
LINE
  5
3119
  8
0
 10
226.9456945385154
 20
47.999997999999771
 30
0.0
 11
230.69847163851401
 21
41.499996999999887
 31
0.0
  0
LINE
  5
311A
  8
0
 10
230.69847233851209
 20
54.499999000000123
 30
0.0
 11
226.94569513851269
 21
47.999997999999771
 31
0.0
  0
LINE
  5
311B
  8
0
 10
238.20402713851399
 20
41.5
 30
0.0
 11
230.69847293851299
 21
41.5
 31
0.0
  0
LINE
  5
311C
  8
0
  6
CENTER
 10
244.45124933851361
 20
48.0
 30
0.0
 11
224.45124933851361
 21
48.0
 31
0.0
  0
LINE
  5
311D
  8
0
  6
CENTER
 10
234.451249100095
 20
58.0
 30
0.0
 11
234.451249100095
 21
38.0
 31
0.0
  0
LINE
  5
311E
  8
0
  6
CENTER
 10
244.45124933851361
 20
-48.0
 30
0.0
 11
224.45124933851361
 21
-48.0
 31
0.0
  0
LINE
  5
311F
  8
0
  6
CENTER
 10
234.45124957693221
 20
-38.0
 30
0.0
 11
234.45124957693221
 21
-58.0
 31
0.0
  0
LINE
  5
3120
  8
0
 10
241.70124957693221
 20
30.85449724108275
 30
0.0
 11
241.70124957693221
 21
-30.854497241083202
 31
0.0
  0
LINE
  5
3121
  8
0
 10
227.20124957693221
 20
30.854495955648868
 30
0.0
 11
227.20124957693221
 21
-30.854495955648868
 31
0.0
  0
LINE
  5
3122
  8
0
 10
239.1538521492202
 20
-42.814874465865159
 30
0.0
 11
239.14684183466849
 21
42.808525150782309
 31
0.0
  0
LINE
  5
3123
  8
0
 10
229.74864700468061
 20
-42.814874033369499
 30
0.0
 11
229.75565731916319
 21
42.80852471952312
 31
0.0
  0
LINE
  5
3124
  8
0
 10
239.1534482263323
 20
-37.881393849751468
 30
0.0
 11
241.70124957693221
 21
-30.854497241083202
 31
0.0
  0
LINE
  5
3125
  8
0
 10
229.74905093318921
 20
-37.88139362553283
 30
0.0
 11
227.20124957693221
 21
-30.854495955648868
 31
0.0
  0
LINE
  5
3126
  8
0
 10
239.15327021204391
 20
-35.707142142714467
 30
0.0
 11
229.74922894182049
 21
-35.707142142714467
 31
0.0
  0
LINE
  5
3127
  8
0
 10
239.1534482263323
 20
37.881393849751468
 30
0.0
 11
241.70124957693221
 21
30.85449724108275
 31
0.0
  0
LINE
  5
3128
  8
0
 10
229.74905093318921
 20
37.88139362553283
 30
0.0
 11
227.20124957693221
 21
30.854495955648868
 31
0.0
  0
LINE
  5
3129
  8
0
 10
239.15327021204391
 20
35.707142142714019
 30
0.0
 11
229.74922894182049
 21
35.707142142714019
 31
0.0
  0
ARC
  5
3131
  8
0
 10
229.45124957693221
 20
432.1714795493171
 30
0.0
 40
1.0
 50
89.999994991166815
 51
180.0
  0
ARC
  5
3132
  8
0
 10
239.45124957693221
 20
432.1714795493171
 30
0.0
 40
1.0
 50
0.0000039999795585
 51
90.000010000157346
  0
ARC
  5
3133
  8
0
 10
237.70124957693221
 20
423.52348454931769
 30
0.0
 40
7.6479949999999981
 50
64.852628000233466
 51
115.14737999988741
  0
ARC
  5
3134
  8
0
 10
231.20124957693221
 20
423.52348454931769
 30
0.0
 40
7.6479949999999981
 50
64.852628000233466
 51
115.14736999990539
  0
ARC
  5
3135
  8
0
 10
237.70124957693221
 20
432.3194745493164
 30
0.0
 40
7.6479949999999981
 50
244.85263000009451
 51
295.14736999990549
  0
ARC
  5
3136
  8
0
 10
231.20124957693221
 20
432.3194745493164
 30
0.0
 40
7.6479949999999981
 50
244.85263000009451
 51
295.14736999990549
  0
ARC
  5
3137
  8
0
 10
231.20124957693221
 20
400.81947454931651
 30
0.0
 40
7.647994500000002
 50
244.85263000009451
 51
295.14736999990549
  0
ARC
  5
3138
  8
0
 10
237.70124957693221
 20
400.81947454931651
 30
0.0
 40
7.647994500000002
 50
244.85263000009451
 51
295.14736999990549
  0
LINE
  5
313D
  8
0
 10
241.70124957693039
 20
386.27147954931928
 30
0.0
 11
1198.791619777548
 21
386.27147954931928
 31
0.0
  0
LINE
  5
313E
  8
0
 10
241.70124957693039
 20
437.07147954931861
 30
0.0
 11
1198.791619777548
 21
437.07147954931861
 31
0.0
  0
LINE
  5
313F
  8
0
 10
213.451249576934
 20
386.32147954931861
 30
0.0
 11
213.45124957693221
 21
437.02147954931752
 31
0.0
  0
LINE
  5
3140
  8
0
 10
227.20124957693221
 20
386.32147954931861
 30
0.0
 11
213.451249576934
 21
386.32147954931861
 31
0.0
  0
LINE
  5
3141
  8
0
 10
227.201249576934
 20
437.02147954931752
 30
0.0
 11
213.45124957693221
 21
437.02147954931752
 31
0.0
  0
LINE
  5
3142
  8
0
 10
241.70124957693221
 20
380.81698230823622
 30
0.0
 11
241.70124957693221
 21
442.6714795493171
 31
0.0
  0
LINE
  5
3143
  8
0
 10
227.20124957693221
 20
380.81698359366959
 30
0.0
 11
227.20124957693221
 21
442.6714795493171
 31
0.0
  0
LINE
  5
3144
  8
0
 10
239.15345793706911
 20
449.6714795493171
 30
0.0
 11
239.1521070190901
 21
433.1714795493171
 31
0.0
  0
LINE
  5
3145
  8
0
 10
239.14884338534461
 20
393.30972807970278
 30
0.0
 11
239.1472355270179
 21
373.67148005877152
 31
0.0
  0
LINE
  5
3146
  8
0
 10
229.74904121679529
 20
449.6714795493171
 30
0.0
 11
229.75039213477609
 21
433.1714795493171
 31
0.0
  0
LINE
  5
3147
  8
0
 10
229.75365576852161
 20
393.30972807970278
 30
0.0
 11
229.75526362684829
 21
373.67148005877152
 31
0.0
  0
LINE
  5
3148
  8
0
 10
241.45124957693221
 20
408.6714795493171
 30
0.0
 11
227.45124957693221
 21
408.6714795493171
 31
0.0
  0
LINE
  5
3149
  8
0
 10
241.45124957693221
 20
398.6714795493171
 30
0.0
 11
227.45124957693221
 21
398.6714795493171
 31
0.0
  0
LINE
  5
314A
  8
0
 10
241.45124957693221
 20
414.67147954931721
 30
0.0
 11
227.45124957693221
 21
414.67147954931721
 31
0.0
  0
LINE
  5
314B
  8
0
 10
241.45124957693221
 20
424.6714795493171
 30
0.0
 11
227.45124957693221
 21
424.6714795493171
 31
0.0
  0
LINE
  5
314C
  8
0
 10
241.45124957693221
 20
398.6714795493171
 30
0.0
 11
241.45124957693221
 21
408.6714795493171
 31
0.0
  0
LINE
  5
314D
  8
0
 10
241.45124957693221
 20
424.6714795493171
 30
0.0
 11
241.45124957693221
 21
414.67147954931721
 31
0.0
  0
LINE
  5
314E
  8
0
 10
238.45124957693221
 20
414.67147954931721
 30
0.0
 11
238.45124957693221
 21
408.6714795493171
 31
0.0
  0
LINE
  5
314F
  8
0
 10
230.45124957693221
 20
414.67147954931721
 30
0.0
 11
230.45124957693221
 21
408.6714795493171
 31
0.0
  0
LINE
  5
3150
  8
0
 10
230.45124957693221
 20
438.6714795493171
 30
0.0
 11
230.45124957693221
 21
433.1714795493171
 31
0.0
  0
LINE
  5
3151
  8
0
 10
229.45124957693221
 20
433.1714795493171
 30
0.0
 11
239.45124957693221
 21
433.1714795493171
 31
0.0
  0
LINE
  5
3152
  8
0
 10
230.45124957693221
 20
438.6714795493171
 30
0.0
 11
238.45124957693221
 21
438.6714795493171
 31
0.0
  0
LINE
  5
3153
  8
0
 10
228.45124957693221
 20
432.1714795493171
 30
0.0
 11
228.45124957693221
 21
431.17147954931721
 31
0.0
  0
LINE
  5
3154
  8
0
 10
240.45124957693221
 20
432.1714795493171
 30
0.0
 11
240.45124957693221
 21
431.17147954931721
 31
0.0
  0
LINE
  5
3155
  8
0
 10
240.95124957693221
 20
431.17147954931721
 30
0.0
 11
227.95124957693221
 21
431.17147954931721
 31
0.0
  0
LINE
  5
3156
  8
0
 10
240.95124957693221
 20
431.17147954931721
 30
0.0
 11
240.95124957693221
 21
424.6714795493171
 31
0.0
  0
LINE
  5
3157
  8
0
 10
227.95124957693221
 20
431.17147954931721
 30
0.0
 11
227.95124957693221
 21
424.6714795493171
 31
0.0
  0
LINE
  5
3158
  8
0
 10
238.45124957693221
 20
438.6714795493171
 30
0.0
 11
238.45124957693221
 21
433.1714795493171
 31
0.0
  0
LINE
  5
3159
  8
0
  6
CENTER
 10
234.45124957693221
 20
440.32281454931581
 30
0.0
 11
234.45124957693221
 21
389.84375354931763
 31
0.0
  0
LINE
  5
315A
  8
0
 10
231.20124957693221
 20
393.1714795493171
 30
0.0
 11
237.70124957693221
 21
393.1714795493171
 31
0.0
  0
LINE
  5
315B
  8
0
 10
227.95124957693221
 20
393.89637354931619
 30
0.0
 11
227.95124957693221
 21
398.6714795493171
 31
0.0
  0
LINE
  5
315C
  8
0
 10
240.95124957693221
 20
393.89637354931619
 30
0.0
 11
240.95124957693221
 21
398.6714795493171
 31
0.0
  0
LINE
  5
315D
  8
0
 10
227.45124957693221
 20
398.6714795493171
 30
0.0
 11
227.45124957693221
 21
408.6714795493171
 31
0.0
  0
LINE
  5
315E
  8
0
 10
227.45124957693221
 20
424.6714795493171
 30
0.0
 11
227.45124957693221
 21
414.67147954931721
 31
0.0
  0
LINE
  5
315F
  8
AM_0_T3
 10
239.15345793706911
 20
449.6714795493171
 30
0.0
 11
229.74904121679529
 21
449.6714795493171
 31
0.0
  0
LINE
  5
3160
  8
AM_0_T3
 10
241.70124957693221
 20
442.6714795493171
 30
0.0
 11
239.15345793706911
 21
449.6714795493171
 31
0.0
  0
LINE
  5
3161
  8
AM_0_T3
 10
229.74904121679529
 20
449.6714795493171
 30
0.0
 11
227.20124957693221
 21
442.6714795493171
 31
0.0
  0
LINE
  5
3162
  8
AM_0_T3
 10
239.15345793706911
 20
373.67147954931892
 30
0.0
 11
229.74904121679529
 21
373.67147954931892
 31
0.0
  0
LINE
  5
3163
  8
AM_0_T3
 10
241.70124957693221
 20
380.67147954931892
 30
0.0
 11
239.15345793706911
 21
373.67147954931892
 31
0.0
  0
LINE
  5
3164
  8
AM_0_T3
 10
229.74904121679529
 20
373.67147954931892
 30
0.0
 11
227.20124957693221
 21
380.67147954931892
 31
0.0
  0
ARC
  5
3174
  8
0
 10
2236.451249815354
 20
48.000000000000462
 30
0.0
 40
7.0
 50
312.20616791855258
 51
351.78674173943148
  0
ARC
  5
3175
  8
0
 10
2236.451249815354
 20
48.000000000000462
 30
0.0
 40
7.0
 50
8.2132024012274858
 51
51.786795918454878
  0
ARC
  5
3176
  8
0
 10
2236.451249815354
 20
48.000000000000462
 30
0.0
 40
7.0
 50
68.213122489380268
 51
111.7868775106197
  0
ARC
  5
3177
  8
0
 10
2236.451249815354
 20
48.000000000000462
 30
0.0
 40
7.0
 50
128.21320408154509
 51
171.78679759877241
  0
ARC
  5
3178
  8
0
 10
2236.451249815354
 20
48.000000000000462
 30
0.0
 40
7.0
 50
188.21325826056841
 51
227.79382681198189
  0
ARC
  5
3179
  8
0
 10
2236.451249815354
 20
-47.999999999999538
 30
0.0
 40
7.0
 50
132.12875643080051
 51
171.78674173943159
  0
ARC
  5
317A
  8
0
 10
2236.451249815354
 20
-47.999999999999538
 30
0.0
 40
7.0
 50
188.21320240122751
 51
231.7867959184548
  0
ARC
  5
317B
  8
0
 10
2236.451249815354
 20
-47.999999999999538
 30
0.0
 40
7.0
 50
248.2131224893802
 51
291.78687751061972
  0
ARC
  5
317C
  8
0
 10
2236.451249815354
 20
-47.999999999999538
 30
0.0
 40
7.0
 50
308.21320408154509
 51
351.78679759877252
  0
ARC
  5
317E
  8
0
 10
2236.451249815354
 20
-47.999999999999538
 30
0.0
 40
7.0
 50
8.2132582605683861
 51
47.871248831380029
  0
LINE
  5
3180
  8
0
 10
2229.2012495769368
 20
-25.399999999999181
 30
0.0
 11
1272.110879376319
 21
-25.399999999999181
 31
0.0
  0
LINE
  5
3181
  8
0
 10
241.70124957693039
 20
-25.400000000000091
 30
0.0
 11
302.451249576934
 21
-25.399999999999629
 31
0.0
  0
LINE
  5
3182
  8
0
 10
336.451249576934
 20
-25.400000000000539
 30
0.0
 11
1198.791619777548
 21
-25.400000000000091
 31
0.0
  0
LINE
  5
3183
  8
0
 10
2257.4512495769341
 20
-25.349999999999451
 30
0.0
 11
2257.4512495769359
 21
25.349999999999
 31
0.0
  0
LINE
  5
3184
  8
0
 10
2243.7012495769359
 20
-25.349999999999909
 30
0.0
 11
2257.4512495769341
 21
-25.349999999999451
 31
0.0
  0
LINE
  5
3185
  8
0
 10
2243.7012495769341
 20
25.349999999999
 30
0.0
 11
2257.4512495769359
 21
25.349999999999
 31
0.0
  0
LINE
  5
3186
  8
0
 10
2232.698473415353
 20
54.499996000000472
 30
0.0
 11
2240.2040276153548
 21
54.499996000000472
 31
0.0
  0
LINE
  5
3187
  8
0
 10
2240.204026815356
 20
54.499999000000571
 30
0.0
 11
2243.9568040153549
 21
47.99999800000068
 31
0.0
  0
LINE
  5
3188
  8
0
 10
2243.9568046153522
 20
47.99999800000068
 30
0.0
 11
2240.204027515354
 21
41.499997000000349
 31
0.0
  0
LINE
  5
3189
  8
0
 10
2240.2040276153548
 20
41.500000000000448
 30
0.0
 11
2232.698473415353
 21
41.500000000000448
 31
0.0
  0
LINE
  5
318A
  8
0
 10
2228.9456950153558
 20
47.99999800000068
 30
0.0
 11
2232.6984721153549
 21
41.499997000000349
 31
0.0
  0
LINE
  5
318B
  8
0
 10
2232.6984728153529
 20
54.499999000000571
 30
0.0
 11
2228.9456956153531
 21
47.99999800000068
 31
0.0
  0
LINE
  5
318C
  8
0
 10
2240.204026215355
 20
-54.499995999999548
 30
0.0
 11
2232.6984720153541
 21
-54.499995999999548
 31
0.0
  0
LINE
  5
318D
  8
0
 10
2232.6984728153529
 20
-54.499998999999661
 30
0.0
 11
2228.9456956153531
 21
-47.999997999999323
 31
0.0
  0
LINE
  5
318E
  8
0
 10
2228.9456950153558
 20
-47.999997999999323
 30
0.0
 11
2232.6984721153549
 21
-41.499996999999439
 31
0.0
  0
LINE
  5
318F
  8
0
 10
2243.9568046153522
 20
-47.999997999999323
 30
0.0
 11
2240.204027515354
 21
-41.499996999999439
 31
0.0
  0
LINE
  5
3190
  8
0
 10
2240.204026815356
 20
-54.499998999999661
 30
0.0
 11
2243.9568040153549
 21
-47.999997999999323
 31
0.0
  0
LINE
  5
3191
  8
0
 10
2232.6984720153541
 20
-41.499999999999552
 30
0.0
 11
2240.204026215355
 21
-41.499999999999552
 31
0.0
  0
LINE
  5
3192
  8
0
  6
CENTER
 10
2226.451249815354
 20
-47.999999999999538
 30
0.0
 11
2246.451249815354
 21
-47.999999999999538
 31
0.0
  0
LINE
  5
3193
  8
0
  6
CENTER
 10
2236.451250053773
 20
-57.999999999999538
 30
0.0
 11
2236.451250053773
 21
-37.999999999999538
 31
0.0
  0
LINE
  5
3194
  8
0
  6
CENTER
 10
2226.451249815354
 20
48.000000000000462
 30
0.0
 11
2246.451249815354
 21
48.000000000000462
 31
0.0
  0
LINE
  5
3195
  8
0
  6
CENTER
 10
2236.451249576935
 20
38.000000000000448
 30
0.0
 11
2236.451249576935
 21
58.000000000000462
 31
0.0
  0
LINE
  5
3196
  8
0
 10
2229.2012495769359
 20
-30.854497241082289
 30
0.0
 11
2229.2012495769359
 21
30.85449724108366
 31
0.0
  0
LINE
  5
3197
  8
0
 10
2243.7012495769359
 20
-30.85449595564841
 30
0.0
 11
2243.7012495769359
 21
30.85449595564933
 31
0.0
  0
LINE
  5
3198
  8
0
 10
2231.7486470046479
 20
42.814874465865607
 30
0.0
 11
2231.7556573191991
 21
-42.808525150781861
 31
0.0
  0
LINE
  5
3199
  8
0
 10
2241.1538521491871
 20
42.814874033369961
 30
0.0
 11
2241.1468418347049
 21
-42.808524719522659
 31
0.0
  0
LINE
  5
319A
  8
0
 10
2231.7490509275358
 20
37.88139384975193
 30
0.0
 11
2229.2012495769359
 21
30.85449724108366
 31
0.0
  0
LINE
  5
319B
  8
0
 10
2241.153448220678
 20
37.881393625533292
 30
0.0
 11
2243.7012495769359
 21
30.85449595564933
 31
0.0
  0
LINE
  5
319C
  8
0
 10
2231.7492289418242
 20
35.707142142714929
 30
0.0
 11
2241.1532702120471
 21
35.707142142714929
 31
0.0
  0
LINE
  5
319D
  8
0
 10
2231.7490509275358
 20
-37.881393849751021
 30
0.0
 11
2229.2012495769359
 21
-30.854497241082289
 31
0.0
  0
LINE
  5
319E
  8
0
 10
2241.153448220678
 20
-37.881393625532382
 30
0.0
 11
2243.7012495769359
 21
-30.85449595564841
 31
0.0
  0
LINE
  5
319F
  8
0
 10
2231.7492289418242
 20
-35.707142142713558
 30
0.0
 11
2241.1532702120471
 21
-35.707142142713558
 31
0.0
  0
LINE
  5
3403
  8
0
 10
256.951249576934
 20
-89.999999999999545
 30
0.0
 11
256.951249576934
 21
-75.999999999999545
 31
0.0
  0
LINE
  5
3404
  8
0
  6
CENTER
 10
274.451249576934
 20
-99.000000000000455
 30
0.0
 11
274.451249576934
 21
-66.000000000000455
 31
0.0
  0
LINE
  5
3405
  8
0
  6
CENTER
 10
364.451249576934
 20
-99.000000000000455
 30
0.0
 11
364.451249576934
 21
-66.000000000000455
 31
0.0
  0
LINE
  5
3406
  8
0
 10
381.951249576934
 20
-76.000000000000455
 30
0.0
 11
381.951249576934
 21
-90.000000000000455
 31
0.0
  0
LINE
  5
3407
  8
0
 10
381.951249576934
 20
-90.000000000000455
 30
0.0
 11
256.951249576934
 21
-89.999999999999545
 31
0.0
  0
LINE
  5
3408
  8
0
 10
256.951249576934
 20
-75.999999999999545
 30
0.0
 11
381.951249576934
 21
-76.000000000000455
 31
0.0
  0
LINE
  5
340E
  8
0
 10
336.451249576934
 20
-75.999999999999545
 30
0.0
 11
336.451249576934
 21
-25.400000000000539
 31
0.0
  0
LINE
  5
340F
  8
0
 10
302.451249576934
 20
-75.999999999999545
 30
0.0
 11
302.451249576934
 21
-25.399999999999629
 31
0.0
  0
LINE
  5
3414
  8
0
  6
CENTER
 10
2133.4200266566759
 20
429.70270246957489
 30
0.0
 11
2105.8428621904018
 21
457.27986693585029
 31
0.0
  0
LINE
  5
3416
  8
0
  6
CENTER
 10
2133.4200266566759
 20
393.64025662906118
 30
0.0
 11
2105.8428621904018
 21
366.06309216278572
 31
0.0
  0
LINE
  5
3417
  8
0
  6
CENTER
 10
2169.4824724971909
 20
429.70270246957489
 30
0.0
 11
2197.059636963465
 21
457.27986693585029
 31
0.0
  0
LINE
  5
341A
  8
0
  6
CENTER
 10
2169.4824724971909
 20
393.64025662906118
 30
0.0
 11
2197.059636963465
 21
366.06309216278572
 31
0.0
  0
ARC
  5
3420
  8
AM_0_T3
 10
319.45124957693042
 20
-44.272201779340321
 30
0.0
 40
25.400000000004368
 50
47.987606487108977
 51
132.01239351289101
  0
ARC
  5
3425
  8
0
 10
319.451249576934
 20
411.67147954931801
 30
0.0
 40
62.5
 50
23.978888137745649
 51
156.02111186225429
  0
ARC
  5
3426
  8
0
  6
CENTER
 10
319.451249576934
 20
411.67147954931801
 30
0.0
 40
45.0
 50
34.363721430682837
 51
145.63627856931711
  0
ARC
  5
3427
  8
0
 10
351.27105473032861
 20
443.49128470271262
 30
0.0
 40
9.5
 50
317.4861068608048
 51
222.51389313919501
  0
LINE
  5
3428
  8
0
  6
CENTER
 10
337.48247249719128
 20
429.70270246957489
 30
0.0
 11
365.05963696346589
 21
457.27986693585029
 31
0.0
  0
ARC
  5
3429
  8
0
 10
351.27105473032861
 20
379.85167439592351
 30
0.0
 40
9.5
 50
137.4861068607857
 51
42.513893139214289
  0
LINE
  5
342A
  8
0
  6
CENTER
 10
337.48247249719128
 20
393.64025662906118
 30
0.0
 11
365.05963696346589
 21
366.06309216278572
 31
0.0
  0
LINE
  5
342B
  8
0
  6
CENTER
 10
301.42002665667673
 20
429.70270246957489
 30
0.0
 11
273.84286219040217
 21
457.27986693585029
 31
0.0
  0
ARC
  5
342C
  8
0
 10
287.63144442353939
 20
443.49128470271262
 30
0.0
 40
9.5
 50
317.4861068608048
 51
222.51389313919501
  0
ARC
  5
342D
  8
0
 10
287.63144442353939
 20
379.85167439592351
 30
0.0
 40
9.5
 50
137.4861068607857
 51
42.513893139214289
  0
LINE
  5
342E
  8
0
  6
CENTER
 10
301.42002665667673
 20
393.64025662906118
 30
0.0
 11
273.84286219040217
 21
366.06309216278572
 31
0.0
  0
ARC
  5
3432
  8
0
  6
CENTER
 10
319.451249576934
 20
411.67147954931801
 30
0.0
 40
45.0
 50
214.36372143066129
 51
325.63627856933857
  0
LINE
  5
3433
  8
0
 10
2229.2012495769368
 20
25.400000000000091
 30
0.0
 11
2168.4512495769332
 21
25.399999999999629
 31
0.0
  0
LINE
  5
3434
  8
0
 10
2134.4512495769341
 20
25.400000000000539
 30
0.0
 11
1272.110879376319
 21
25.400000000000091
 31
0.0
  0
LINE
  5
3435
  8
0
 10
2213.9512495769341
 20
89.999999999999545
 30
0.0
 11
2213.9512495769341
 21
75.999999999999545
 31
0.0
  0
LINE
  5
3436
  8
0
  6
CENTER
 10
2196.4512495769341
 20
99.000000000000455
 30
0.0
 11
2196.4512495769341
 21
66.000000000000455
 31
0.0
  0
LINE
  5
3437
  8
0
  6
CENTER
 10
2106.4512495769341
 20
99.000000000000455
 30
0.0
 11
2106.4512495769341
 21
66.000000000000455
 31
0.0
  0
LINE
  5
3438
  8
0
 10
2088.9512495769341
 20
76.000000000000455
 30
0.0
 11
2088.9512495769341
 21
90.000000000000455
 31
0.0
  0
LINE
  5
3439
  8
0
 10
2088.9512495769341
 20
90.000000000000455
 30
0.0
 11
2213.9512495769341
 21
89.999999999999545
 31
0.0
  0
LINE
  5
343A
  8
0
 10
2213.9512495769341
 20
75.999999999999545
 30
0.0
 11
2088.9512495769341
 21
76.000000000000455
 31
0.0
  0
LINE
  5
343F
  8
0
 10
2134.4512495769341
 20
75.999999999999545
 30
0.0
 11
2134.4512495769341
 21
25.400000000000539
 31
0.0
  0
LINE
  5
3440
  8
0
 10
2168.4512495769332
 20
75.999999999999545
 30
0.0
 11
2168.4512495769332
 21
25.399999999999629
 31
0.0
  0
ARC
  5
3441
  8
AM_0_T3
 10
2151.4512495769382
 20
44.272201779340321
 30
0.0
 40
25.400000000004368
 50
227.98760648699661
 51
312.0123935129858
  0
LINE
  5
34FB
  8
0
  6
CENTER
 10
2151.4512495769359
 20
327.67151673118718
 30
0.0
 11
2151.4512495769382
 21
495.67144236744969
 31
0.0
  0
LINE
  5
34FE
  8
0
  6
CENTER
 10
2151.4512495769341
 20
99.000000000000455
 30
0.0
 11
2151.4512495769341
 21
0.0
 31
0.0
  0
LINE
  5
3501
  8
0
  6
CENTER
 10
319.451249576934
 20
-98.0
 30
0.0
 11
319.451249576934
 21
0.0
 31
0.0
  0
LINE
  5
3504
  8
0
  6
CENTER
 10
319.451249576934
 20
478.17147954931801
 30
0.0
 11
319.451249576934
 21
345.17147954931801
 31
0.0
  0
ARC
  5
3506
  8
0
 10
319.451249576934
 20
411.67147954931801
 30
0.0
 40
62.5
 50
203.9788881377456
 51
336.02111186225432
  0
LINE
  5
4583
  8
0
  6
CENTER
 10
2282.59999229799
 20
411.67147954931801
 30
0.0
 11
188.30250685587811
 21
411.67147954931801
 31
0.0
  0
LINE
  5
4584
  8
0
  6
CENTER
 10
2265.4512495769368
 20
0.0
 30
0.0
 11
205.45124957693039
 21
0.0000000000004547
 31
0.0
  0
LINE
  5
4589
  8
0
 10
2272.0334226914888
 20
424.14715955495279
 30
0.0
 11
2272.0334226914888
 21
399.19579954368322
 31
0.0
  0
LINE
  5
458A
  8
0
 10
2279.4512495769341
 20
386.42147954931801
 30
0.0
 11
2279.4512495769341
 21
436.92147954931812
 31
0.0
  0
LINE
  5
458B
  8
0
 10
2276.6012495769342
 20
387.24625460762212
 30
0.0
 11
2276.6012495769351
 21
436.0967044910139
 31
0.0
  0
LINE
  5
458C
  8
0
 10
2270.6330080604739
 20
398.97147954931819
 30
0.0
 11
2257.4512505769449
 21
398.97147954931819
 31
0.0
  0
ARC
  5
458D
  8
0
 10
2270.6330080604739
 20
396.97147954931819
 30
0.0
 40
2.0
 50
20.00000000000481
 51
90.0
1001
GENIUS_GENOBJ-N-FIL_13
1002
{
1000
OWNER
1000
GEN
1002
}
1001
GENIUS_GENODEF_13
1002
{
1000
HIER
1070
     0
1002
}
1002
{
1000
MANEDIT
1070
     0
1002
}
1002
{
1000
NOSEL
1070
     0
1002
}
1002
{
1000
BEHIND
1070
     0
1002
}
1002
{
1000
OTHER
1070
     0
1002
}
1002
{
1000
REACTOR
1002
}
  0
LINE
  5
458E
  8
0
 10
2279.4512495769341
 20
386.42147954931801
 30
0.0
 11
2277.1614156075011
 21
386.42147954931801
 31
0.0
  0
LINE
  5
4590
  8
0
 10
2276.409661510871
 20
386.94786343465779
 30
0.0
 11
2272.512393302045
 21
397.65551983596919
 31
0.0
  0
ARC
  5
4591
  8
0
 10
2277.1614156075011
 20
387.22147954931819
 30
0.0
 40
0.8
 50
200.00000000000469
 51
270.0
1001
GENIUS_GENOBJ-N-FIL_13
1002
{
1000
OWNER
1000
GEN
1002
}
1001
GENIUS_GENODEF_13
1002
{
1000
HIER
1070
     0
1002
}
1002
{
1000
MANEDIT
1070
     0
1002
}
1002
{
1000
NOSEL
1070
     0
1002
}
1002
{
1000
BEHIND
1070
     0
1002
}
1002
{
1000
OTHER
1070
     0
1002
}
1002
{
1000
REACTOR
1002
}
  0
LINE
  5
4592
  8
0
 10
2270.6330080604739
 20
424.37147954931783
 30
0.0
 11
2257.4512505769449
 21
424.37147954931783
 31
0.0
  0
ARC
  5
4593
  8
0
 10
2270.6330080604739
 20
426.37147954931788
 30
0.0
 40
2.0
 50
270.0
 51
339.99999999999511
1001
GENIUS_GENOBJ-N-FIL_13
1002
{
1000
OWNER
1000
GEN
1002
}
1001
GENIUS_GENODEF_13
1002
{
1000
HIER
1070
     0
1002
}
1002
{
1000
MANEDIT
1070
     0
1002
}
1002
{
1000
NOSEL
1070
     0
1002
}
1002
{
1000
BEHIND
1070
     0
1002
}
1002
{
1000
OTHER
1070
     0
1002
}
1002
{
1000
REACTOR
1002
}
  0
LINE
  5
4594
  8
0
 10
2279.4512495769341
 20
436.92147954931812
 30
0.0
 11
2277.1614156075011
 21
436.92147954931812
 31
0.0
  0
LINE
  5
4595
  8
0
 10
2276.4096615108729
 20
436.39509566397822
 30
0.0
 11
2272.512393302045
 21
425.68743926266683
 31
0.0
  0
ARC
  5
4596
  8
0
 10
2277.1614156075011
 20
436.12147954931788
 30
0.0
 40
0.8
 50
90.0
 51
159.99999999999511
1001
GENIUS_GENOBJ-N-FIL_13
1002
{
1000
OWNER
1000
GEN
1002
}
1001
GENIUS_GENODEF_13
1002
{
1000
HIER
1070
     0
1002
}
1002
{
1000
MANEDIT
1070
     0
1002
}
1002
{
1000
NOSEL
1070
     0
1002
}
1002
{
1000
BEHIND
1070
     0
1002
}
1002
{
1000
OTHER
1070
     0
1002
}
1002
{
1000
REACTOR
1002
}
  0
TEXT
  5
463E
  8
0
 10
877.11791624360058
 20
534.28139750375885
 30
0.0
 40
50.0
  1
2SX2000L-25AX1S
 72
     4
 11
1235.4512495769341
 21
559.28139750375885
 31
0.0
  0
CIRCLE
  5
629A
  8
0
 10
2151.4512495769341
 20
411.67147954931801
 30
0.0
 40
62.5
  0
CIRCLE
  5
629B
  8
0
  6
CENTER
 10
2151.4512495769341
 20
411.67147954931801
 30
0.0
 40
45.0
  0
CIRCLE
  5
629C
  8
0
 10
2119.6314444235391
 20
443.49128470271262
 30
0.0
 40
9.5
  0
CIRCLE
  5
629D
  8
0
 10
2119.6314444235391
 20
379.85167439592351
 30
0.0
 40
9.5
  0
CIRCLE
  5
629E
  8
0
 10
2183.2710547303282
 20
443.49128470271262
 30
0.0
 40
9.5
  0
CIRCLE
  5
629F
  8
0
 10
2183.2710547303282
 20
379.85167439592351
 30
0.0
 40
9.5
  0
CIRCLE
  5
62A0
  8
AM_0_T3
 10
2151.4512495769341
 20
411.67147954931801
 30
0.0
 40
17.0
  0
LINE
  5
6388
  8
0
 10
198.86907646237881
 20
-21.325680005634229
 30
0.0
 11
198.86907646237881
 21
3.6256800056344209
 31
0.0
  0
LINE
  5
6389
  8
0
 10
191.451249576934
 20
16.400000000000091
 30
0.0
 11
191.451249576934
 21
-34.099999999999909
 31
0.0
  0
LINE
  5
638A
  8
0
 10
194.3012495769344
 20
15.57522494169643
 30
0.0
 11
194.30124957693249
 21
-33.275224941696251
 31
0.0
  0
LINE
  5
638B
  8
0
  6
CENTER
 10
188.30250685587811
 20
-8.8499999999999091
 30
0.0
 11
219.48225944314979
 21
-8.8499999999999091
 31
0.0
  0
LINE
  5
638C
  8
0
 10
200.2694910933933
 20
3.8500000000003629
 30
0.0
 11
213.45124857692269
 21
3.8500000000003629
 31
0.0
  0
ARC
  5
638D
  8
0
 10
200.2694910933933
 20
5.8500000000003629
 30
0.0
 40
2.0
 50
200.00000000008939
 51
270.0
1001
GENIUS_GENOBJ-N-FIL_13
1002
{
1000
OWNER
1000
GEN
1002
}
1001
GENIUS_GENODEF_13
1002
{
1000
HIER
1070
     0
1002
}
1002
{
1000
MANEDIT
1070
     0
1002
}
1002
{
1000
NOSEL
1070
     0
1002
}
1002
{
1000
BEHIND
1070
     0
1002
}
1002
{
1000
OTHER
1070
     0
1002
}
1002
{
1000
REACTOR
1002
}
  0
LINE
  5
638E
  8
0
 10
191.451249576934
 20
16.400000000000091
 30
0.0
 11
193.74108354636701
 21
16.400000000000091
 31
0.0
  0
LINE
  5
638F
  8
0
 10
194.49283764299611
 20
15.873616114660759
 30
0.0
 11
198.3901058518222
 21
5.1659597133484558
 31
0.0
  0
ARC
  5
6390
  8
0
 10
193.74108354636701
 20
15.60000000000036
 30
0.0
 40
0.8
 50
20.00000000000481
 51
90.0
1001
GENIUS_GENOBJ-N-FIL_13
1002
{
1000
OWNER
1000
GEN
1002
}
1001
GENIUS_GENODEF_13
1002
{
1000
HIER
1070
     0
1002
}
1002
{
1000
MANEDIT
1070
     0
1002
}
1002
{
1000
NOSEL
1070
     0
1002
}
1002
{
1000
BEHIND
1070
     0
1002
}
1002
{
1000
OTHER
1070
     0
1002
}
1002
{
1000
REACTOR
1002
}
  0
LINE
  5
6391
  8
0
 10
200.2694910933933
 20
-21.54999999999972
 30
0.0
 11
213.45124857692269
 21
-21.550000000000178
 31
0.0
  0
ARC
  5
6392
  8
0
 10
200.2694910933933
 20
-23.54999999999972
 30
0.0
 40
2.0
 50
90.0
 51
159.9999999999105
1001
GENIUS_GENOBJ-N-FIL_13
1002
{
1000
OWNER
1000
GEN
1002
}
1001
GENIUS_GENODEF_13
1002
{
1000
HIER
1070
     0
1002
}
1002
{
1000
MANEDIT
1070
     0
1002
}
1002
{
1000
NOSEL
1070
     0
1002
}
1002
{
1000
BEHIND
1070
     0
1002
}
1002
{
1000
OTHER
1070
     0
1002
}
1002
{
1000
REACTOR
1002
}
  0
LINE
  5
6393
  8
0
 10
191.451249576934
 20
-34.099999999999909
 30
0.0
 11
193.74108354636701
 21
-34.099999999999909
 31
0.0
  0
LINE
  5
6394
  8
0
 10
194.49283764299429
 20
-33.573616114660581
 30
0.0
 11
198.3901058518222
 21
-22.865959713348271
 31
0.0
  0
ARC
  5
6395
  8
0
 10
193.74108354636701
 20
-33.300000000000182
 30
0.0
 40
0.8
 50
270.0
 51
339.99999999991047
1001
GENIUS_GENOBJ-N-FIL_13
1002
{
1000
OWNER
1000
GEN
1002
}
1001
GENIUS_GENODEF_13
1002
{
1000
HIER
1070
     0
1002
}
1002
{
1000
MANEDIT
1070
     0
1002
}
1002
{
1000
NOSEL
1070
     0
1002
}
1002
{
1000
BEHIND
1070
     0
1002
}
1002
{
1000
OTHER
1070
     0
1002
}
1002
{
1000
REACTOR
1002
}
  0
LINE
  5
63F9
  8
0
 10
198.86907646237881
 20
424.14715955495279
 30
0.0
 11
198.86907646237881
 21
399.19579954368322
 31
0.0
  0
LINE
  5
63FA
  8
0
 10
191.451249576934
 20
386.42147954931801
 30
0.0
 11
191.451249576934
 21
436.92147954931812
 31
0.0
  0
LINE
  5
63FB
  8
0
 10
194.3012495769344
 20
387.24625460762212
 30
0.0
 11
194.30124957693249
 21
436.0967044910139
 31
0.0
  0
LINE
  5
63FC
  8
0
 10
200.2694910933933
 20
398.97147954931819
 30
0.0
 11
213.45124857692269
 21
398.97147954931819
 31
0.0
  0
ARC
  5
63FD
  8
0
 10
200.2694910933933
 20
396.97147954931819
 30
0.0
 40
2.0
 50
90.0
 51
159.99999999999511
1001
GENIUS_GENOBJ-N-FIL_13
1002
{
1000
OWNER
1000
GEN
1002
}
1001
GENIUS_GENODEF_13
1002
{
1000
HIER
1070
     0
1002
}
1002
{
1000
MANEDIT
1070
     0
1002
}
1002
{
1000
NOSEL
1070
     0
1002
}
1002
{
1000
BEHIND
1070
     0
1002
}
1002
{
1000
OTHER
1070
     0
1002
}
1002
{
1000
REACTOR
1002
}
  0
LINE
  5
63FE
  8
0
 10
191.451249576934
 20
386.42147954931801
 30
0.0
 11
193.74108354636701
 21
386.42147954931801
 31
0.0
  0
LINE
  5
63FF
  8
0
 10
194.49283764299611
 20
386.94786343465779
 30
0.0
 11
198.3901058518222
 21
397.65551983596919
 31
0.0
  0
ARC
  5
6400
  8
0
 10
193.74108354636701
 20
387.22147954931819
 30
0.0
 40
0.8
 50
270.0
 51
339.99999999999511
1001
GENIUS_GENOBJ-N-FIL_13
1002
{
1000
OWNER
1000
GEN
1002
}
1001
GENIUS_GENODEF_13
1002
{
1000
HIER
1070
     0
1002
}
1002
{
1000
MANEDIT
1070
     0
1002
}
1002
{
1000
NOSEL
1070
     0
1002
}
1002
{
1000
BEHIND
1070
     0
1002
}
1002
{
1000
OTHER
1070
     0
1002
}
1002
{
1000
REACTOR
1002
}
  0
LINE
  5
6401
  8
0
 10
200.2694910933933
 20
424.37147954931783
 30
0.0
 11
213.45124857692269
 21
424.37147954931783
 31
0.0
  0
ARC
  5
6402
  8
0
 10
200.2694910933933
 20
426.37147954931788
 30
0.0
 40
2.0
 50
200.00000000002919
 51
270.0
1001
GENIUS_GENOBJ-N-FIL_13
1002
{
1000
OWNER
1000
GEN
1002
}
1001
GENIUS_GENODEF_13
1002
{
1000
HIER
1070
     0
1002
}
1002
{
1000
MANEDIT
1070
     0
1002
}
1002
{
1000
NOSEL
1070
     0
1002
}
1002
{
1000
BEHIND
1070
     0
1002
}
1002
{
1000
OTHER
1070
     0
1002
}
1002
{
1000
REACTOR
1002
}
  0
LINE
  5
6403
  8
0
 10
191.451249576934
 20
436.92147954931812
 30
0.0
 11
193.74108354636701
 21
436.92147954931812
 31
0.0
  0
LINE
  5
6404
  8
0
 10
194.49283764299429
 20
436.39509566397822
 30
0.0
 11
198.3901058518222
 21
425.68743926266683
 31
0.0
  0
ARC
  5
6405
  8
0
 10
193.74108354636701
 20
436.12147954931788
 30
0.0
 40
0.8
 50
20.000000000029289
 51
90.0
1001
GENIUS_GENOBJ-N-FIL_13
1002
{
1000
OWNER
1000
GEN
1002
}
1001
GENIUS_GENODEF_13
1002
{
1000
HIER
1070
     0
1002
}
1002
{
1000
MANEDIT
1070
     0
1002
}
1002
{
1000
NOSEL
1070
     0
1002
}
1002
{
1000
BEHIND
1070
     0
1002
}
1002
{
1000
OTHER
1070
     0
1002
}
1002
{
1000
REACTOR
1002
}
  0
LINE
  5
6406
  8
0
 10
2272.0334226914888
 20
21.325680005634229
 30
0.0
 11
2272.0334226914888
 21
-3.6256800056344209
 31
0.0
  0
LINE
  5
6407
  8
0
 10
2279.4512495769341
 20
-16.400000000000091
 30
0.0
 11
2279.4512495769341
 21
34.099999999999909
 31
0.0
  0
LINE
  5
6408
  8
0
 10
2276.6012495769342
 20
-15.57522494169643
 30
0.0
 11
2276.6012495769351
 21
33.275224941696251
 31
0.0
  0
LINE
  5
6409
  8
0
  6
CENTER
 10
2282.59999229799
 20
8.8499999999999091
 30
0.0
 11
2251.4202397107179
 21
8.8499999999999091
 31
0.0
  0
LINE
  5
640A
  8
0
 10
2270.6330080604739
 20
-3.8500000000003629
 30
0.0
 11
2257.4512505769449
 21
-3.8500000000003629
 31
0.0
  0
ARC
  5
640B
  8
0
 10
2270.6330080604739
 20
-5.8500000000003629
 30
0.0
 40
2.0
 50
20.00000000000481
 51
90.0
1001
GENIUS_GENOBJ-N-FIL_13
1002
{
1000
OWNER
1000
GEN
1002
}
1001
GENIUS_GENODEF_13
1002
{
1000
HIER
1070
     0
1002
}
1002
{
1000
MANEDIT
1070
     0
1002
}
1002
{
1000
NOSEL
1070
     0
1002
}
1002
{
1000
BEHIND
1070
     0
1002
}
1002
{
1000
OTHER
1070
     0
1002
}
1002
{
1000
REACTOR
1002
}
  0
LINE
  5
640C
  8
0
 10
2279.4512495769341
 20
-16.400000000000091
 30
0.0
 11
2277.1614156075011
 21
-16.400000000000091
 31
0.0
  0
LINE
  5
640D
  8
0
 10
2276.409661510871
 20
-15.873616114660759
 30
0.0
 11
2272.512393302045
 21
-5.1659597133484558
 31
0.0
  0
ARC
  5
640E
  8
0
 10
2277.1614156075011
 20
-15.60000000000036
 30
0.0
 40
0.8
 50
200.00000000000469
 51
270.0
1001
GENIUS_GENOBJ-N-FIL_13
1002
{
1000
OWNER
1000
GEN
1002
}
1001
GENIUS_GENODEF_13
1002
{
1000
HIER
1070
     0
1002
}
1002
{
1000
MANEDIT
1070
     0
1002
}
1002
{
1000
NOSEL
1070
     0
1002
}
1002
{
1000
BEHIND
1070
     0
1002
}
1002
{
1000
OTHER
1070
     0
1002
}
1002
{
1000
REACTOR
1002
}
  0
LINE
  5
640F
  8
0
 10
2270.6330080604739
 20
21.54999999999972
 30
0.0
 11
2257.4512505769449
 21
21.550000000000178
 31
0.0
  0
ARC
  5
6410
  8
0
 10
2270.6330080604739
 20
23.54999999999972
 30
0.0
 40
2.0
 50
270.0
 51
339.99999999999511
1001
GENIUS_GENOBJ-N-FIL_13
1002
{
1000
OWNER
1000
GEN
1002
}
1001
GENIUS_GENODEF_13
1002
{
1000
HIER
1070
     0
1002
}
1002
{
1000
MANEDIT
1070
     0
1002
}
1002
{
1000
NOSEL
1070
     0
1002
}
1002
{
1000
BEHIND
1070
     0
1002
}
1002
{
1000
OTHER
1070
     0
1002
}
1002
{
1000
REACTOR
1002
}
  0
LINE
  5
6411
  8
0
 10
2279.4512495769341
 20
34.099999999999909
 30
0.0
 11
2277.1614156075011
 21
34.099999999999909
 31
0.0
  0
LINE
  5
6412
  8
0
 10
2276.4096615108729
 20
33.573616114660581
 30
0.0
 11
2272.512393302045
 21
22.865959713348271
 31
0.0
  0
ARC
  5
6413
  8
0
 10
2277.1614156075011
 20
33.300000000000182
 30
0.0
 40
0.8
 50
90.0
 51
159.99999999999511
1001
GENIUS_GENOBJ-N-FIL_13
1002
{
1000
OWNER
1000
GEN
1002
}
1001
GENIUS_GENODEF_13
1002
{
1000
HIER
1070
     0
1002
}
1002
{
1000
MANEDIT
1070
     0
1002
}
1002
{
1000
NOSEL
1070
     0
1002
}
1002
{
1000
BEHIND
1070
     0
1002
}
1002
{
1000
OTHER
1070
     0
1002
}
1002
{
1000
REACTOR
1002
}
  0
LINE
  5
66D4
  8
0
 10
3.0
 20
-55.0
 30
0.0
 11
3.0
 21
-33.921148757087387
 31
0.0
  0
LINE
  5
66D5
  8
0
 10
13.0
 20
-55.0
 30
0.0
 11
13.0
 21
-35.707142000000204
 31
0.0
  0
LINE
  5
66D6
  8
0
 10
-3.0
 20
-55.0
 30
0.0
 11
-3.0
 21
-33.921148757087387
 31
0.0
  0
LINE
  5
66D7
  8
0
 10
-13.0
 20
-55.0
 30
0.0
 11
-13.0
 21
-35.707142000000204
 31
0.0
  0
LINE
  5
66D8
  8
0
 10
13.0
 20
55.0
 30
0.0
 11
13.0
 21
35.707142000000204
 31
0.0
  0
LINE
  5
66D9
  8
0
 10
3.0
 20
55.0
 30
0.0
 11
3.0
 21
28.844409999999701
 31
0.0
  0
LINE
  5
66DA
  8
0
 10
-3.0
 20
55.0
 30
0.0
 11
-3.0
 21
28.844409999999701
 31
0.0
  0
LINE
  5
66DB
  8
0
 10
-13.0
 20
55.0
 30
0.0
 11
-13.0
 21
35.707142000000204
 31
0.0
  0
LINE
  5
66DC
  8
0
 10
13.0
 20
-55.0
 30
0.0
 11
3.0
 21
-55.0
 31
0.0
  0
LINE
  5
66DD
  8
0
 10
-13.0
 20
-55.0
 30
0.0
 11
-3.0
 21
-55.0
 31
0.0
  0
LINE
  5
66DE
  8
0
 10
13.0
 20
55.0
 30
0.0
 11
3.0
 21
55.0
 31
0.0
  0
LINE
  5
66DF
  8
0
 10
-13.0
 20
55.0
 30
0.0
 11
-3.0
 21
55.0
 31
0.0
  0
LINE
  5
66E0
  8
0
 10
-3.0
 20
52.0
 30
0.0
 11
3.0
 21
52.0
 31
0.0
  0
LINE
  5
66E1
  8
0
 10
-3.0
 20
44.0
 30
0.0
 11
3.0
 21
44.0
 31
0.0
  0
LINE
  5
66E2
  8
0
 10
-3.0
 20
-52.0
 30
0.0
 11
3.0
 21
-52.0
 31
0.0
  0
LINE
  5
66E3
  8
0
 10
-3.0
 20
-44.0
 30
0.0
 11
3.0
 21
-44.0
 31
0.0
  0
LINE
  5
66E4
  8
0
 10
-27.0
 20
44.0
 30
0.0
 11
-21.499999999999989
 21
44.0
 31
0.0
  0
LINE
  5
66E5
  8
0
 10
-21.499999999999989
 20
43.0
 30
0.0
 11
-21.499999999999989
 21
53.0
 31
0.0
  0
LINE
  5
66E6
  8
0
 10
-27.0
 20
44.0
 30
0.0
 11
-27.0
 21
52.0
 31
0.0
  0
LINE
  5
66E7
  8
0
 10
-20.5
 20
42.0
 30
0.0
 11
-19.5
 21
42.0
 31
0.0
  0
LINE
  5
66E8
  8
0
 10
-20.5
 20
54.0
 30
0.0
 11
-19.5
 21
54.0
 31
0.0
  0
LINE
  5
66E9
  8
0
 10
-19.5
 20
54.5
 30
0.0
 11
-19.5
 21
41.5
 31
0.0
  0
LINE
  5
66EA
  8
0
 10
-19.5
 20
54.5
 30
0.0
 11
-13.0
 21
54.5
 31
0.0
  0
LINE
  5
66EB
  8
0
 10
-19.5
 20
41.5
 30
0.0
 11
-13.0
 21
41.5
 31
0.0
  0
LINE
  5
66EC
  8
0
 10
-27.0
 20
52.0
 30
0.0
 11
-21.499999999999989
 21
52.0
 31
0.0
  0
LINE
  5
66ED
  8
0
  6
CENTER
 10
-28.65133499999865
 20
48.0
 30
0.0
 11
22.389211999998221
 21
48.0
 31
0.0
  0
LINE
  5
66EE
  8
0
 10
-27.0
 20
-44.0
 30
0.0
 11
-21.499999999999989
 21
-44.0
 31
0.0
  0
LINE
  5
66EF
  8
0
 10
-21.499999999999989
 20
-43.0
 30
0.0
 11
-21.499999999999989
 21
-53.0
 31
0.0
  0
LINE
  5
66F0
  8
0
 10
-27.0
 20
-44.0
 30
0.0
 11
-27.0
 21
-52.0
 31
0.0
  0
LINE
  5
66F1
  8
0
 10
-20.5
 20
-42.0
 30
0.0
 11
-19.5
 21
-42.0
 31
0.0
  0
LINE
  5
66F2
  8
0
 10
-20.5
 20
-54.0
 30
0.0
 11
-19.5
 21
-54.0
 31
0.0
  0
LINE
  5
66F3
  8
0
 10
-19.5
 20
-54.5
 30
0.0
 11
-19.5
 21
-41.5
 31
0.0
  0
LINE
  5
66F4
  8
0
 10
-19.5
 20
-54.5
 30
0.0
 11
-13.0
 21
-54.5
 31
0.0
  0
LINE
  5
66F5
  8
0
 10
-19.5
 20
-41.5
 30
0.0
 11
-13.0
 21
-41.5
 31
0.0
  0
LINE
  5
66F6
  8
0
 10
-27.0
 20
-52.0
 30
0.0
 11
-21.499999999999989
 21
-52.0
 31
0.0
  0
LINE
  5
66F7
  8
0
  6
CENTER
 10
-28.65133499999865
 20
-48.0
 30
0.0
 11
21.827725999999529
 21
-48.0
 31
0.0
  0
LINE
  5
66F8
  8
0
 10
18.5
 20
-44.75
 30
0.0
 11
18.5
 21
-51.25
 31
0.0
  0
LINE
  5
66F9
  8
0
 10
17.77510600000096
 20
-41.5
 30
0.0
 11
13.0
 21
-41.5
 31
0.0
  0
LINE
  5
66FA
  8
0
 10
17.77510600000096
 20
-54.5
 30
0.0
 11
13.0
 21
-54.5
 31
0.0
  0
LINE
  5
66FB
  8
0
 10
18.5
 20
44.75
 30
0.0
 11
18.5
 21
51.25
 31
0.0
  0
LINE
  5
66FC
  8
0
 10
17.77510600000096
 20
41.5
 30
0.0
 11
13.0
 21
41.5
 31
0.0
  0
LINE
  5
66FD
  8
0
 10
17.77510600000096
 20
54.5
 30
0.0
 11
13.0
 21
54.5
 31
0.0
  0
ARC
  5
66FE
  8
0
 10
0.0
 20
0.0
 30
0.0
 40
38.0
 50
94.528060000078654
 51
265.47193500007768
  0
ARC
  5
66FF
  8
0
 10
0.0
 20
0.0
 30
0.0
 40
29.0
 50
95.937769999917506
 51
213.29286703405319
  0
ARC
  5
6700
  8
0
 10
0.0
 20
0.0
 30
0.0
 40
31.0
 50
95.937769999917506
 51
227.07143144192619
  0
ARC
  5
6701
  8
0
 10
0.0
 20
0.0
 30
0.0
 40
38.0
 50
274.5280629999433
 51
85.471936986258257
  0
ARC
  5
6702
  8
0
 10
0.0
 20
0.0
 30
0.0
 40
29.0
 50
326.7071329659467
 51
84.062220000050459
  0
ARC
  5
6703
  8
0
 10
0.0
 20
0.0
 30
0.0
 40
31.0
 50
312.92856855807378
 51
84.446555804293325
  0
ARC
  5
6704
  8
0
 10
-20.5
 20
43.0
 30
0.0
 40
1.0
 50
179.99998999999889
 51
269.99999600002042
  0
ARC
  5
6705
  8
0
 10
-20.5
 20
53.0
 30
0.0
 40
1.0
 50
90.0
 51
180.00000500893739
  0
ARC
  5
6706
  8
0
 10
-11.85200500000064
 20
51.25
 30
0.0
 40
7.6479949999999981
 50
154.85263000003621
 51
205.14737500014601
  0
ARC
  5
6707
  8
0
 10
-11.85200500000064
 20
44.75
 30
0.0
 40
7.6479949999999981
 50
154.85263000003621
 51
205.14736800011369
  0
ARC
  5
6708
  8
0
 10
-20.647994999999352
 20
51.25
 30
0.0
 40
7.6479949999999981
 50
334.85263000003619
 51
25.14736999996374
  0
ARC
  5
6709
  8
0
 10
-20.647994999999352
 20
44.75
 30
0.0
 40
7.6479949999999981
 50
334.85263000003619
 51
25.14736999996374
  0
ARC
  5
670A
  8
0
 10
-20.5
 20
-43.0
 30
0.0
 40
1.0
 50
90.0
 51
180.00000500893739
  0
ARC
  5
670B
  8
0
 10
-20.5
 20
-53.0
 30
0.0
 40
1.0
 50
179.99998999999889
 51
269.99999600002042
  0
ARC
  5
670C
  8
0
 10
-11.85200500000064
 20
-51.25
 30
0.0
 40
7.6479949999999981
 50
154.85261999999599
 51
205.14737199986081
  0
ARC
  5
670D
  8
0
 10
-11.85200500000064
 20
-44.75
 30
0.0
 40
7.6479949999999981
 50
154.85263000003621
 51
205.14737199986081
  0
ARC
  5
670E
  8
0
 10
-20.647994999999352
 20
-51.25
 30
0.0
 40
7.6479949999999981
 50
334.85263000003619
 51
25.14736999996374
  0
ARC
  5
670F
  8
0
 10
-20.647994999999352
 20
-44.75
 30
0.0
 40
7.6479949999999981
 50
334.85263000003619
 51
25.14736999996374
  0
ARC
  5
6710
  8
0
 10
10.85200500000064
 20
-44.75
 30
0.0
 40
7.647994500000002
 50
334.85263000003619
 51
25.14736999996374
  0
ARC
  5
6711
  8
0
 10
10.85200500000064
 20
-51.25
 30
0.0
 40
7.647994500000002
 50
334.85263000003619
 51
25.14736999996374
  0
ARC
  5
6712
  8
0
 10
10.85200500000064
 20
44.75
 30
0.0
 40
7.647994500000002
 50
334.85263000003619
 51
25.14736999996374
  0
ARC
  5
6713
  8
0
 10
10.85200500000064
 20
51.25
 30
0.0
 40
7.647994500000002
 50
334.85263000003619
 51
25.14736999996374
  0
LINE
  5
6714
  8
0
  6
CENTER
 10
-55.759478892276093
 20
0.0
 30
0.0
 11
55.759478892276093
 21
0.0
 31
0.0
  0
LINE
  5
6798
  8
0
  6
CENTER
 10
-30.518080352572721
 20
-8.8499999999999091
 30
0.0
 11
30.518080352572721
 21
-8.8499999999999091
 31
0.0
  0
LINE
  5
67C1
  8
0
 10
-62.5
 20
-89.999999999999545
 30
0.0
 11
-62.5
 21
-75.999999999999545
 31
0.0
  0
LINE
  5
67C2
  8
0
  6
CENTER
 10
-45.0
 20
-99.000000000000455
 30
0.0
 11
-45.0
 21
-66.000000000000455
 31
0.0
  0
LINE
  5
67C3
  8
0
  6
CENTER
 10
45.0
 20
-99.000000000000455
 30
0.0
 11
45.0
 21
-66.000000000000455
 31
0.0
  0
LINE
  5
67C4
  8
0
 10
62.5
 20
-76.000000000000455
 30
0.0
 11
62.5
 21
-90.000000000000455
 31
0.0
  0
LINE
  5
67C5
  8
0
 10
62.5
 20
-90.000000000000455
 30
0.0
 11
-62.5
 21
-89.999999999999545
 31
0.0
  0
LINE
  5
67C6
  8
0
 10
-62.5
 20
-75.999999999999545
 30
0.0
 11
62.5
 21
-76.000000000000455
 31
0.0
  0
LINE
  5
67C7
  8
0
 10
17.0
 20
-75.999999999999545
 30
0.0
 11
17.0
 21
-54.499999999999538
 31
0.0
  0
LINE
  5
67C8
  8
0
 10
17.0
 20
-41.5
 30
0.0
 11
17.0
 21
-33.985290935933328
 31
0.0
  0
LINE
  5
67C9
  8
0
 10
-17.0
 20
-75.999999999999545
 30
0.0
 11
-17.0
 21
-54.5
 31
0.0
  0
LINE
  5
67CA
  8
0
 10
-17.0
 20
-41.5
 30
0.0
 11
-17.0
 21
-33.985290935933328
 31
0.0
  0
LINE
  5
67CB
  8
0
 10
-62.5
 20
89.999999999999545
 30
0.0
 11
-62.5
 21
75.999999999999545
 31
0.0
  0
LINE
  5
67CC
  8
0
  6
CENTER
 10
-45.0
 20
99.000000000000455
 30
0.0
 11
-45.0
 21
66.000000000000455
 31
0.0
  0
LINE
  5
67CD
  8
0
  6
CENTER
 10
45.0
 20
99.000000000000455
 30
0.0
 11
45.0
 21
66.000000000000455
 31
0.0
  0
LINE
  5
67CE
  8
0
 10
62.5
 20
76.000000000000455
 30
0.0
 11
62.5
 21
90.000000000000455
 31
0.0
  0
LINE
  5
67CF
  8
0
 10
62.5
 20
90.000000000000455
 30
0.0
 11
-62.5
 21
89.999999999999545
 31
0.0
  0
LINE
  5
67D0
  8
0
 10
-62.5
 20
75.999999999999545
 30
0.0
 11
62.5
 21
76.000000000000455
 31
0.0
  0
LINE
  5
67D1
  8
0
 10
17.0
 20
75.999999999999545
 30
0.0
 11
17.0
 21
54.5
 31
0.0
  0
LINE
  5
67D2
  8
0
 10
17.0
 20
41.500000000000448
 30
0.0
 11
17.0
 21
33.985290935933328
 31
0.0
  0
LINE
  5
67D3
  8
0
 10
-17.0
 20
75.999999999999545
 30
0.0
 11
-17.0
 21
54.499999999999538
 31
0.0
  0
LINE
  5
67D4
  8
0
 10
-17.0
 20
41.5
 30
0.0
 11
-17.0
 21
33.985290935933328
 31
0.0
  0
LINE
  5
67D5
  8
0
  6
CENTER
 10
0.0
 20
99.000000000000455
 30
0.0
 11
0.0
 21
-99.000000000000455
 31
0.0
  0
CIRCLE
  5
67EB
  8
AM_0_T3
 10
0.0
 20
-8.8499999999999091
 30
0.0
 40
25.25
  0
CIRCLE
  5
67EC
  8
AM_0_T3
 10
0.0
 20
-8.8499999999999091
 30
0.0
 40
12.70000000000004
  0
ENDSEC
  0
EOF
