  0
SECTION
  2
HEADER
  9
$ACADVER
  1
AC1009
  9
$INSBASE
 10
0.0
 20
0.0
 30
0.0
  9
$EXTMIN
 10
-55.759478892276093
 20
-98.999999999999091
 30
0.0
  9
$EXTMAX
 10
2279.345812392206
 20
584.28139750375885
 30
0.0
  9
$LIMMIN
 10
0.0
 20
0.0
  9
$LIMMAX
 10
420.0
 20
297.0
  9
$ORTHOMODE
 70
     0
  9
$REGENMODE
 70
     1
  9
$FILLMODE
 70
     1
  9
$QTEXTMODE
 70
     0
  9
$MIRRTEXT
 70
     1
  9
$DRAGMODE
 70
     2
  9
$LTSCALE
 40
1.0
  9
$OSMODE
 70
    37
  9
$ATTMODE
 70
     1
  9
$TEXTSIZE
 40
73.985717453579113
  9
$TRACEWID
 40
1.0
  9
$TEXTSTYLE
  7
STANDARD
  9
$CLAYER
  8
0
  9
$CELTYPE
  6
BYLAYER
  9
$CECOLOR
 62
   256
  9
$DIMSCALE
 40
1.0
  9
$DIMASZ
 40
3.0
  9
$DIMEXO
 40
1.0
  9
$DIMDLI
 40
10.0
  9
$DIMRND
 40
0.0
  9
$DIMDLE
 40
0.0
  9
$DIMEXE
 40
1.0
  9
$DIMTP
 40
0.1
  9
$DIMTM
 40
0.1
  9
$DIMTXT
 40
30.0
  9
$DIMCEN
 40
0.0
  9
$DIMTSZ
 40
0.0
  9
$DIMTOL
 70
     0
  9
$DIMLIM
 70
     0
  9
$DIMTIH
 70
     0
  9
$DIMTOH
 70
     0
  9
$DIMSE1
 70
     0
  9
$DIMSE2
 70
     0
  9
$DIMTAD
 70
     3
  9
$DIMZIN
 70
     8
  9
$DIMBLK
  1
OPEN
  9
$DIMASO
 70
     1
  9
$DIMSHO
 70
     1
  9
$DIMPOST
  1

  9
$DIMAPOST
  1
"
  9
$DIMALT
 70
     0
  9
$DIMALTD
 70
     2
  9
$DIMALTF
 40
0.0393701
  9
$DIMLFAC
 40
1.0
  9
$DIMTOFL
 70
     1
  9
$DIMTVP
 40
0.0
  9
$DIMTIX
 70
     0
  9
$DIMSOXD
 70
     0
  9
$DIMSAH
 70
     0
  9
$DIMBLK1
  1

  9
$DIMBLK2
  1

  9
$DIMSTYLE
  2
TSK
  9
$DIMCLRD
 70
   256
  9
$DIMCLRE
 70
   256
  9
$DIMCLRT
 70
     2
  9
$DIMTFAC
 40
0.71
  9
$DIMGAP
 40
1.5
  9
$LUNITS
 70
     2
  9
$LUPREC
 70
     8
  9
$SKETCHINC
 40
1.0
  9
$FILLETRAD
 40
0.0
  9
$AUNITS
 70
     0
  9
$AUPREC
 70
     8
  9
$MENU
  1
.
  9
$ELEVATION
 40
0.0
  9
$PELEVATION
 40
0.0
  9
$THICKNESS
 40
0.0
  9
$LIMCHECK
 70
     0
  9
$BLIPMODE
 70
     0
  9
$CHAMFERA
 40
2.5
  9
$CHAMFERB
 40
2.5
  9
$SKPOLY
 70
     0
  9
$TDCREATE
 40
2454739.7204081588
  9
$TDUPDATE
 40
2454748.5621208912
  9
$TDINDWG
 40
0.2780427315
  9
$TDUSRTIMER
 40
0.2780427315
  9
$USRTIMER
 70
     1
  9
$ANGBASE
 50
0.0
  9
$ANGDIR
 70
     1
  9
$PDMODE
 70
     0
  9
$PDSIZE
 40
0.0
  9
$PLINEWID
 40
0.0
  9
$COORDS
 70
     1
  9
$SPLFRAME
 70
     0
  9
$SPLINETYPE
 70
     6
  9
$SPLINESEGS
 70
     8
  9
$ATTDIA
 70
     0
  9
$ATTREQ
 70
     1
  9
$HANDLING
 70
 22529
  9
$HANDSEED
  5
6BB3
  9
$SURFTAB1
 70
     6
  9
$SURFTAB2
 70
     6
  9
$SURFTYPE
 70
     6
  9
$SURFU
 70
     6
  9
$SURFV
 70
     6
  9
$UCSNAME
  2

  9
$UCSORG
 10
0.0
 20
0.0
 30
0.0
  9
$UCSXDIR
 10
1.0
 20
0.0
 30
0.0
  9
$UCSYDIR
 10
0.0
 20
1.0
 30
0.0
  9
$PUCSNAME
  2

  9
$PUCSORG
 10
0.0
 20
0.0
 30
0.0
  9
$PUCSXDIR
 10
1.0
 20
0.0
 30
0.0
  9
$PUCSYDIR
 10
0.0
 20
1.0
 30
0.0
  9
$USERI1
 70
     0
  9
$USERI2
 70
     0
  9
$USERI3
 70
     0
  9
$USERI4
 70
     0
  9
$USERI5
 70
     0
  9
$USERR1
 40
0.0
  9
$USERR2
 40
0.0
  9
$USERR3
 40
0.0
  9
$USERR4
 40
0.0
  9
$USERR5
 40
0.0
  9
$WORLDVIEW
 70
     1
  9
$SHADEDGE
 70
     3
  9
$SHADEDIF
 70
    70
  9
$TILEMODE
 70
     1
  9
$MAXACTVP
 70
    48
  9
$PLIMCHECK
 70
     0
  9
$PEXTMIN
 10
1.0000000000000000E+020
 20
1.0000000000000000E+020
 30
1.0000000000000000E+020
  9
$PEXTMAX
 10
-1.0000000000000000E+020
 20
-1.0000000000000000E+020
 30
-1.0000000000000000E+020
  9
$PLIMMIN
 10
0.0
 20
0.0
  9
$PLIMMAX
 10
420.0
 20
297.0
  9
$UNITMODE
 70
     0
  9
$VISRETAIN
 70
     1
  9
$PLINEGEN
 70
     0
  9
$PSLTSCALE
 70
     1
  0
ENDSEC
  0
SECTION
  2
TABLES
  0
TABLE
  2
VPORT
 70
     2
  0
VPORT
  2
*ACTIVE
 70
     0
 10
0.0
 20
0.0
 11
1.0
 21
1.0
 12
1355.2913660458121
 22
242.62843382204241
 13
0.0
 23
0.0
 14
2.5
 24
2.5
 15
10.0
 25
10.0
 16
0.0
 26
0.0
 36
1.0
 17
0.0
 27
0.0
 37
0.0
 40
1532.163643962459
 41
1.8496503496503489
 42
50.0
 43
0.0
 44
0.0
 50
0.0
 51
0.0
 71
     0
 72
   100
 73
     1
 74
     3
 75
     0
 76
     0
 77
     0
 78
     0
  0
ENDTAB
  0
TABLE
  2
LTYPE
 70
     2
  0
LTYPE
  2
CONTINUOUS
 70
     0
  3
Solid line
 72
    65
 73
     0
 40
0.0
  0
LTYPE
  2
CENTER
 70
     0
  3
__ . __
 72
    65
 73
     4
 40
7.0
 49
4.0
 49
-1.0
 49
1.0
 49
-1.0
  0
ENDTAB
  0
TABLE
  2
LAYER
 70
     2
  0
LAYER
  2
0
 70
     0
 62
     7
  6
CONTINUOUS
  0
LAYER
  2
AM_0_T3
 70
     0
 62
     7
  6
CONTINUOUS
  0
ENDTAB
  0
TABLE
  2
STYLE
 70
     2
  0
STYLE
  2
STANDARD
 70
     0
 40
0.0
 41
0.7
 50
0.0
 71
     0
 42
73.985717453579113
  3
romans.shx
  4
bigfont.shx
  0
STYLE
  2
TSKDIM
 70
     0
 40
0.0
 41
0.75
 50
0.0
 71
     0
 42
4.0
  3
romans.shx
  4
EXTFONT.SHX
  0
ENDTAB
  0
TABLE
  2
VIEW
 70
     0
  0
ENDTAB
  0
TABLE
  2
UCS
 70
     0
  0
ENDTAB
  0
TABLE
  2
APPID
 70
    41
  0
APPID
  2
ACAD
 70
     0
  0
APPID
  2
MCAD_NO_VIS
 70
     0
  0
APPID
  2
ACAD_TEMP_GRAPHIC
 70
     0
  0
APPID
  2
ACATTRIBSERVICES
 70
     0
  0
APPID
  2
AD_DRAW
 70
     0
  0
APPID
  2
DESIGNERASSEMBLIES
 70
     0
  0
APPID
  2
ASURF_PCURVE_APPNAME
 70
     0
  0
APPID
  2
ACADM_DIM_EDIT
 70
     0
  0
APPID
  2
GENIUS_GENDIM_13
 70
     0
  0
APPID
  2
GENIUS_GENDTOL_13
 70
     0
  0
APPID
  2
GENIUS_GE3DTOL_13
 70
     0
  0
APPID
  2
AMG_3D2D_5_0
 70
     0
  0
APPID
  2
AMDT_DM_ADJ
 70
     0
  0
APPID
  2
CK_MATE-SERIES
 70
     0
  0
APPID
  2
GEVID1042077799
 70
     0
  0
APPID
  2
GEVMK
 70
     0
  0
APPID
  2
GEVDC
 70
     0
  0
APPID
  2
GENIUS_GENBH_13
 70
     0
  0
APPID
  2
GENIUS_GENOLIS_13
 70
     0
  0
APPID
  2
GENIUS_GENOENT_13
 70
     0
  0
APPID
  2
GENIUS_GENODEF_13
 70
     0
  0
APPID
  2
GENIUS_GENOBJ-NBEHI-BHF_13
 70
     0
  0
APPID
  2
GENIUS_GENOREF_13
 70
     0
  0
APPID
  2
GENIUS_GENOBJ-NBEHI-BHB_13
 70
     0
  0
APPID
  2
GEVID1042183772
 70
     0
  0
APPID
  2
GEVID1042183773
 70
     0
  0
APPID
  2
GEVID1042183774
 70
     0
  0
APPID
  2
DCO15
 70
     0
  0
APPID
  2
ACAD_DSTYLE_DIMARC_LENGTH_
 70
     0
  0
APPID
  2
ACAD_DSTYLE_DIMJOGGED_JOGA
 70
     0
  0
APPID
  2
ACAD_MLEADERVER
 70
     0
  0
APPID
  2
ACAD_DSTYLE_DIMJAG
 70
     0
  0
APPID
  2
ACAD_DSTYLE_DIMTALN
 70
     0
  0
APPID
  2
ACAD_PSEXT
 70
     0
  0
APPID
  2
ACAD_EXEMPT_FROM_CAD_STANDARDS
 70
     0
  0
APPID
  2
ACAD_DSTYLE_DIMINSPECT
 70
     0
  0
APPID
  2
ACAD_DSTYLE_DIMANGULAR_EXT
 70
     0
  0
APPID
  2
GENIUS_GENOBJ-N-FIL_13
 70
     0
  0
APPID
  2
ACAD_DSTYLE_DIM_LINETYPE
 70
     0
  0
APPID
  2
ACAD_DSTYLE_DIM_EXT1_LINETYPE
 70
     0
  0
APPID
  2
ACAD_DSTYLE_DIM_EXT2_LINETYPE
 70
     0
  0
ENDTAB
  0
TABLE
  2
DIMSTYLE
 70
     1
  0
DIMSTYLE
  2
TSK
 70
     0
  3

  4
"
  5
OPEN
  6

  7

 40
1.0
 41
3.0
 42
1.0
 43
10.0
 44
1.0
 45
0.0
 46
0.0
 47
0.1
 48
0.1
140
3.0
141
0.0
142
0.0
143
0.0393701
144
1.0
145
0.0
146
0.71
147
1.5
 71
     0
 72
     0
 73
     0
 74
     0
 75
     0
 76
     0
 77
     3
 78
     8
170
     0
171
     2
172
     1
173
     0
174
     0
175
     0
176
   256
177
   256
178
     2
  0
ENDTAB
  0
ENDSEC
  0
SECTION
  2
BLOCKS
  0
BLOCK
  8
0
  2
$MODEL_SPACE
 70
     0
 10
0.0
 20
0.0
 30
0.0
  3
$MODEL_SPACE
  1

  0
ENDBLK
  5
21
  8
0
  0
BLOCK
 67
     1
  8
0
  2
$PAPER_SPACE
 70
     0
 10
0.0
 20
0.0
 30
0.0
  3
$PAPER_SPACE
  1

  0
ENDBLK
  5
1D
 67
     1
  8
0
  0
BLOCK
  8
0
  2
_OPEN
 70
     0
 10
0.0
 20
0.0
 30
0.0
  3
_OPEN
  1

  0
LINE
  5
15A
  8
0
  6
BYBLOCK
 62
     0
 10
-1.0
 20
0.1666666666666666
 30
0.0
 11
0.0
 21
0.0
 31
0.0
  0
LINE
  5
15B
  8
0
  6
BYBLOCK
 62
     0
 10
-1.0
 20
-0.1666666666666666
 30
0.0
 11
0.0
 21
0.0
 31
0.0
  0
LINE
  5
15C
  8
0
  6
BYBLOCK
 62
     0
 10
0.0
 20
0.0
 30
0.0
 11
-1.0
 21
0.0
 31
0.0
  0
ENDBLK
  5
15E
  8
0
  0
ENDSEC
  0
SECTION
  2
ENTITIES
  0
LINE
  5
378E
  8
0
 10
1219.70124957693
 20
-37.499999999997272
 30
0.0
 11
1219.7012495769261
 21
37.500000000002728
 31
0.0
  0
LINE
  5
378F
  8
0
 10
1215.20124957693
 20
-37.499999999997272
 30
0.0
 11
1215.2012495769261
 21
37.500000000002728
 31
0.0
  0
LINE
  5
3790
  8
0
 10
1210.70124957693
 20
-37.499999999997272
 30
0.0
 11
1210.7012495769261
 21
37.500000000002728
 31
0.0
  0
LINE
  5
3791
  8
0
 10
1224.2012495769261
 20
-37.499999999997272
 30
0.0
 11
1224.2012495769261
 21
37.500000000002728
 31
0.0
  0
LINE
  5
3792
  8
0
 10
1228.70124957693
 20
-37.499999999997272
 30
0.0
 11
1228.70124957693
 21
37.500000000002728
 31
0.0
  0
LINE
  5
3793
  8
0
 10
1233.2012495769261
 20
-37.499999999997272
 30
0.0
 11
1233.2012495769261
 21
37.500000000002728
 31
0.0
  0
LINE
  5
3794
  8
0
 10
1198.7512495769261
 20
-31.04091814876028
 30
0.0
 11
1202.4804022224589
 21
-37.499999999997272
 31
0.0
  0
LINE
  5
3795
  8
0
 10
1202.4804022224589
 20
-37.499999999997272
 30
0.0
 11
1268.4220969313969
 21
-37.499999999997272
 31
0.0
  0
LINE
  5
3796
  8
0
 10
1198.7512495769261
 20
-31.04091814876028
 30
0.0
 11
1198.7512495769261
 21
31.040918148762099
 31
0.0
  0
LINE
  5
3797
  8
0
 10
1205.7512495769261
 20
-37.499999999997272
 30
0.0
 11
1205.7512495769261
 21
37.500000000002728
 31
0.0
  0
LINE
  5
3798
  8
0
 10
1198.7512495769261
 20
31.040918148762099
 30
0.0
 11
1202.4804022224589
 21
37.500000000002728
 31
0.0
  0
LINE
  5
3799
  8
0
 10
1202.4804022224589
 20
37.500000000002728
 30
0.0
 11
1268.4220969313969
 21
37.500000000002728
 31
0.0
  0
LINE
  5
379B
  8
0
 10
1202.4804022224589
 20
-37.499999999993634
 30
0.0
 11
1202.4804022224589
 21
37.500000000002728
 31
0.0
  0
LINE
  5
379C
  8
0
 10
1272.1512495769271
 20
-31.04091814876028
 30
0.0
 11
1268.4220969313969
 21
-37.499999999997272
 31
0.0
  0
LINE
  5
379D
  8
0
 10
1272.1512495769271
 20
-31.04091814876028
 30
0.0
 11
1272.1512495769271
 21
31.040918148762099
 31
0.0
  0
LINE
  5
379E
  8
0
 10
1272.1512495769271
 20
31.040918148762099
 30
0.0
 11
1268.4220969313969
 21
37.500000000002728
 31
0.0
  0
LINE
  5
379F
  8
0
 10
1268.4220969313969
 20
-37.499999999993634
 30
0.0
 11
1268.4220969313969
 21
37.500000000002728
 31
0.0
  0
LINE
  5
37A0
  8
0
 10
1251.2012495769261
 20
-37.499999999997272
 30
0.0
 11
1251.2012495769261
 21
37.500000000002728
 31
0.0
  0
LINE
  5
37A1
  8
0
 10
1255.7012495769261
 20
-37.499999999997272
 30
0.0
 11
1255.7012495769261
 21
37.500000000002728
 31
0.0
  0
LINE
  5
37A2
  8
0
 10
1260.2012495769261
 20
-37.499999999997272
 30
0.0
 11
1260.2012495769261
 21
37.500000000002728
 31
0.0
  0
LINE
  5
37A3
  8
0
 10
1246.7012495769261
 20
-37.499999999997272
 30
0.0
 11
1246.70124957693
 21
37.500000000002728
 31
0.0
  0
LINE
  5
37A4
  8
0
 10
1242.2012495769229
 20
-37.499999999997272
 30
0.0
 11
1242.2012495769229
 21
37.500000000002728
 31
0.0
  0
LINE
  5
37A5
  8
0
 10
1237.7012495769261
 20
-37.499999999997272
 30
0.0
 11
1237.70124957693
 21
37.500000000002728
 31
0.0
  0
LINE
  5
37A6
  8
0
 10
1265.1512495769271
 20
-37.499999999997272
 30
0.0
 11
1265.1512495769271
 21
37.500000000002728
 31
0.0
  0
ARC
  5
37E9
  8
0
 10
234.45124933850821
 20
-48.0
 30
0.0
 40
7.0
 50
132.20616791857009
 51
171.78674173948309
  0
ARC
  5
37EA
  8
0
 10
234.45124933850821
 20
-48.0
 30
0.0
 40
7.0
 50
188.2132024012532
 51
231.78679591847089
  0
ARC
  5
37EB
  8
0
 10
234.45124933850821
 20
-48.0
 30
0.0
 40
7.0
 50
248.2131224893802
 51
291.78687751061972
  0
ARC
  5
37EC
  8
0
 10
234.45124933850821
 20
-48.0
 30
0.0
 40
7.0
 50
308.21320408152889
 51
351.78679759874672
  0
ARC
  5
37ED
  8
0
 10
234.45124933850821
 20
-48.0
 30
0.0
 40
7.0
 50
8.2132582605168114
 51
47.793826811981923
  0
ARC
  5
37EE
  8
0
 10
234.45124933850821
 20
48.0
 30
0.0
 40
7.0
 50
312.12875643081787
 51
351.7867417394832
  0
ARC
  5
37EF
  8
0
 10
234.45124933850821
 20
48.0
 30
0.0
 40
7.0
 50
8.2132024012016966
 51
51.786795918471
  0
ARC
  5
37F0
  8
0
 10
234.45124933850821
 20
48.0
 30
0.0
 40
7.0
 50
68.213122489380268
 51
111.7868775106197
  0
ARC
  5
37F1
  8
0
 10
234.45124933850821
 20
48.0
 30
0.0
 40
7.0
 50
128.213204081529
 51
171.78679759874669
  0
LINE
  5
37F2
  8
0
 10
1219.70124957693
 20
374.17147954932079
 30
0.0
 11
1219.7012495769261
 21
449.17147954932079
 31
0.0
  0
LINE
  5
37F3
  8
0
 10
1215.20124957693
 20
374.17147954932079
 30
0.0
 11
1215.2012495769261
 21
449.17147954932079
 31
0.0
  0
LINE
  5
37F4
  8
0
 10
1210.70124957693
 20
374.17147954932079
 30
0.0
 11
1210.7012495769261
 21
449.17147954932079
 31
0.0
  0
LINE
  5
37F5
  8
0
 10
1224.2012495769261
 20
374.17147954932079
 30
0.0
 11
1224.2012495769261
 21
449.17147954932079
 31
0.0
  0
LINE
  5
37F6
  8
0
 10
1228.70124957693
 20
374.17147954932079
 30
0.0
 11
1228.70124957693
 21
449.17147954932079
 31
0.0
  0
LINE
  5
37F7
  8
0
 10
1233.2012495769261
 20
374.17147954932079
 30
0.0
 11
1233.2012495769261
 21
449.17147954932079
 31
0.0
  0
LINE
  5
37F8
  8
0
 10
1198.7512495769261
 20
380.63056140055772
 30
0.0
 11
1202.4804022224589
 21
374.17147954932079
 31
0.0
  0
LINE
  5
37F9
  8
0
 10
1202.4804022224589
 20
374.17147954932079
 30
0.0
 11
1268.4220969313969
 21
374.17147954932079
 31
0.0
  0
LINE
  5
37FA
  8
0
 10
1198.7512495769261
 20
380.63056140055772
 30
0.0
 11
1198.7512495769261
 21
442.71239769808011
 31
0.0
  0
LINE
  5
37FB
  8
0
 10
1205.7512495769261
 20
374.17147954932079
 30
0.0
 11
1205.7512495769261
 21
449.17147954932079
 31
0.0
  0
LINE
  5
37FC
  8
0
 10
1198.7512495769261
 20
442.71239769808011
 30
0.0
 11
1202.4804022224589
 21
449.17147954932079
 31
0.0
  0
LINE
  5
37FD
  8
0
 10
1202.4804022224589
 20
449.17147954932079
 30
0.0
 11
1268.4220969313969
 21
449.17147954932079
 31
0.0
  0
LINE
  5
37FF
  8
0
 10
1202.4804022224589
 20
374.17147954932437
 30
0.0
 11
1202.4804022224589
 21
449.17147954932079
 31
0.0
  0
LINE
  5
3800
  8
0
 10
1272.1512495769271
 20
380.63056140055772
 30
0.0
 11
1268.4220969313969
 21
374.17147954932079
 31
0.0
  0
LINE
  5
3801
  8
0
 10
1272.1512495769271
 20
380.63056140055772
 30
0.0
 11
1272.1512495769271
 21
442.71239769808011
 31
0.0
  0
LINE
  5
3802
  8
0
 10
1272.1512495769271
 20
442.71239769808011
 30
0.0
 11
1268.4220969313969
 21
449.17147954932079
 31
0.0
  0
LINE
  5
3803
  8
0
 10
1268.4220969313969
 20
374.17147954932437
 30
0.0
 11
1268.4220969313969
 21
449.17147954932079
 31
0.0
  0
LINE
  5
3804
  8
0
 10
1251.2012495769261
 20
374.17147954932079
 30
0.0
 11
1251.2012495769261
 21
449.17147954932079
 31
0.0
  0
LINE
  5
3805
  8
0
 10
1255.7012495769261
 20
374.17147954932079
 30
0.0
 11
1255.7012495769261
 21
449.17147954932079
 31
0.0
  0
LINE
  5
3806
  8
0
 10
1260.2012495769261
 20
374.17147954932079
 30
0.0
 11
1260.2012495769261
 21
449.17147954932079
 31
0.0
  0
LINE
  5
3807
  8
0
 10
1246.7012495769261
 20
374.17147954932079
 30
0.0
 11
1246.70124957693
 21
449.17147954932079
 31
0.0
  0
LINE
  5
3808
  8
0
 10
1242.2012495769229
 20
374.17147954932079
 30
0.0
 11
1242.2012495769229
 21
449.17147954932079
 31
0.0
  0
LINE
  5
3809
  8
0
 10
1237.7012495769261
 20
374.17147954932079
 30
0.0
 11
1237.70124957693
 21
449.17147954932079
 31
0.0
  0
LINE
  5
380A
  8
0
 10
1265.1512495769271
 20
374.17147954932079
 30
0.0
 11
1265.1512495769271
 21
449.17147954932079
 31
0.0
  0
ARC
  5
380B
  8
0
 10
2241.45124957693
 20
432.1714795493171
 30
0.0
 40
1.0
 50
0.0
 51
90.000005008833185
  0
ARC
  5
380C
  8
0
 10
2231.45124957693
 20
432.1714795493171
 30
0.0
 40
1.0
 50
89.999989999842668
 51
179.99999600002039
  0
ARC
  5
380D
  8
0
 10
2233.20124957693
 20
423.52348454931769
 30
0.0
 40
7.6479949999999981
 50
64.852620000112523
 51
115.14737199976651
  0
ARC
  5
380E
  8
0
 10
2239.70124957693
 20
423.52348454931769
 30
0.0
 40
7.6479949999999981
 50
64.852630000083423
 51
115.14737199976651
  0
ARC
  5
380F
  8
0
 10
2233.20124957693
 20
432.3194745493164
 30
0.0
 40
7.6479949999999981
 50
244.85263000008339
 51
295.14736999991652
  0
ARC
  5
3810
  8
0
 10
2239.70124957693
 20
432.3194745493164
 30
0.0
 40
7.6479949999999981
 50
244.85263000008339
 51
295.14736999991652
  0
ARC
  5
3811
  8
0
 10
2239.70124957693
 20
400.81947454931651
 30
0.0
 40
7.647994500000002
 50
244.85263000008339
 51
295.14736999991652
  0
ARC
  5
3812
  8
0
 10
2233.20124957693
 20
400.81947454931651
 30
0.0
 40
7.647994500000002
 50
244.85263000008339
 51
295.14736999991652
  0
ARC
  5
3813
  8
0
 10
234.45124933850821
 20
48.0
 30
0.0
 40
7.0
 50
188.2132582605168
 51
227.87124883138
  0
LINE
  5
3814
  8
0
 10
2229.20124957693
 20
386.27147954931928
 30
0.0
 11
2194.519103017748
 21
386.27147954931752
 31
0.0
  0
LINE
  5
3815
  8
0
 10
2108.3833961361079
 20
386.27147954931843
 30
0.0
 11
1272.1108793763119
 21
386.27147954931928
 31
0.0
  0
LINE
  5
3816
  8
0
 10
2229.20124957693
 20
437.07147954931861
 30
0.0
 11
2194.519103017748
 21
437.07147954931861
 31
0.0
  0
LINE
  5
3817
  8
0
 10
2108.3833961361079
 20
437.07147954931861
 30
0.0
 11
1272.1108793763119
 21
437.07147954931861
 31
0.0
  0
LINE
  5
3818
  8
0
 10
2257.4512495769268
 20
386.32147954931861
 30
0.0
 11
2257.45124957693
 21
437.02147954931752
 31
0.0
  0
LINE
  5
3819
  8
0
 10
2243.70124957693
 20
386.32147954931861
 30
0.0
 11
2257.4512495769268
 21
386.32147954931861
 31
0.0
  0
LINE
  5
381A
  8
0
 10
2243.7012495769259
 20
437.02147954931752
 30
0.0
 11
2257.45124957693
 21
437.02147954931752
 31
0.0
  0
LINE
  5
381B
  8
0
 10
2229.20124957693
 20
380.81698230823622
 30
0.0
 11
2229.20124957693
 21
442.6714795493171
 31
0.0
  0
LINE
  5
381C
  8
0
 10
2243.70124957693
 20
380.81698359366959
 30
0.0
 11
2243.70124957693
 21
442.6714795493171
 31
0.0
  0
LINE
  5
381D
  8
0
 10
2231.7490412167931
 20
449.6714795493171
 30
0.0
 11
2231.7503921347702
 21
433.1714795493171
 31
0.0
  0
LINE
  5
381E
  8
0
 10
2231.7536557685162
 20
393.30972807970278
 30
0.0
 11
2231.7552636268442
 21
373.67148005877152
 31
0.0
  0
LINE
  5
381F
  8
0
 10
2241.1534579370668
 20
449.6714795493171
 30
0.0
 11
2241.1521070190861
 21
433.1714795493171
 31
0.0
  0
LINE
  5
3820
  8
0
 10
2241.148843385341
 20
393.30972807970278
 30
0.0
 11
2241.1472355270121
 21
373.67148005877152
 31
0.0
  0
LINE
  5
3821
  8
0
 10
2229.45124957693
 20
408.6714795493171
 30
0.0
 11
2243.45124957693
 21
408.6714795493171
 31
0.0
  0
LINE
  5
3822
  8
0
 10
2229.45124957693
 20
398.6714795493171
 30
0.0
 11
2243.45124957693
 21
398.6714795493171
 31
0.0
  0
LINE
  5
3823
  8
0
 10
2229.45124957693
 20
414.67147954931721
 30
0.0
 11
2243.45124957693
 21
414.67147954931721
 31
0.0
  0
LINE
  5
3824
  8
0
 10
2229.45124957693
 20
424.6714795493171
 30
0.0
 11
2243.45124957693
 21
424.6714795493171
 31
0.0
  0
LINE
  5
3825
  8
0
 10
2229.45124957693
 20
398.6714795493171
 30
0.0
 11
2229.45124957693
 21
408.6714795493171
 31
0.0
  0
LINE
  5
3826
  8
0
 10
2229.45124957693
 20
424.6714795493171
 30
0.0
 11
2229.45124957693
 21
414.67147954931721
 31
0.0
  0
LINE
  5
3827
  8
0
 10
2232.45124957693
 20
414.67147954931721
 30
0.0
 11
2232.45124957693
 21
408.6714795493171
 31
0.0
  0
LINE
  5
3828
  8
0
 10
2240.45124957693
 20
414.67147954931721
 30
0.0
 11
2240.45124957693
 21
408.6714795493171
 31
0.0
  0
LINE
  5
3829
  8
0
 10
2240.45124957693
 20
438.6714795493171
 30
0.0
 11
2240.45124957693
 21
433.1714795493171
 31
0.0
  0
LINE
  5
382A
  8
0
 10
2241.45124957693
 20
433.1714795493171
 30
0.0
 11
2231.45124957693
 21
433.1714795493171
 31
0.0
  0
LINE
  5
382B
  8
0
 10
2240.45124957693
 20
438.6714795493171
 30
0.0
 11
2232.45124957693
 21
438.6714795493171
 31
0.0
  0
LINE
  5
382C
  8
0
 10
2242.45124957693
 20
432.1714795493171
 30
0.0
 11
2242.45124957693
 21
431.17147954931721
 31
0.0
  0
LINE
  5
382D
  8
0
 10
2230.45124957693
 20
432.1714795493171
 30
0.0
 11
2230.45124957693
 21
431.17147954931721
 31
0.0
  0
LINE
  5
382E
  8
0
 10
2229.95124957693
 20
431.17147954931721
 30
0.0
 11
2242.95124957693
 21
431.17147954931721
 31
0.0
  0
LINE
  5
382F
  8
0
 10
2229.95124957693
 20
431.17147954931721
 30
0.0
 11
2229.95124957693
 21
424.6714795493171
 31
0.0
  0
LINE
  5
3830
  8
0
 10
2242.95124957693
 20
431.17147954931721
 30
0.0
 11
2242.95124957693
 21
424.6714795493171
 31
0.0
  0
LINE
  5
3831
  8
0
 10
2232.45124957693
 20
438.6714795493171
 30
0.0
 11
2232.45124957693
 21
433.1714795493171
 31
0.0
  0
LINE
  5
3832
  8
0
  6
CENTER
 10
2236.45124957693
 20
440.32281454931581
 30
0.0
 11
2236.45124957693
 21
389.84375354931763
 31
0.0
  0
LINE
  5
3833
  8
0
 10
2239.70124957693
 20
393.1714795493171
 30
0.0
 11
2233.20124957693
 21
393.1714795493171
 31
0.0
  0
LINE
  5
3834
  8
0
 10
2242.95124957693
 20
393.89637354931619
 30
0.0
 11
2242.95124957693
 21
398.6714795493171
 31
0.0
  0
LINE
  5
3835
  8
0
 10
2229.95124957693
 20
393.89637354931619
 30
0.0
 11
2229.95124957693
 21
398.6714795493171
 31
0.0
  0
LINE
  5
3836
  8
0
 10
2243.45124957693
 20
398.6714795493171
 30
0.0
 11
2243.45124957693
 21
408.6714795493171
 31
0.0
  0
LINE
  5
3837
  8
0
 10
2243.45124957693
 20
424.6714795493171
 30
0.0
 11
2243.45124957693
 21
414.67147954931721
 31
0.0
  0
LINE
  5
3838
  8
AM_0_T3
 10
2231.7490412167931
 20
449.6714795493171
 30
0.0
 11
2241.1534579370668
 21
449.6714795493171
 31
0.0
  0
LINE
  5
3839
  8
AM_0_T3
 10
2229.20124957693
 20
442.6714795493171
 30
0.0
 11
2231.7490412167931
 21
449.6714795493171
 31
0.0
  0
LINE
  5
383A
  8
AM_0_T3
 10
2241.1534579370668
 20
449.6714795493171
 30
0.0
 11
2243.70124957693
 21
442.6714795493171
 31
0.0
  0
LINE
  5
383B
  8
AM_0_T3
 10
2231.7490412167931
 20
373.67147954931892
 30
0.0
 11
2241.1534579370668
 21
373.67147954931892
 31
0.0
  0
LINE
  5
383C
  8
AM_0_T3
 10
2229.20124957693
 20
380.67147954931892
 30
0.0
 11
2231.7490412167931
 21
373.67147954931892
 31
0.0
  0
LINE
  5
383D
  8
AM_0_T3
 10
2241.1534579370668
 20
373.67147954931892
 30
0.0
 11
2243.70124957693
 21
380.67147954931892
 31
0.0
  0
LINE
  5
383E
  8
0
 10
241.70124957692309
 20
25.399999999999629
 30
0.0
 11
1198.791619777541
 21
25.399999999999629
 31
0.0
  0
LINE
  5
383F
  8
0
 10
213.4512495769267
 20
25.35000000000036
 30
0.0
 11
213.4512495769267
 21
-25.349999999998541
 31
0.0
  0
LINE
  5
3840
  8
0
 10
227.20124957692681
 20
25.35000000000036
 30
0.0
 11
213.4512495769267
 21
25.35000000000036
 31
0.0
  0
LINE
  5
3841
  8
0
 10
227.20124957692681
 20
-25.349999999998541
 30
0.0
 11
213.4512495769267
 21
-25.349999999998541
 31
0.0
  0
LINE
  5
3842
  8
0
 10
238.2040257385087
 20
-54.499995999999548
 30
0.0
 11
230.69847153850779
 21
-54.499995999999548
 31
0.0
  0
LINE
  5
3843
  8
0
 10
230.6984723385066
 20
-54.499998999999661
 30
0.0
 11
226.9456951385072
 21
-47.999998000000232
 31
0.0
  0
LINE
  5
3844
  8
0
 10
226.94569453850991
 20
-47.999998000000232
 30
0.0
 11
230.69847163850861
 21
-41.499996999999887
 31
0.0
  0
LINE
  5
3845
  8
0
 10
230.69847153850779
 20
-41.5
 30
0.0
 11
238.2040257385087
 21
-41.5
 31
0.0
  0
LINE
  5
3846
  8
0
 10
241.95680413850641
 20
-47.999998000000232
 30
0.0
 11
238.20402703850769
 21
-41.499996999999887
 31
0.0
  0
LINE
  5
3847
  8
0
 10
238.20402633850969
 20
-54.499998999999661
 30
0.0
 11
241.95680353850909
 21
-47.999998000000232
 31
0.0
  0
LINE
  5
3848
  8
0
 10
230.69847293850759
 20
54.499996000000472
 30
0.0
 11
238.20402713850851
 21
54.499996000000472
 31
0.0
  0
LINE
  5
3849
  8
0
 10
238.20402633850969
 20
54.499999000000571
 30
0.0
 11
241.95680353850909
 21
47.999998000000232
 31
0.0
  0
LINE
  5
384A
  8
0
 10
241.95680413850641
 20
47.999998000000232
 30
0.0
 11
238.20402703850769
 21
41.499996999999887
 31
0.0
  0
LINE
  5
384B
  8
0
 10
226.94569453850991
 20
47.999998000000232
 30
0.0
 11
230.69847163850861
 21
41.499996999999887
 31
0.0
  0
LINE
  5
384C
  8
0
 10
230.6984723385066
 20
54.499999000000571
 30
0.0
 11
226.9456951385072
 21
47.999998000000232
 31
0.0
  0
LINE
  5
384D
  8
0
 10
238.20402713850851
 20
41.5
 30
0.0
 11
230.69847293850759
 21
41.5
 31
0.0
  0
LINE
  5
384E
  8
0
  6
CENTER
 10
244.45124933850821
 20
48.0
 30
0.0
 11
224.45124933850809
 21
48.0
 31
0.0
  0
LINE
  5
384F
  8
0
  6
CENTER
 10
234.4512491000896
 20
58.0
 30
0.0
 11
234.4512491000896
 21
38.0
 31
0.0
  0
LINE
  5
3850
  8
0
  6
CENTER
 10
244.45124933850821
 20
-48.0
 30
0.0
 11
224.45124933850809
 21
-48.0
 31
0.0
  0
LINE
  5
3851
  8
0
  6
CENTER
 10
234.4512495769267
 20
-38.0
 30
0.0
 11
234.4512495769267
 21
-58.0
 31
0.0
  0
LINE
  5
3852
  8
0
 10
241.70124957692681
 20
30.85449724108275
 30
0.0
 11
241.70124957692681
 21
-30.85449724108275
 31
0.0
  0
LINE
  5
3853
  8
0
 10
227.20124957692681
 20
30.85449595564933
 30
0.0
 11
227.20124957692681
 21
-30.85449595564841
 31
0.0
  0
LINE
  5
3854
  8
0
 10
239.15385214921471
 20
-42.814874465864698
 30
0.0
 11
239.14684183466301
 21
42.808525150782771
 31
0.0
  0
LINE
  5
3855
  8
0
 10
229.74864700467509
 20
-42.814874033369051
 30
0.0
 11
229.75565731915771
 21
42.80852471952312
 31
0.0
  0
LINE
  5
3856
  8
0
 10
239.15344822632679
 20
-37.881393849751468
 30
0.0
 11
241.70124957692681
 21
-30.85449724108275
 31
0.0
  0
LINE
  5
3857
  8
0
 10
229.7490509331837
 20
-37.88139362553283
 30
0.0
 11
227.20124957692681
 21
-30.85449595564841
 31
0.0
  0
LINE
  5
3858
  8
0
 10
239.15327021203839
 20
-35.707142142714467
 30
0.0
 11
229.74922894181501
 21
-35.707142142714467
 31
0.0
  0
LINE
  5
3859
  8
0
 10
239.15344822632679
 20
37.881393849751468
 30
0.0
 11
241.70124957692681
 21
30.85449724108275
 31
0.0
  0
LINE
  5
385A
  8
0
 10
229.7490509331837
 20
37.88139362553283
 30
0.0
 11
227.20124957692681
 21
30.85449595564933
 31
0.0
  0
LINE
  5
385B
  8
0
 10
239.15327021203839
 20
35.707142142714467
 30
0.0
 11
229.74922894181501
 21
35.707142142714467
 31
0.0
  0
ARC
  5
385C
  8
0
 10
229.4512495769267
 20
432.1714795493171
 30
0.0
 40
1.0
 50
89.999994991166815
 51
180.0
  0
ARC
  5
385D
  8
0
 10
239.45124957692681
 20
432.1714795493171
 30
0.0
 40
1.0
 50
0.0000039999795585
 51
90.000010000157346
  0
ARC
  5
385E
  8
0
 10
237.7012495769267
 20
423.52348454931769
 30
0.0
 40
7.6479949999999981
 50
64.852628000233466
 51
115.14737999988741
  0
ARC
  5
385F
  8
0
 10
231.20124957692681
 20
423.52348454931769
 30
0.0
 40
7.6479949999999981
 50
64.852628000233466
 51
115.14736999989439
  0
ARC
  5
3860
  8
0
 10
237.7012495769267
 20
432.3194745493164
 30
0.0
 40
7.6479949999999981
 50
244.85263000010551
 51
295.14736999989441
  0
ARC
  5
3861
  8
0
 10
231.20124957692681
 20
432.3194745493164
 30
0.0
 40
7.6479949999999981
 50
244.85263000010551
 51
295.14736999989441
  0
ARC
  5
3862
  8
0
 10
231.20124957692681
 20
400.81947454931651
 30
0.0
 40
7.647994500000002
 50
244.85263000010551
 51
295.14736999989441
  0
ARC
  5
3863
  8
0
 10
237.7012495769267
 20
400.81947454931651
 30
0.0
 40
7.647994500000002
 50
244.85263000010551
 51
295.14736999989441
  0
LINE
  5
3864
  8
0
 10
241.70124957692309
 20
386.27147954931928
 30
0.0
 11
1198.791619777541
 21
386.27147954931928
 31
0.0
  0
LINE
  5
3865
  8
0
 10
241.70124957692309
 20
437.07147954931861
 30
0.0
 11
1198.791619777541
 21
437.07147954931861
 31
0.0
  0
LINE
  5
3866
  8
0
 10
213.4512495769267
 20
386.32147954931861
 30
0.0
 11
213.4512495769267
 21
437.02147954931752
 31
0.0
  0
LINE
  5
3867
  8
0
 10
227.20124957692681
 20
386.32147954931861
 30
0.0
 11
213.4512495769267
 21
386.32147954931861
 31
0.0
  0
LINE
  5
3868
  8
0
 10
227.20124957692681
 20
437.02147954931752
 30
0.0
 11
213.4512495769267
 21
437.02147954931752
 31
0.0
  0
LINE
  5
3869
  8
0
 10
241.70124957692681
 20
380.81698230823622
 30
0.0
 11
241.70124957692681
 21
442.6714795493171
 31
0.0
  0
LINE
  5
386A
  8
0
 10
227.20124957692681
 20
380.81698359366959
 30
0.0
 11
227.20124957692681
 21
442.6714795493171
 31
0.0
  0
LINE
  5
386B
  8
0
 10
239.15345793706359
 20
449.6714795493171
 30
0.0
 11
239.15210701908291
 21
433.1714795493171
 31
0.0
  0
LINE
  5
386C
  8
0
 10
239.1488433853373
 20
393.30972807970278
 30
0.0
 11
239.1472355270125
 21
373.67148005877152
 31
0.0
  0
LINE
  5
386D
  8
0
 10
229.74904121678989
 20
449.6714795493171
 30
0.0
 11
229.75039213477061
 21
433.1714795493171
 31
0.0
  0
LINE
  5
386E
  8
0
 10
229.75365576851621
 20
393.30972807970278
 30
0.0
 11
229.75526362684101
 21
373.67148005877152
 31
0.0
  0
LINE
  5
386F
  8
0
 10
241.45124957692681
 20
408.6714795493171
 30
0.0
 11
227.4512495769267
 21
408.6714795493171
 31
0.0
  0
LINE
  5
3870
  8
0
 10
241.45124957692681
 20
398.6714795493171
 30
0.0
 11
227.4512495769267
 21
398.6714795493171
 31
0.0
  0
LINE
  5
3871
  8
0
 10
241.45124957692681
 20
414.67147954931721
 30
0.0
 11
227.4512495769267
 21
414.67147954931721
 31
0.0
  0
LINE
  5
3872
  8
0
 10
241.45124957692681
 20
424.6714795493171
 30
0.0
 11
227.4512495769267
 21
424.6714795493171
 31
0.0
  0
LINE
  5
3873
  8
0
 10
241.45124957692681
 20
398.6714795493171
 30
0.0
 11
241.45124957692681
 21
408.6714795493171
 31
0.0
  0
LINE
  5
3874
  8
0
 10
241.45124957692681
 20
424.6714795493171
 30
0.0
 11
241.45124957692681
 21
414.67147954931721
 31
0.0
  0
LINE
  5
3875
  8
0
 10
238.4512495769267
 20
414.67147954931721
 30
0.0
 11
238.4512495769267
 21
408.6714795493171
 31
0.0
  0
LINE
  5
3876
  8
0
 10
230.4512495769267
 20
414.67147954931721
 30
0.0
 11
230.4512495769267
 21
408.6714795493171
 31
0.0
  0
LINE
  5
3877
  8
0
 10
230.4512495769267
 20
438.6714795493171
 30
0.0
 11
230.4512495769267
 21
433.1714795493171
 31
0.0
  0
LINE
  5
3878
  8
0
 10
229.4512495769267
 20
433.1714795493171
 30
0.0
 11
239.45124957692681
 21
433.1714795493171
 31
0.0
  0
LINE
  5
3879
  8
0
 10
230.4512495769267
 20
438.6714795493171
 30
0.0
 11
238.4512495769267
 21
438.6714795493171
 31
0.0
  0
LINE
  5
387A
  8
0
 10
228.4512495769267
 20
432.1714795493171
 30
0.0
 11
228.4512495769267
 21
431.17147954931721
 31
0.0
  0
LINE
  5
387B
  8
0
 10
240.4512495769267
 20
432.1714795493171
 30
0.0
 11
240.4512495769267
 21
431.17147954931721
 31
0.0
  0
LINE
  5
387C
  8
0
 10
240.9512495769267
 20
431.17147954931721
 30
0.0
 11
227.9512495769267
 21
431.17147954931721
 31
0.0
  0
LINE
  5
387D
  8
0
 10
240.9512495769267
 20
431.17147954931721
 30
0.0
 11
240.9512495769267
 21
424.6714795493171
 31
0.0
  0
LINE
  5
387E
  8
0
 10
227.9512495769267
 20
431.17147954931721
 30
0.0
 11
227.9512495769267
 21
424.6714795493171
 31
0.0
  0
LINE
  5
387F
  8
0
 10
238.4512495769267
 20
438.6714795493171
 30
0.0
 11
238.4512495769267
 21
433.1714795493171
 31
0.0
  0
LINE
  5
3880
  8
0
  6
CENTER
 10
234.4512495769267
 20
440.32281454931581
 30
0.0
 11
234.4512495769267
 21
389.84375354931763
 31
0.0
  0
LINE
  5
3881
  8
0
 10
231.20124957692681
 20
393.1714795493171
 30
0.0
 11
237.7012495769267
 21
393.1714795493171
 31
0.0
  0
LINE
  5
3882
  8
0
 10
227.9512495769267
 20
393.89637354931619
 30
0.0
 11
227.9512495769267
 21
398.6714795493171
 31
0.0
  0
LINE
  5
3883
  8
0
 10
240.9512495769267
 20
393.89637354931619
 30
0.0
 11
240.9512495769267
 21
398.6714795493171
 31
0.0
  0
LINE
  5
3884
  8
0
 10
227.4512495769267
 20
398.6714795493171
 30
0.0
 11
227.4512495769267
 21
408.6714795493171
 31
0.0
  0
LINE
  5
3885
  8
0
 10
227.4512495769267
 20
424.6714795493171
 30
0.0
 11
227.4512495769267
 21
414.67147954931721
 31
0.0
  0
LINE
  5
3886
  8
AM_0_T3
 10
239.15345793706359
 20
449.6714795493171
 30
0.0
 11
229.74904121678989
 21
449.6714795493171
 31
0.0
  0
LINE
  5
3887
  8
AM_0_T3
 10
241.70124957692681
 20
442.6714795493171
 30
0.0
 11
239.15345793706359
 21
449.6714795493171
 31
0.0
  0
LINE
  5
3888
  8
AM_0_T3
 10
229.74904121678989
 20
449.6714795493171
 30
0.0
 11
227.20124957692681
 21
442.6714795493171
 31
0.0
  0
LINE
  5
3889
  8
AM_0_T3
 10
239.15345793706359
 20
373.67147954931892
 30
0.0
 11
229.74904121678989
 21
373.67147954931892
 31
0.0
  0
LINE
  5
388A
  8
AM_0_T3
 10
241.70124957692681
 20
380.67147954931892
 30
0.0
 11
239.15345793706359
 21
373.67147954931892
 31
0.0
  0
LINE
  5
388B
  8
AM_0_T3
 10
229.74904121678989
 20
373.67147954931892
 30
0.0
 11
227.20124957692681
 21
380.67147954931892
 31
0.0
  0
ARC
  5
388C
  8
0
 10
2236.451249815349
 20
48.000000000000909
 30
0.0
 40
7.0
 50
312.20616791853507
 51
351.78674173943148
  0
ARC
  5
388D
  8
0
 10
2236.451249815349
 20
48.000000000000909
 30
0.0
 40
7.0
 50
8.2132024012016966
 51
51.786795918471
  0
ARC
  5
388E
  8
0
 10
2236.451249815349
 20
48.000000000000909
 30
0.0
 40
7.0
 50
68.213122489380268
 51
111.7868775106197
  0
ARC
  5
388F
  8
0
 10
2236.451249815349
 20
48.000000000000909
 30
0.0
 40
7.0
 50
128.213204081529
 51
171.7867975987983
  0
ARC
  5
3890
  8
0
 10
2236.451249815349
 20
48.000000000000909
 30
0.0
 40
7.0
 50
188.21325826056841
 51
227.79382681198189
  0
ARC
  5
3891
  8
0
 10
2236.451249815349
 20
-47.999999999999091
 30
0.0
 40
7.0
 50
132.12875643081799
 51
171.78674173943159
  0
ARC
  5
3892
  8
0
 10
2236.451249815349
 20
-47.999999999999091
 30
0.0
 40
7.0
 50
188.21320240120161
 51
231.78679591847089
  0
ARC
  5
3893
  8
0
 10
2236.451249815349
 20
-47.999999999999091
 30
0.0
 40
7.0
 50
248.2131224893802
 51
291.78687751061972
  0
ARC
  5
3894
  8
0
 10
2236.451249815349
 20
-47.999999999999091
 30
0.0
 40
7.0
 50
308.21320408152889
 51
351.78679759879822
  0
ARC
  5
3895
  8
0
 10
2236.451249815349
 20
-47.999999999999091
 30
0.0
 40
7.0
 50
8.2132582605683861
 51
47.871248831380029
  0
LINE
  5
3896
  8
0
 10
2229.20124957693
 20
-25.39999999999873
 30
0.0
 11
1272.1108793763119
 21
-25.39999999999873
 31
0.0
  0
LINE
  5
3897
  8
0
 10
241.70124957692309
 20
-25.400000000000539
 30
0.0
 11
305.85124957692818
 21
-25.400000000000539
 31
0.0
  0
LINE
  5
3898
  8
0
 10
333.05124957692527
 20
-25.400000000001452
 30
0.0
 11
1198.791619777541
 21
-25.400000000000539
 31
0.0
  0
LINE
  5
3899
  8
0
 10
2257.4512495769268
 20
-25.349999999999451
 30
0.0
 11
2257.45124957693
 21
25.349999999999451
 31
0.0
  0
LINE
  5
389A
  8
0
 10
2243.70124957693
 20
-25.349999999999451
 30
0.0
 11
2257.4512495769268
 21
-25.349999999999451
 31
0.0
  0
LINE
  5
389B
  8
0
 10
2243.7012495769259
 20
25.349999999999451
 30
0.0
 11
2257.45124957693
 21
25.349999999999451
 31
0.0
  0
LINE
  5
389C
  8
0
 10
2232.698473415348
 20
54.499996000000472
 30
0.0
 11
2240.2040276153489
 21
54.499996000000472
 31
0.0
  0
LINE
  5
389D
  8
0
 10
2240.2040268153501
 20
54.499999000000571
 30
0.0
 11
2243.9568040153499
 21
47.999998000001142
 31
0.0
  0
LINE
  5
389E
  8
0
 10
2243.9568046153472
 20
47.999998000001142
 30
0.0
 11
2240.2040275153481
 21
41.499997000000803
 31
0.0
  0
LINE
  5
389F
  8
0
 10
2240.2040276153489
 20
41.500000000000902
 30
0.0
 11
2232.698473415348
 21
41.500000000000902
 31
0.0
  0
LINE
  5
38A0
  8
0
 10
2228.9456950153508
 20
47.999998000001142
 30
0.0
 11
2232.698472115349
 21
41.499997000000803
 31
0.0
  0
LINE
  5
38A1
  8
0
 10
2232.698472815347
 20
54.499999000000571
 30
0.0
 11
2228.9456956153481
 21
47.999998000001142
 31
0.0
  0
LINE
  5
38A2
  8
0
 10
2240.2040262153491
 20
-54.499995999999548
 30
0.0
 11
2232.6984720153482
 21
-54.499995999999548
 31
0.0
  0
LINE
  5
38A3
  8
0
 10
2232.698472815347
 20
-54.499998999999661
 30
0.0
 11
2228.9456956153481
 21
-47.999997999999323
 31
0.0
  0
LINE
  5
38A4
  8
0
 10
2228.9456950153508
 20
-47.999997999999323
 30
0.0
 11
2232.698472115349
 21
-41.499996999998977
 31
0.0
  0
LINE
  5
38A5
  8
0
 10
2243.9568046153472
 20
-47.999997999999323
 30
0.0
 11
2240.2040275153481
 21
-41.499996999998977
 31
0.0
  0
LINE
  5
38A6
  8
0
 10
2240.2040268153501
 20
-54.499998999999661
 30
0.0
 11
2243.9568040153499
 21
-47.999997999999323
 31
0.0
  0
LINE
  5
38A7
  8
0
 10
2232.6984720153482
 20
-41.499999999999083
 30
0.0
 11
2240.2040262153491
 21
-41.499999999999083
 31
0.0
  0
LINE
  5
38A8
  8
0
  6
CENTER
 10
2226.451249815349
 20
-47.999999999999091
 30
0.0
 11
2246.4512498153481
 21
-47.999999999999091
 31
0.0
  0
LINE
  5
38A9
  8
0
  6
CENTER
 10
2236.4512500537671
 20
-57.999999999999091
 30
0.0
 11
2236.4512500537671
 21
-37.999999999999091
 31
0.0
  0
LINE
  5
38AA
  8
0
  6
CENTER
 10
2226.451249815349
 20
48.000000000000909
 30
0.0
 11
2246.4512498153481
 21
48.000000000000909
 31
0.0
  0
LINE
  5
38AB
  8
0
  6
CENTER
 10
2236.45124957693
 20
38.000000000000909
 30
0.0
 11
2236.45124957693
 21
58.000000000000909
 31
0.0
  0
LINE
  5
38AC
  8
0
 10
2229.20124957693
 20
-30.854497241081841
 30
0.0
 11
2229.20124957693
 21
30.85449724108366
 31
0.0
  0
LINE
  5
38AD
  8
0
 10
2243.70124957693
 20
-30.85449595564841
 30
0.0
 11
2243.70124957693
 21
30.85449595564933
 31
0.0
  0
LINE
  5
38AE
  8
0
 10
2231.748647004642
 20
42.814874465865607
 30
0.0
 11
2231.7556573191941
 21
-42.808525150781861
 31
0.0
  0
LINE
  5
38AF
  8
0
 10
2241.1538521491821
 20
42.814874033369961
 30
0.0
 11
2241.146841834699
 21
-42.808524719522211
 31
0.0
  0
LINE
  5
38B0
  8
0
 10
2231.7490509275299
 20
37.881393849752378
 30
0.0
 11
2229.20124957693
 21
30.85449724108366
 31
0.0
  0
LINE
  5
38B1
  8
0
 10
2241.153448220673
 20
37.881393625533747
 30
0.0
 11
2243.70124957693
 21
30.85449595564933
 31
0.0
  0
LINE
  5
38B2
  8
0
 10
2231.7492289418178
 20
35.707142142715377
 30
0.0
 11
2241.1532702120421
 21
35.707142142715377
 31
0.0
  0
LINE
  5
38B3
  8
0
 10
2231.7490509275299
 20
-37.881393849750559
 30
0.0
 11
2229.20124957693
 21
-30.854497241081841
 31
0.0
  0
LINE
  5
38B4
  8
0
 10
2241.153448220673
 20
-37.881393625531921
 30
0.0
 11
2243.70124957693
 21
-30.85449595564841
 31
0.0
  0
LINE
  5
38B5
  8
0
 10
2231.7492289418178
 20
-35.707142142713558
 30
0.0
 11
2241.1532702120421
 21
-35.707142142713558
 31
0.0
  0
LINE
  5
3A09
  8
0
 10
269.45124957692673
 20
-75.999999999999091
 30
0.0
 11
369.45124957692673
 21
-75.999999999999091
 31
0.0
  0
LINE
  5
3A0A
  8
0
 10
369.45124957692673
 20
-89.999999999999091
 30
0.0
 11
269.45124957692673
 21
-90.0
 31
0.0
  0
LINE
  5
3A0B
  8
0
  6
CENTER
 10
356.95124957692673
 20
-98.999999999999091
 30
0.0
 11
356.95124957692673
 21
-65.999999999999091
 31
0.0
  0
LINE
  5
3A0C
  8
0
 10
369.45124957692673
 20
-75.999999999999091
 30
0.0
 11
369.45124957692673
 21
-89.999999999999091
 31
0.0
  0
LINE
  5
3A0D
  8
0
  6
CENTER
 10
281.95124957692673
 20
-98.999999999999091
 30
0.0
 11
281.95124957692673
 21
-65.999999999999091
 31
0.0
  0
LINE
  5
3A0E
  8
0
 10
269.45124957692673
 20
-90.0
 30
0.0
 11
269.45124957692673
 21
-75.999999999999091
 31
0.0
  0
LINE
  5
3A0F
  8
0
 10
333.05124957692891
 20
-75.999999999999091
 30
0.0
 11
333.05124957692527
 21
-25.400000000001452
 31
0.0
  0
LINE
  5
3A10
  8
0
 10
305.85124957692818
 20
-75.999999999999091
 30
0.0
 11
305.85124957692818
 21
-25.400000000000539
 31
0.0
  0
LINE
  5
3A11
  8
0
  6
CENTER
 10
2165.5933852006601
 20
425.81361517304867
 30
0.0
 11
2190.342122542188
 21
450.56235251457832
 31
0.0
  0
LINE
  5
3A13
  8
0
  6
CENTER
 10
2137.3091139531971
 20
425.81361517304867
 30
0.0
 11
2112.5603766116692
 21
450.56235251457832
 31
0.0
  0
LINE
  5
3A18
  8
0
  6
CENTER
 10
2137.3091139531971
 20
397.5293439255874
 30
0.0
 11
2112.5603766116692
 21
372.78060658405769
 31
0.0
  0
LINE
  5
3A1A
  8
0
  6
CENTER
 10
2165.5933852006601
 20
397.5293439255874
 30
0.0
 11
2190.342122542188
 21
372.78060658405769
 31
0.0
  0
ARC
  5
3A1C
  8
AM_0_T3
 10
319.45124957692673
 20
-46.852272606893159
 30
0.0
 40
25.40000000000779
 50
57.626714020942401
 51
122.3732859790575
  0
LINE
  5
3A1D
  8
0
 10
2229.20124957693
 20
25.400000000000539
 30
0.0
 11
2165.051249576929
 21
25.400000000000539
 31
0.0
  0
LINE
  5
3A1E
  8
0
 10
2137.8512495769278
 20
25.400000000001452
 30
0.0
 11
1272.1108793763119
 21
25.400000000000539
 31
0.0
  0
LINE
  5
3A1F
  8
0
 10
2201.4512495769259
 20
75.999999999999091
 30
0.0
 11
2101.4512495769259
 21
75.999999999999091
 31
0.0
  0
LINE
  5
3A20
  8
0
 10
2101.4512495769259
 20
89.999999999999091
 30
0.0
 11
2201.4512495769259
 21
90.0
 31
0.0
  0
LINE
  5
3A21
  8
0
  6
CENTER
 10
2113.9512495769259
 20
98.999999999999091
 30
0.0
 11
2113.9512495769259
 21
65.999999999999091
 31
0.0
  0
LINE
  5
3A22
  8
0
 10
2101.4512495769259
 20
75.999999999999091
 30
0.0
 11
2101.4512495769259
 21
89.999999999999091
 31
0.0
  0
LINE
  5
3A23
  8
0
  6
CENTER
 10
2188.9512495769259
 20
98.999999999999091
 30
0.0
 11
2188.9512495769259
 21
65.999999999999091
 31
0.0
  0
LINE
  5
3A24
  8
0
 10
2201.4512495769259
 20
90.0
 30
0.0
 11
2201.4512495769259
 21
75.999999999999091
 31
0.0
  0
LINE
  5
3A25
  8
0
 10
2137.8512495769278
 20
75.999999999999091
 30
0.0
 11
2137.8512495769278
 21
25.400000000001452
 31
0.0
  0
LINE
  5
3A26
  8
0
 10
2165.051249576929
 20
75.999999999999091
 30
0.0
 11
2165.051249576929
 21
25.400000000000539
 31
0.0
  0
ARC
  5
3A27
  8
AM_0_T3
 10
2151.45124957693
 20
46.852272606893159
 30
0.0
 40
25.40000000000779
 50
237.62671402091451
 51
302.37328597908538
  0
LINE
  5
3A28
  8
0
  6
CENTER
 10
305.30911395319708
 20
425.81361517304867
 30
0.0
 11
280.5603766116655
 21
450.56235251457832
 31
0.0
  0
LINE
  5
3A29
  8
0
  6
CENTER
 10
333.59338520065648
 20
425.81361517304867
 30
0.0
 11
358.34212254218801
 21
450.56235251457832
 31
0.0
  0
ARC
  5
3A2A
  8
0
  6
CENTER
 10
319.45124957692673
 20
411.67147954931801
 30
0.0
 40
37.5
 50
42.635610110956669
 51
137.36438988904331
  0
ARC
  5
3A2B
  8
0
  6
CENTER
 10
319.45124957692673
 20
411.67147954931801
 30
0.0
 40
37.5
 50
222.63561011095661
 51
317.3643898890432
  0
ARC
  5
3A2C
  8
0
 10
345.96775387142401
 20
438.18798384381353
 30
0.0
 40
7.5
 50
351.43871286961883
 51
188.56128713038109
  0
ARC
  5
3A2D
  8
0
 10
292.93474528243308
 20
438.18798384381353
 30
0.0
 40
7.5
 50
351.43871286961883
 51
188.56128713038109
  0
ARC
  5
3A2E
  8
0
 10
345.96775387142401
 20
385.1549752548226
 30
0.0
 40
7.5
 50
171.4387128696188
 51
8.5612871303811762
  0
LINE
  5
3A2F
  8
0
  6
CENTER
 10
333.59338520065648
 20
397.5293439255874
 30
0.0
 11
358.34212254218801
 21
372.78060658405769
 31
0.0
  0
ARC
  5
3A30
  8
0
 10
292.93474528243308
 20
385.1549752548226
 30
0.0
 40
7.5
 50
171.4387128696188
 51
8.5612871303811762
  0
LINE
  5
3A31
  8
0
  6
CENTER
 10
305.30911395319708
 20
397.5293439255874
 30
0.0
 11
280.5603766116655
 21
372.78060658405769
 31
0.0
  0
ARC
  5
3A32
  8
0
 10
319.45124957692673
 20
411.67147954931801
 30
0.0
 40
50.0
 50
30.530702338700522
 51
149.46929766129949
  0
ARC
  5
3A33
  8
0
 10
319.45124957692673
 20
411.67147954931801
 30
0.0
 40
50.0
 50
210.53070233870051
 51
329.46929766129938
  0
LINE
  5
3A63
  8
0
  6
CENTER
 10
2151.45124957693
 20
327.67151673118673
 30
0.0
 11
2151.45124957693
 21
495.67144236744929
 31
0.0
  0
LINE
  5
3A66
  8
0
  6
CENTER
 10
2151.4512495769259
 20
98.0
 30
0.0
 11
2151.4512495769259
 21
0.0
 31
0.0
  0
LINE
  5
3A69
  8
0
  6
CENTER
 10
319.45124957692673
 20
-98.0
 30
0.0
 11
319.45124957692673
 21
0.0
 31
0.0
  0
LINE
  5
3A6A
  8
0
  6
CENTER
 10
319.45124957692673
 20
478.17147954931801
 30
0.0
 11
319.45124957692673
 21
345.17147954931801
 31
0.0
  0
TEXT
  5
4645
  8
0
 10
853.30839243407331
 20
534.28139750375885
 30
0.0
 40
50.0
  1
2SX2000L-20AX15A
 72
     4
 11
1235.45124957693
 21
559.28139750375885
 31
0.0
  0
LINE
  5
48B0
  8
0
  6
CENTER
 10
205.45124957693039
 20
0.0
 30
0.0
 11
2265.45124957693
 21
0.0
 31
0.0
  0
LINE
  5
48B1
  8
0
 10
194.45124957693039
 20
5.8499999999994543
 30
0.0
 11
194.45124957693039
 21
-28.150000000000539
 31
0.0
  0
LINE
  5
48B2
  8
0
 10
197.30124957692891
 20
5.0707734875377346
 30
0.0
 11
197.30124957692891
 21
-27.37077348753882
 31
0.0
  0
LINE
  5
48B3
  8
0
  6
CENTER
 10
191.55668676165439
 20
-11.15000000000054
 30
0.0
 11
214.10914253716319
 21
-11.15000000000054
 31
0.0
  0
LINE
  5
48B4
  8
0
 10
196.7410835463597
 20
5.8499999999994543
 30
0.0
 11
194.45124957693039
 21
5.8499999999994543
 31
0.0
  0
LINE
  5
48B5
  8
0
 10
200.94008159408619
 20
-0.3000000000010914
 30
0.0
 11
213.45124957693039
 21
-0.3000000000010914
 31
0.0
  0
LINE
  5
48B6
  8
0
 10
199.53974443071999
 20
-21.999958681099081
 30
0.0
 11
199.53974443071999
 21
-0.3000413189020037
 31
0.0
  0
LINE
  5
48B7
  8
0
 10
197.4928376429888
 20
5.3236161146596714
 30
0.0
 11
199.0606963525133
 21
1.015959713347911
 31
0.0
  0
ARC
  5
48B8
  8
0
 10
196.7410835463597
 20
5.0499999999992724
 30
0.0
 40
0.8
 50
20.000000000029289
 51
90.0
1001
GENIUS_GENODEF_13
1002
{
1000
HIER
1070
     0
1002
}
1002
{
1000
MANEDIT
1070
     0
1002
}
1002
{
1000
NOSEL
1070
     0
1002
}
1002
{
1000
BEHIND
1070
     0
1002
}
1002
{
1000
OTHER
1070
     0
1002
}
1002
{
1000
REACTOR
1002
}
1001
GENIUS_GENOBJ-N-FIL_13
1002
{
1000
OWNER
1000
GEN
1002
}
  0
ARC
  5
48B9
  8
0
 10
200.94008159408619
 20
1.6999999999989079
 30
0.0
 40
2.0
 50
200.00000000002919
 51
270.0
1001
GENIUS_GENODEF_13
1002
{
1000
HIER
1070
     0
1002
}
1002
{
1000
MANEDIT
1070
     0
1002
}
1002
{
1000
NOSEL
1070
     0
1002
}
1002
{
1000
BEHIND
1070
     0
1002
}
1002
{
1000
OTHER
1070
     0
1002
}
1002
{
1000
REACTOR
1002
}
1001
GENIUS_GENOBJ-N-FIL_13
1002
{
1000
OWNER
1000
GEN
1002
}
  0
LINE
  5
48BA
  8
0
 10
196.7410835463597
 20
-28.150000000000539
 30
0.0
 11
194.45124957693039
 21
-28.150000000000539
 31
0.0
  0
LINE
  5
48BB
  8
0
 10
200.94008159408619
 20
-22.000000000000909
 30
0.0
 11
213.45124957693039
 21
-22.000000000000909
 31
0.0
  0
LINE
  5
48BC
  8
0
 10
197.4928376429888
 20
-27.623616114660759
 30
0.0
 11
199.0606963525133
 21
-23.315959713348999
 31
0.0
  0
ARC
  5
48BD
  8
0
 10
196.7410835463597
 20
-27.35000000000036
 30
0.0
 40
0.8
 50
270.0
 51
339.99999999997073
1001
GENIUS_GENODEF_13
1002
{
1000
HIER
1070
     0
1002
}
1002
{
1000
MANEDIT
1070
     0
1002
}
1002
{
1000
NOSEL
1070
     0
1002
}
1002
{
1000
BEHIND
1070
     0
1002
}
1002
{
1000
OTHER
1070
     0
1002
}
1002
{
1000
REACTOR
1002
}
1001
GENIUS_GENOBJ-N-FIL_13
1002
{
1000
OWNER
1000
GEN
1002
}
  0
ARC
  5
48BE
  8
0
 10
200.94008159408619
 20
-24.000000000000899
 30
0.0
 40
2.0
 50
90.0
 51
159.99999999997061
1001
GENIUS_GENODEF_13
1002
{
1000
HIER
1070
     0
1002
}
1002
{
1000
MANEDIT
1070
     0
1002
}
1002
{
1000
NOSEL
1070
     0
1002
}
1002
{
1000
BEHIND
1070
     0
1002
}
1002
{
1000
OTHER
1070
     0
1002
}
1002
{
1000
REACTOR
1002
}
1001
GENIUS_GENOBJ-N-FIL_13
1002
{
1000
OWNER
1000
GEN
1002
}
  0
LINE
  5
48BF
  8
0
 10
2276.45124957693
 20
394.67147954931801
 30
0.0
 11
2276.45124957693
 21
428.67147954931801
 31
0.0
  0
LINE
  5
48C0
  8
0
 10
2273.6012495769319
 20
395.45070606177973
 30
0.0
 11
2273.6012495769319
 21
427.89225303685629
 31
0.0
  0
LINE
  5
48C1
  8
0
 10
2274.1614156075011
 20
394.67147954931801
 30
0.0
 11
2276.45124957693
 21
394.67147954931801
 31
0.0
  0
LINE
  5
48C2
  8
0
 10
2269.9624175597742
 20
400.82147954931861
 30
0.0
 11
2257.45124957693
 21
400.82147954931861
 31
0.0
  0
LINE
  5
48C3
  8
0
 10
2271.3627547231399
 20
422.52143823041661
 30
0.0
 11
2271.3627547231399
 21
400.82152086821941
 31
0.0
  0
LINE
  5
48C4
  8
0
 10
2273.409661510871
 20
395.19786343465779
 30
0.0
 11
2271.8418028013471
 21
399.50551983596949
 31
0.0
  0
ARC
  5
48C5
  8
0
 10
2274.1614156075011
 20
395.47147954931819
 30
0.0
 40
0.8
 50
200.00000000002919
 51
270.0
1001
GENIUS_GENODEF_13
1002
{
1000
HIER
1070
     0
1002
}
1002
{
1000
MANEDIT
1070
     0
1002
}
1002
{
1000
NOSEL
1070
     0
1002
}
1002
{
1000
BEHIND
1070
     0
1002
}
1002
{
1000
OTHER
1070
     0
1002
}
1002
{
1000
REACTOR
1002
}
1001
GENIUS_GENOBJ-N-FIL_13
1002
{
1000
OWNER
1000
GEN
1002
}
  0
ARC
  5
48C6
  8
0
 10
2269.9624175597742
 20
398.82147954931861
 30
0.0
 40
2.0
 50
20.000000000029289
 51
90.0
1001
GENIUS_GENODEF_13
1002
{
1000
HIER
1070
     0
1002
}
1002
{
1000
MANEDIT
1070
     0
1002
}
1002
{
1000
NOSEL
1070
     0
1002
}
1002
{
1000
BEHIND
1070
     0
1002
}
1002
{
1000
OTHER
1070
     0
1002
}
1002
{
1000
REACTOR
1002
}
1001
GENIUS_GENOBJ-N-FIL_13
1002
{
1000
OWNER
1000
GEN
1002
}
  0
LINE
  5
48C7
  8
0
 10
2274.1614156075011
 20
428.67147954931801
 30
0.0
 11
2276.45124957693
 21
428.67147954931801
 31
0.0
  0
LINE
  5
48C8
  8
0
 10
2269.9624175597742
 20
422.52147954931843
 30
0.0
 11
2257.45124957693
 21
422.52147954931843
 31
0.0
  0
LINE
  5
48C9
  8
0
 10
2273.409661510871
 20
428.14509566397822
 30
0.0
 11
2271.8418028013471
 21
423.83743926266652
 31
0.0
  0
ARC
  5
48CA
  8
0
 10
2274.1614156075011
 20
427.87147954931783
 30
0.0
 40
0.8
 50
90.0
 51
159.99999999997061
1001
GENIUS_GENODEF_13
1002
{
1000
HIER
1070
     0
1002
}
1002
{
1000
MANEDIT
1070
     0
1002
}
1002
{
1000
NOSEL
1070
     0
1002
}
1002
{
1000
BEHIND
1070
     0
1002
}
1002
{
1000
OTHER
1070
     0
1002
}
1002
{
1000
REACTOR
1002
}
1001
GENIUS_GENOBJ-N-FIL_13
1002
{
1000
OWNER
1000
GEN
1002
}
  0
ARC
  5
48CB
  8
0
 10
2269.9624175597742
 20
424.52147954931843
 30
0.0
 40
2.0
 50
270.0
 51
339.99999999997073
1001
GENIUS_GENODEF_13
1002
{
1000
HIER
1070
     0
1002
}
1002
{
1000
MANEDIT
1070
     0
1002
}
1002
{
1000
NOSEL
1070
     0
1002
}
1002
{
1000
BEHIND
1070
     0
1002
}
1002
{
1000
OTHER
1070
     0
1002
}
1002
{
1000
REACTOR
1002
}
1001
GENIUS_GENOBJ-N-FIL_13
1002
{
1000
OWNER
1000
GEN
1002
}
  0
LINE
  5
48CC
  8
0
 10
194.45124957693039
 20
394.67147954931801
 30
0.0
 11
194.45124957693039
 21
428.67147954931801
 31
0.0
  0
LINE
  5
48CD
  8
0
 10
197.30124957692891
 20
395.45070606177973
 30
0.0
 11
197.30124957692891
 21
427.89225303685629
 31
0.0
  0
LINE
  5
48CE
  8
0
  6
CENTER
 10
191.55668676165439
 20
411.67147954931801
 30
0.0
 11
2279.345812392206
 21
411.67147954931801
 31
0.0
  0
LINE
  5
48CF
  8
0
 10
196.7410835463597
 20
394.67147954931801
 30
0.0
 11
194.45124957693039
 21
394.67147954931801
 31
0.0
  0
LINE
  5
48D0
  8
0
 10
200.94008159408619
 20
400.82147954931861
 30
0.0
 11
213.45124957693039
 21
400.82147954931861
 31
0.0
  0
LINE
  5
48D1
  8
0
 10
199.53974443071999
 20
422.52143823041661
 30
0.0
 11
199.53974443071999
 21
400.82152086821941
 31
0.0
  0
LINE
  5
48D2
  8
0
 10
197.4928376429888
 20
395.19786343465779
 30
0.0
 11
199.0606963525133
 21
399.50551983596949
 31
0.0
  0
ARC
  5
48D3
  8
0
 10
196.7410835463597
 20
395.47147954931819
 30
0.0
 40
0.8
 50
270.0
 51
339.99999999997073
1001
GENIUS_GENODEF_13
1002
{
1000
HIER
1070
     0
1002
}
1002
{
1000
MANEDIT
1070
     0
1002
}
1002
{
1000
NOSEL
1070
     0
1002
}
1002
{
1000
BEHIND
1070
     0
1002
}
1002
{
1000
OTHER
1070
     0
1002
}
1002
{
1000
REACTOR
1002
}
1001
GENIUS_GENOBJ-N-FIL_13
1002
{
1000
OWNER
1000
GEN
1002
}
  0
ARC
  5
48D4
  8
0
 10
200.94008159408619
 20
398.82147954931861
 30
0.0
 40
2.0
 50
90.0
 51
159.99999999997061
1001
GENIUS_GENODEF_13
1002
{
1000
HIER
1070
     0
1002
}
1002
{
1000
MANEDIT
1070
     0
1002
}
1002
{
1000
NOSEL
1070
     0
1002
}
1002
{
1000
BEHIND
1070
     0
1002
}
1002
{
1000
OTHER
1070
     0
1002
}
1002
{
1000
REACTOR
1002
}
1001
GENIUS_GENOBJ-N-FIL_13
1002
{
1000
OWNER
1000
GEN
1002
}
  0
LINE
  5
48D5
  8
0
 10
196.7410835463597
 20
428.67147954931801
 30
0.0
 11
194.45124957693039
 21
428.67147954931801
 31
0.0
  0
LINE
  5
48D6
  8
0
 10
200.94008159408619
 20
422.52147954931843
 30
0.0
 11
213.45124957693039
 21
422.52147954931843
 31
0.0
  0
LINE
  5
48D7
  8
0
 10
197.4928376429888
 20
428.14509566397822
 30
0.0
 11
199.0606963525133
 21
423.83743926266652
 31
0.0
  0
ARC
  5
48D8
  8
0
 10
196.7410835463597
 20
427.87147954931783
 30
0.0
 40
0.8
 50
20.000000000029289
 51
90.0
1001
GENIUS_GENODEF_13
1002
{
1000
HIER
1070
     0
1002
}
1002
{
1000
MANEDIT
1070
     0
1002
}
1002
{
1000
NOSEL
1070
     0
1002
}
1002
{
1000
BEHIND
1070
     0
1002
}
1002
{
1000
OTHER
1070
     0
1002
}
1002
{
1000
REACTOR
1002
}
1001
GENIUS_GENOBJ-N-FIL_13
1002
{
1000
OWNER
1000
GEN
1002
}
  0
ARC
  5
48D9
  8
0
 10
200.94008159408619
 20
424.52147954931843
 30
0.0
 40
2.0
 50
200.00000000002919
 51
270.0
1001
GENIUS_GENODEF_13
1002
{
1000
HIER
1070
     0
1002
}
1002
{
1000
MANEDIT
1070
     0
1002
}
1002
{
1000
NOSEL
1070
     0
1002
}
1002
{
1000
BEHIND
1070
     0
1002
}
1002
{
1000
OTHER
1070
     0
1002
}
1002
{
1000
REACTOR
1002
}
1001
GENIUS_GENOBJ-N-FIL_13
1002
{
1000
OWNER
1000
GEN
1002
}
  0
LINE
  5
48DA
  8
0
 10
2276.45124957693
 20
-5.8500000000003629
 30
0.0
 11
2276.45124957693
 21
28.149999999999629
 31
0.0
  0
LINE
  5
48DB
  8
0
 10
2273.6012495769319
 20
-5.0707734875377346
 30
0.0
 11
2273.6012495769319
 21
27.37077348753882
 31
0.0
  0
LINE
  5
48DC
  8
0
  6
CENTER
 10
2279.345812392206
 20
11.149999999999631
 30
0.0
 11
2256.7933566166971
 21
11.149999999999631
 31
0.0
  0
LINE
  5
48DD
  8
0
 10
2274.1614156075011
 20
-5.8500000000003629
 30
0.0
 11
2276.45124957693
 21
-5.8500000000003629
 31
0.0
  0
LINE
  5
48DE
  8
0
 10
2271.3627547231399
 20
21.999958681098171
 30
0.0
 11
2271.3627547231399
 21
0.3000413189020037
 31
0.0
  0
LINE
  5
48DF
  8
0
 10
2273.409661510871
 20
-5.32361611466058
 30
0.0
 11
2271.8418028013471
 21
-1.0159597133488201
 31
0.0
  0
ARC
  5
48E0
  8
0
 10
2274.1614156075011
 20
-5.050000000000181
 30
0.0
 40
0.8
 50
200.00000000002919
 51
270.0
1001
GENIUS_GENODEF_13
1002
{
1000
HIER
1070
     0
1002
}
1002
{
1000
MANEDIT
1070
     0
1002
}
1002
{
1000
NOSEL
1070
     0
1002
}
1002
{
1000
BEHIND
1070
     0
1002
}
1002
{
1000
OTHER
1070
     0
1002
}
1002
{
1000
REACTOR
1002
}
1001
GENIUS_GENOBJ-N-FIL_13
1002
{
1000
OWNER
1000
GEN
1002
}
  0
ARC
  5
48E1
  8
0
 10
2269.9624175597742
 20
-1.6999999999998181
 30
0.0
 40
2.0
 50
20.000000000029289
 51
90.0
1001
GENIUS_GENODEF_13
1002
{
1000
HIER
1070
     0
1002
}
1002
{
1000
MANEDIT
1070
     0
1002
}
1002
{
1000
NOSEL
1070
     0
1002
}
1002
{
1000
BEHIND
1070
     0
1002
}
1002
{
1000
OTHER
1070
     0
1002
}
1002
{
1000
REACTOR
1002
}
1001
GENIUS_GENOBJ-N-FIL_13
1002
{
1000
OWNER
1000
GEN
1002
}
  0
LINE
  5
48E2
  8
0
 10
2274.1614156075011
 20
28.149999999999629
 30
0.0
 11
2276.45124957693
 21
28.149999999999629
 31
0.0
  0
LINE
  5
48E3
  8
0
 10
2273.409661510871
 20
27.623616114660759
 30
0.0
 11
2271.8418028013471
 21
23.315959713348999
 31
0.0
  0
ARC
  5
48E4
  8
0
 10
2274.1614156075011
 20
27.35000000000036
 30
0.0
 40
0.8
 50
90.0
 51
159.99999999997061
1001
GENIUS_GENODEF_13
1002
{
1000
HIER
1070
     0
1002
}
1002
{
1000
MANEDIT
1070
     0
1002
}
1002
{
1000
NOSEL
1070
     0
1002
}
1002
{
1000
BEHIND
1070
     0
1002
}
1002
{
1000
OTHER
1070
     0
1002
}
1002
{
1000
REACTOR
1002
}
1001
GENIUS_GENOBJ-N-FIL_13
1002
{
1000
OWNER
1000
GEN
1002
}
  0
ARC
  5
48E5
  8
0
 10
2269.9624175597742
 20
24.0
 30
0.0
 40
2.0
 50
270.0
 51
339.99999999997073
1001
GENIUS_GENODEF_13
1002
{
1000
HIER
1070
     0
1002
}
1002
{
1000
MANEDIT
1070
     0
1002
}
1002
{
1000
NOSEL
1070
     0
1002
}
1002
{
1000
BEHIND
1070
     0
1002
}
1002
{
1000
OTHER
1070
     0
1002
}
1002
{
1000
REACTOR
1002
}
1001
GENIUS_GENOBJ-N-FIL_13
1002
{
1000
OWNER
1000
GEN
1002
}
  0
LINE
  5
48E6
  8
0
 10
2269.9624175597742
 20
0.3000000000001819
 30
0.0
 11
2257.45124957693
 21
0.3000000000001819
 31
0.0
  0
LINE
  5
48E7
  8
0
 10
2269.9624175597742
 20
22.0
 30
0.0
 11
2257.45124957693
 21
22.0
 31
0.0
  0
CIRCLE
  5
62C1
  8
0
 10
2151.45124957693
 20
411.67147954931801
 30
0.0
 40
50.0
  0
CIRCLE
  5
62C2
  8
0
  6
CENTER
 10
2151.45124957693
 20
411.67147954931801
 30
0.0
 40
37.5
  0
CIRCLE
  5
62C3
  8
0
 10
2124.9347452824331
 20
438.18798384381353
 30
0.0
 40
7.5
  0
CIRCLE
  5
62C4
  8
0
 10
2177.9677538714241
 20
438.18798384381353
 30
0.0
 40
7.5
  0
CIRCLE
  5
62C5
  8
0
 10
2124.9347452824331
 20
385.1549752548226
 30
0.0
 40
7.5
  0
CIRCLE
  5
62C6
  8
0
 10
2177.9677538714241
 20
385.1549752548226
 30
0.0
 40
7.5
  0
CIRCLE
  5
62C7
  8
AM_0_T3
 10
2151.4512495769259
 20
411.67147954931801
 30
0.0
 40
13.5999999999999
  0
LINE
  5
6874
  8
0
 10
3.0
 20
-55.0
 30
0.0
 11
3.0
 21
-28.844409999999701
 31
0.0
  0
LINE
  5
6875
  8
0
 10
13.0
 20
-55.0
 30
0.0
 11
13.0
 21
-35.707142000000204
 31
0.0
  0
LINE
  5
6876
  8
0
 10
-3.0
 20
-55.0
 30
0.0
 11
-3.0
 21
-28.844409999999701
 31
0.0
  0
LINE
  5
6877
  8
0
 10
-13.0
 20
-55.0
 30
0.0
 11
-13.0
 21
-35.707142000000204
 31
0.0
  0
LINE
  5
6878
  8
0
 10
13.0
 20
55.0
 30
0.0
 11
13.0
 21
35.707142000000204
 31
0.0
  0
LINE
  5
6879
  8
0
 10
3.0
 20
55.0
 30
0.0
 11
3.0
 21
28.844409999999701
 31
0.0
  0
LINE
  5
687A
  8
0
 10
-3.0
 20
55.0
 30
0.0
 11
-3.0
 21
28.844409999999701
 31
0.0
  0
LINE
  5
687B
  8
0
 10
-13.0
 20
55.0
 30
0.0
 11
-13.0
 21
35.707142000000204
 31
0.0
  0
LINE
  5
687C
  8
0
 10
13.0
 20
-55.0
 30
0.0
 11
3.0
 21
-55.0
 31
0.0
  0
LINE
  5
687D
  8
0
 10
-13.0
 20
-55.0
 30
0.0
 11
-3.0
 21
-55.0
 31
0.0
  0
LINE
  5
687E
  8
0
 10
13.0
 20
55.0
 30
0.0
 11
3.0
 21
55.0
 31
0.0
  0
LINE
  5
687F
  8
0
 10
-13.0
 20
55.0
 30
0.0
 11
-3.0
 21
55.0
 31
0.0
  0
LINE
  5
6880
  8
0
 10
-3.0
 20
52.0
 30
0.0
 11
3.0
 21
52.0
 31
0.0
  0
LINE
  5
6881
  8
0
 10
-3.0
 20
44.0
 30
0.0
 11
3.0
 21
44.0
 31
0.0
  0
LINE
  5
6882
  8
0
 10
-3.0
 20
-52.0
 30
0.0
 11
3.0
 21
-52.0
 31
0.0
  0
LINE
  5
6883
  8
0
 10
-3.0
 20
-44.0
 30
0.0
 11
3.0
 21
-44.0
 31
0.0
  0
LINE
  5
6884
  8
0
 10
-27.0
 20
44.0
 30
0.0
 11
-21.499999999999989
 21
44.0
 31
0.0
  0
LINE
  5
6885
  8
0
 10
-21.499999999999989
 20
43.0
 30
0.0
 11
-21.499999999999989
 21
53.0
 31
0.0
  0
LINE
  5
6886
  8
0
 10
-27.0
 20
44.0
 30
0.0
 11
-27.0
 21
52.0
 31
0.0
  0
LINE
  5
6887
  8
0
 10
-20.5
 20
42.0
 30
0.0
 11
-19.5
 21
42.0
 31
0.0
  0
LINE
  5
6888
  8
0
 10
-20.5
 20
54.0
 30
0.0
 11
-19.5
 21
54.0
 31
0.0
  0
LINE
  5
6889
  8
0
 10
-19.5
 20
54.5
 30
0.0
 11
-19.5
 21
41.5
 31
0.0
  0
LINE
  5
688A
  8
0
 10
-19.5
 20
54.5
 30
0.0
 11
-13.0
 21
54.5
 31
0.0
  0
LINE
  5
688B
  8
0
 10
-19.5
 20
41.5
 30
0.0
 11
-13.0
 21
41.5
 31
0.0
  0
LINE
  5
688C
  8
0
 10
-27.0
 20
52.0
 30
0.0
 11
-21.499999999999989
 21
52.0
 31
0.0
  0
LINE
  5
688D
  8
0
  6
CENTER
 10
-28.65133499999865
 20
48.0
 30
0.0
 11
22.389211999998221
 21
48.0
 31
0.0
  0
LINE
  5
688E
  8
0
 10
-27.0
 20
-44.0
 30
0.0
 11
-21.499999999999989
 21
-44.0
 31
0.0
  0
LINE
  5
688F
  8
0
 10
-21.499999999999989
 20
-43.0
 30
0.0
 11
-21.499999999999989
 21
-53.0
 31
0.0
  0
LINE
  5
6890
  8
0
 10
-27.0
 20
-44.0
 30
0.0
 11
-27.0
 21
-52.0
 31
0.0
  0
LINE
  5
6891
  8
0
 10
-20.5
 20
-42.0
 30
0.0
 11
-19.5
 21
-42.0
 31
0.0
  0
LINE
  5
6892
  8
0
 10
-20.5
 20
-54.0
 30
0.0
 11
-19.5
 21
-54.0
 31
0.0
  0
LINE
  5
6893
  8
0
 10
-19.5
 20
-54.5
 30
0.0
 11
-19.5
 21
-41.5
 31
0.0
  0
LINE
  5
6894
  8
0
 10
-19.5
 20
-54.5
 30
0.0
 11
-13.0
 21
-54.5
 31
0.0
  0
LINE
  5
6895
  8
0
 10
-19.5
 20
-41.5
 30
0.0
 11
-13.0
 21
-41.5
 31
0.0
  0
LINE
  5
6896
  8
0
 10
-27.0
 20
-52.0
 30
0.0
 11
-21.499999999999989
 21
-52.0
 31
0.0
  0
LINE
  5
6897
  8
0
  6
CENTER
 10
-28.65133499999865
 20
-48.0
 30
0.0
 11
21.827725999999529
 21
-48.0
 31
0.0
  0
LINE
  5
6898
  8
0
 10
18.5
 20
-44.75
 30
0.0
 11
18.5
 21
-51.25
 31
0.0
  0
LINE
  5
6899
  8
0
 10
17.77510600000096
 20
-41.5
 30
0.0
 11
13.0
 21
-41.5
 31
0.0
  0
LINE
  5
689A
  8
0
 10
17.77510600000096
 20
-54.5
 30
0.0
 11
13.0
 21
-54.5
 31
0.0
  0
LINE
  5
689B
  8
0
 10
18.5
 20
44.75
 30
0.0
 11
18.5
 21
51.25
 31
0.0
  0
LINE
  5
689C
  8
0
 10
17.77510600000096
 20
41.5
 30
0.0
 11
13.0
 21
41.5
 31
0.0
  0
LINE
  5
689D
  8
0
 10
17.77510600000096
 20
54.5
 30
0.0
 11
13.0
 21
54.5
 31
0.0
  0
ARC
  5
689E
  8
0
 10
0.0
 20
0.0
 30
0.0
 40
38.0
 50
94.528059999870877
 51
265.47193499986992
  0
ARC
  5
689F
  8
0
 10
0.0
 20
0.0
 30
0.0
 40
29.0
 50
95.937769999707484
 51
264.06222500006919
  0
ARC
  5
68A0
  8
0
 10
0.0
 20
0.0
 30
0.0
 40
31.0
 50
95.937769999707484
 51
264.06222500006919
  0
ARC
  5
68A1
  8
0
 10
0.0
 20
0.0
 30
0.0
 40
38.0
 50
274.5280629999433
 51
85.471936986256168
  0
ARC
  5
68A2
  8
0
 10
0.0
 20
0.0
 30
0.0
 40
29.0
 50
275.93777299984362
 51
84.062220000260481
  0
ARC
  5
68A3
  8
0
 10
0.0
 20
0.0
 30
0.0
 40
31.0
 50
275.93777299984362
 51
84.446555804085847
  0
ARC
  5
68A4
  8
0
 10
-20.5
 20
43.0
 30
0.0
 40
1.0
 50
179.99998999994679
 51
269.99999600002042
  0
ARC
  5
68A5
  8
0
 10
-20.5
 20
53.0
 30
0.0
 40
1.0
 50
90.0
 51
180.00000500893739
  0
ARC
  5
68A6
  8
0
 10
-11.85200500000064
 20
51.25
 30
0.0
 40
7.6479949999999981
 50
154.85263000008339
 51
205.1473750000074
  0
ARC
  5
68A7
  8
0
 10
-11.85200500000064
 20
44.75
 30
0.0
 40
7.6479949999999981
 50
154.85263000008339
 51
205.14736800002231
  0
ARC
  5
68A8
  8
0
 10
-20.647994999999352
 20
51.25
 30
0.0
 40
7.6479949999999981
 50
334.85263000008342
 51
25.147369999916581
  0
ARC
  5
68A9
  8
0
 10
-20.647994999999352
 20
44.75
 30
0.0
 40
7.6479949999999981
 50
334.85263000008342
 51
25.147369999916581
  0
ARC
  5
68AA
  8
0
 10
-20.5
 20
-43.0
 30
0.0
 40
1.0
 50
90.0
 51
180.00000500893739
  0
ARC
  5
68AB
  8
0
 10
-20.5
 20
-53.0
 30
0.0
 40
1.0
 50
179.99998999994679
 51
269.99999600002042
  0
ARC
  5
68AC
  8
0
 10
-11.85200500000064
 20
-51.25
 30
0.0
 40
7.6479949999999981
 50
154.85261999999599
 51
205.14737199986081
  0
ARC
  5
68AD
  8
0
 10
-11.85200500000064
 20
-44.75
 30
0.0
 40
7.6479949999999981
 50
154.85263000008339
 51
205.14737199986081
  0
ARC
  5
68AE
  8
0
 10
-20.647994999999352
 20
-51.25
 30
0.0
 40
7.6479949999999981
 50
334.85263000008342
 51
25.147369999916581
  0
ARC
  5
68AF
  8
0
 10
-20.647994999999352
 20
-44.75
 30
0.0
 40
7.6479949999999981
 50
334.85263000008342
 51
25.147369999916581
  0
ARC
  5
68B0
  8
0
 10
10.85200500000064
 20
-44.75
 30
0.0
 40
7.647994500000002
 50
334.85263000008342
 51
25.147369999916581
  0
ARC
  5
68B1
  8
0
 10
10.85200500000064
 20
-51.25
 30
0.0
 40
7.647994500000002
 50
334.85263000008342
 51
25.147369999916581
  0
ARC
  5
68B2
  8
0
 10
10.85200500000064
 20
44.75
 30
0.0
 40
7.647994500000002
 50
334.85263000008342
 51
25.147369999916581
  0
ARC
  5
68B3
  8
0
 10
10.85200500000064
 20
51.25
 30
0.0
 40
7.647994500000002
 50
334.85263000008342
 51
25.147369999916581
  0
LINE
  5
68B4
  8
0
  6
CENTER
 10
-55.759478892276093
 20
0.0
 30
0.0
 11
55.759478892276093
 21
0.0
 31
0.0
  0
LINE
  5
6919
  8
0
 10
-50.0
 20
-75.999999999999091
 30
0.0
 11
50.0
 21
-75.999999999999091
 31
0.0
  0
LINE
  5
691A
  8
0
 10
50.0
 20
-89.999999999999091
 30
0.0
 11
-50.0
 21
-90.0
 31
0.0
  0
LINE
  5
691B
  8
0
  6
CENTER
 10
37.5
 20
-98.999999999999091
 30
0.0
 11
37.5
 21
-65.999999999999091
 31
0.0
  0
LINE
  5
691C
  8
0
 10
50.0
 20
-75.999999999999091
 30
0.0
 11
50.0
 21
-89.999999999999091
 31
0.0
  0
LINE
  5
691D
  8
0
  6
CENTER
 10
-37.5
 20
-98.999999999999091
 30
0.0
 11
-37.5
 21
-65.999999999999091
 31
0.0
  0
LINE
  5
691E
  8
0
 10
-50.0
 20
-90.0
 30
0.0
 11
-50.0
 21
-75.999999999999091
 31
0.0
  0
LINE
  5
691F
  8
0
 10
13.599999999998539
 20
-75.999999999999091
 30
0.0
 11
13.599999999998539
 21
-54.5
 31
0.0
  0
LINE
  5
6920
  8
0
 10
13.599999999998539
 20
-41.5
 30
0.0
 11
13.599999999998539
 21
-35.482953653831821
 31
0.0
  0
LINE
  5
6921
  8
0
 10
-13.599999999998539
 20
-75.999999999999091
 30
0.0
 11
-13.599999999998539
 21
-54.5
 31
0.0
  0
LINE
  5
6922
  8
0
 10
-13.599999999998539
 20
-41.5
 30
0.0
 11
-13.599999999998539
 21
-35.48295365383273
 31
0.0
  0
LINE
  5
6923
  8
0
  6
CENTER
 10
0.0
 20
-98.0
 30
0.0
 11
0.0
 21
98.0
 31
0.0
  0
LINE
  5
6924
  8
0
 10
-50.0
 20
75.999999999999091
 30
0.0
 11
50.0
 21
75.999999999999091
 31
0.0
  0
LINE
  5
6925
  8
0
 10
50.0
 20
89.999999999999091
 30
0.0
 11
-50.0
 21
90.0
 31
0.0
  0
LINE
  5
6926
  8
0
  6
CENTER
 10
37.5
 20
98.999999999999091
 30
0.0
 11
37.5
 21
65.999999999999091
 31
0.0
  0
LINE
  5
6927
  8
0
 10
50.0
 20
75.999999999999091
 30
0.0
 11
50.0
 21
89.999999999999091
 31
0.0
  0
LINE
  5
6928
  8
0
  6
CENTER
 10
-37.5
 20
98.999999999999091
 30
0.0
 11
-37.5
 21
65.999999999999091
 31
0.0
  0
LINE
  5
6929
  8
0
 10
-50.0
 20
90.0
 30
0.0
 11
-50.0
 21
75.999999999999091
 31
0.0
  0
LINE
  5
692A
  8
0
 10
13.599999999998539
 20
75.999999999999091
 30
0.0
 11
13.599999999998539
 21
54.5
 31
0.0
  0
LINE
  5
692B
  8
0
 10
13.599999999998539
 20
41.500000000000902
 30
0.0
 11
13.599999999998539
 21
35.482953653831821
 31
0.0
  0
LINE
  5
692C
  8
0
 10
-13.599999999998539
 20
75.999999999999091
 30
0.0
 11
-13.600000000002179
 21
54.5
 31
0.0
  0
LINE
  5
692D
  8
0
 10
-13.600000000002179
 20
41.5
 30
0.0
 11
-13.599999999998539
 21
35.482953653831821
 31
0.0
  0
LINE
  5
6944
  8
0
  6
CENTER
 10
-21.809530600177819
 20
-11.149999999999631
 30
0.0
 11
21.809530600177819
 21
-11.149999999999631
 31
0.0
  0
CIRCLE
  5
694A
  8
AM_0_T3
 10
0.0
 20
-11.149999999999631
 30
0.0
 40
17.0
  0
CIRCLE
  5
694B
  8
AM_0_T3
 10
0.0
 20
-11.149999999999631
 30
0.0
 40
10.85000000000036
  0
ENDSEC
  0
EOF
