  0
SECTION
  2
HEADER
  9
$ACADVER
  1
AC1018
  9
$ACADMAINTVER
 70
   104
  9
$DWGCODEPAGE
  3
ANSI_932
  9
$LASTSAVEDBY
  1
h-mizoguchi
  9
$CUSTOMPROPERTYTAG
  1
AmdtFileType
  9
$CUSTOMPROPERTY
  1
84
  9
$INSBASE
 10
0.0
 20
0.0
 30
0.0
  9
$EXTMIN
 10
-128.1457031754817
 20
-174.9999999999841
 30
0.0
  9
$EXTMAX
 10
2480.751929237452
 20
991.5632838053481
 30
0.0
  9
$LIMMIN
 10
0.0
 20
0.0
  9
$LIMMAX
 10
420.0
 20
297.0
  9
$ORTHOMODE
 70
     1
  9
$REGENMODE
 70
     1
  9
$FILLMODE
 70
     1
  9
$QTEXTMODE
 70
     0
  9
$MIRRTEXT
 70
     1
  9
$LTSCALE
 40
1.0
  9
$ATTMODE
 70
     1
  9
$TEXTSIZE
 40
73.98571745357912
  9
$TRACEWID
 40
1.0
  9
$TEXTSTYLE
  7
STANDARD
  9
$CLAYER
  8
0
  9
$CELTYPE
  6
ByLayer
  9
$CECOLOR
 62
   256
  9
$CELTSCALE
 40
1.0
  9
$DISPSILH
 70
     0
  9
$DIMSCALE
 40
1.0
  9
$DIMASZ
 40
3.0
  9
$DIMEXO
 40
1.0
  9
$DIMDLI
 40
10.0
  9
$DIMRND
 40
0.0
  9
$DIMDLE
 40
0.0
  9
$DIMEXE
 40
1.0
  9
$DIMTP
 40
0.1
  9
$DIMTM
 40
0.1
  9
$DIMTXT
 40
3.0
  9
$DIMCEN
 40
0.0
  9
$DIMTSZ
 40
0.0
  9
$DIMTOL
 70
     0
  9
$DIMLIM
 70
     0
  9
$DIMTIH
 70
     0
  9
$DIMTOH
 70
     0
  9
$DIMSE1
 70
     0
  9
$DIMSE2
 70
     0
  9
$DIMTAD
 70
     3
  9
$DIMZIN
 70
     8
  9
$DIMBLK
  1
Open
  9
$DIMASO
 70
     1
  9
$DIMSHO
 70
     1
  9
$DIMPOST
  1

  9
$DIMAPOST
  1
"
  9
$DIMALT
 70
     0
  9
$DIMALTD
 70
     2
  9
$DIMALTF
 40
0.0393701
  9
$DIMLFAC
 40
1.0
  9
$DIMTOFL
 70
     1
  9
$DIMTVP
 40
0.0
  9
$DIMTIX
 70
     0
  9
$DIMSOXD
 70
     0
  9
$DIMSAH
 70
     0
  9
$DIMBLK1
  1

  9
$DIMBLK2
  1

  9
$DIMSTYLE
  2
TSK
  9
$DIMCLRD
 70
   256
  9
$DIMCLRE
 70
   256
  9
$DIMCLRT
 70
     2
  9
$DIMTFAC
 40
0.71
  9
$DIMGAP
 40
1.5
  9
$DIMJUST
 70
     0
  9
$DIMSD1
 70
     0
  9
$DIMSD2
 70
     0
  9
$DIMTOLJ
 70
     1
  9
$DIMTZIN
 70
     8
  9
$DIMALTZ
 70
     0
  9
$DIMALTTZ
 70
     0
  9
$DIMUPT
 70
     0
  9
$DIMDEC
 70
     2
  9
$DIMTDEC
 70
     2
  9
$DIMALTU
 70
     2
  9
$DIMALTTD
 70
     2
  9
$DIMTXSTY
  7
TSKDIM
  9
$DIMAUNIT
 70
     0
  9
$DIMADEC
 70
     0
  9
$DIMALTRND
 40
0.0
  9
$DIMAZIN
 70
     2
  9
$DIMDSEP
 70
    46
  9
$DIMATFIT
 70
     3
  9
$DIMFRAC
 70
     0
  9
$DIMLDRBLK
  1
Open
  9
$DIMLUNIT
 70
     2
  9
$DIMLWD
 70
     9
  9
$DIMLWE
 70
     9
  9
$DIMTMOVE
 70
     0
  9
$LUNITS
 70
     2
  9
$LUPREC
 70
     8
  9
$SKETCHINC
 40
1.0
  9
$FILLETRAD
 40
0.0
  9
$AUNITS
 70
     0
  9
$AUPREC
 70
     8
  9
$MENU
  1
.
  9
$ELEVATION
 40
0.0
  9
$PELEVATION
 40
0.0
  9
$THICKNESS
 40
0.0
  9
$LIMCHECK
 70
     0
  9
$CHAMFERA
 40
2.5
  9
$CHAMFERB
 40
2.5
  9
$CHAMFERC
 40
20.0
  9
$CHAMFERD
 40
0.0
  9
$SKPOLY
 70
     0
  9
$TDCREATE
 40
2454739.398931562
  9
$TDUCREATE
 40
2454739.023931562
  9
$TDUPDATE
 40
2456169.543605741
  9
$TDUUPDATE
 40
2456169.168605740
  9
$TDINDWG
 40
0.3473509375
  9
$TDUSRTIMER
 40
0.3473505787
  9
$USRTIMER
 70
     1
  9
$ANGBASE
 50
0.0
  9
$ANGDIR
 70
     1
  9
$PDMODE
 70
     0
  9
$PDSIZE
 40
0.0
  9
$PLINEWID
 40
0.0
  9
$SPLFRAME
 70
     0
  9
$SPLINETYPE
 70
     6
  9
$SPLINESEGS
 70
     8
  9
$HANDSEED
  5
5E8D
  9
$SURFTAB1
 70
     6
  9
$SURFTAB2
 70
     6
  9
$SURFTYPE
 70
     6
  9
$SURFU
 70
     6
  9
$SURFV
 70
     6
  9
$UCSBASE
  2

  9
$UCSNAME
  2

  9
$UCSORG
 10
0.0
 20
0.0
 30
0.0
  9
$UCSXDIR
 10
1.0
 20
0.0
 30
0.0
  9
$UCSYDIR
 10
0.0
 20
1.0
 30
0.0
  9
$UCSORTHOREF
  2

  9
$UCSORTHOVIEW
 70
     0
  9
$UCSORGTOP
 10
0.0
 20
0.0
 30
0.0
  9
$UCSORGBOTTOM
 10
0.0
 20
0.0
 30
0.0
  9
$UCSORGLEFT
 10
0.0
 20
0.0
 30
0.0
  9
$UCSORGRIGHT
 10
0.0
 20
0.0
 30
0.0
  9
$UCSORGFRONT
 10
0.0
 20
0.0
 30
0.0
  9
$UCSORGBACK
 10
0.0
 20
0.0
 30
0.0
  9
$PUCSBASE
  2

  9
$PUCSNAME
  2

  9
$PUCSORG
 10
0.0
 20
0.0
 30
0.0
  9
$PUCSXDIR
 10
1.0
 20
0.0
 30
0.0
  9
$PUCSYDIR
 10
0.0
 20
1.0
 30
0.0
  9
$PUCSORTHOREF
  2

  9
$PUCSORTHOVIEW
 70
     0
  9
$PUCSORGTOP
 10
0.0
 20
0.0
 30
0.0
  9
$PUCSORGBOTTOM
 10
0.0
 20
0.0
 30
0.0
  9
$PUCSORGLEFT
 10
0.0
 20
0.0
 30
0.0
  9
$PUCSORGRIGHT
 10
0.0
 20
0.0
 30
0.0
  9
$PUCSORGFRONT
 10
0.0
 20
0.0
 30
0.0
  9
$PUCSORGBACK
 10
0.0
 20
0.0
 30
0.0
  9
$USERI1
 70
     0
  9
$USERI2
 70
     0
  9
$USERI3
 70
     0
  9
$USERI4
 70
     0
  9
$USERI5
 70
     0
  9
$USERR1
 40
0.0
  9
$USERR2
 40
0.0
  9
$USERR3
 40
0.0
  9
$USERR4
 40
0.0
  9
$USERR5
 40
0.0
  9
$WORLDVIEW
 70
     1
  9
$SHADEDGE
 70
     3
  9
$SHADEDIF
 70
    70
  9
$TILEMODE
 70
     1
  9
$MAXACTVP
 70
    48
  9
$PINSBASE
 10
0.0
 20
0.0
 30
0.0
  9
$PLIMCHECK
 70
     0
  9
$PEXTMIN
 10
1.000000000000000E+20
 20
1.000000000000000E+20
 30
1.000000000000000E+20
  9
$PEXTMAX
 10
-1.000000000000000E+20
 20
-1.000000000000000E+20
 30
-1.000000000000000E+20
  9
$PLIMMIN
 10
0.0
 20
0.0
  9
$PLIMMAX
 10
420.0
 20
297.0
  9
$UNITMODE
 70
     0
  9
$VISRETAIN
 70
     1
  9
$PLINEGEN
 70
     0
  9
$PSLTSCALE
 70
     1
  9
$TREEDEPTH
 70
  3020
  9
$CMLSTYLE
  2
Standard
  9
$CMLJUST
 70
     0
  9
$CMLSCALE
 40
20.0
  9
$PROXYGRAPHICS
 70
     1
  9
$MEASUREMENT
 70
     1
  9
$CELWEIGHT
370
    -1
  9
$ENDCAPS
280
     0
  9
$JOINSTYLE
280
     0
  9
$LWDISPLAY
290
     0
  9
$INSUNITS
 70
     4
  9
$HYPERLINKBASE
  1

  9
$STYLESHEET
  1
MPP.ctb
  9
$XEDIT
290
     1
  9
$CEPSNTYPE
380
     0
  9
$PSTYLEMODE
290
     1
  9
$FINGERPRINTGUID
  2
{E2EE2984-40DB-4795-A236-B944694F9C34}
  9
$VERSIONGUID
  2
{B5AAF764-C78D-43B7-8986-E3B87B2E4246}
  9
$EXTNAMES
290
     1
  9
$PSVPSCALE
 40
0.0
  9
$OLESTARTUP
290
     0
  9
$SORTENTS
280
   127
  9
$INDEXCTL
280
     0
  9
$HIDETEXT
280
     0
  9
$XCLIPFRAME
290
     0
  9
$HALOGAP
280
     0
  9
$OBSCOLOR
 70
   257
  9
$OBSLTYPE
280
     0
  9
$INTERSECTIONDISPLAY
280
     0
  9
$INTERSECTIONCOLOR
 70
   257
  9
$DIMASSOC
280
     2
  9
$PROJECTNAME
  1

  0
ENDSEC
  0
SECTION
  2
CLASSES
  0
CLASS
  1
ACDBDICTIONARYWDFLT
  2
AcDbDictionaryWithDefault
  3
ObjectDBX Classes
 90
        0
 91
        1
280
     0
281
     0
  0
CLASS
  1
AMGSETTINGSOBJ
  2
AmgSettingsObj
  3
"AcadM|Product Description: AutoCAD Mechanical|Company: Autodesk, Inc."
 90
     1024
 91
        0
280
     0
281
     0
  0
CLASS
  1
ACME_DOCUMENT
  2
AcMeDbDoc
  3
AcMeServices
 90
     1024
 91
        0
280
     0
281
     0
  0
CLASS
  1
ACMESCOPE
  2
AcMeScope
  3
AcMeServices
 90
     1024
 91
        0
280
     0
281
     0
  0
CLASS
  1
ACMECOMMANDHISTORY
  2
AcMeCommandHistory
  3
AcMeServices
 90
     1024
 91
        0
280
     0
281
     0
  0
CLASS
  1
DICTIONARYVAR
  2
AcDbDictionaryVar
  3
ObjectDBX Classes
 90
        0
 91
       12
280
     0
281
     0
  0
CLASS
  1
ACIMSYSVARMAN
  2
AcImSysVarManager
  3
AcMeServices
 90
     1024
 91
        0
280
     0
281
     0
  0
CLASS
  1
ACIMREALSYSVAR
  2
AcImRealSysVar
  3
AcMeServices
 90
     1024
 91
        0
280
     0
281
     0
  0
CLASS
  1
ACIMINTSYSVAR
  2
AcImIntSysVar
  3
AcMeServices
 90
     1024
 91
        0
280
     0
281
     0
  0
CLASS
  1
ACMEDRAWINGMAN
  2
AcMeDrawingMan
  3
AcMeServices
 90
     1024
 91
        0
280
     0
281
     0
  0
CLASS
  1
ACMEVIEW
  2
AcMeView
  3
AcMeServices
 90
     1024
 91
        0
280
     0
281
     0
  0
CLASS
  1
ACDBENTITYCACHE
  2
AcMeEntityCache
  3
AcMeServices
 90
     1024
 91
        0
280
     0
281
     0
  0
CLASS
  1
GSMANAGER
  2
AcMeGSManager
  3
AcMeServices
 90
     1024
 91
        0
280
     0
281
     0
  0
CLASS
  1
AMDTINTERNALREACTOR
  2
AmdtInternalReactor
  3
AcMeServices
 90
     1024
 91
        0
280
     0
281
     0
  0
CLASS
  1
ACMESTATEMGR
  2
AcMeStateMgr
  3
AcMeServices
 90
     1024
 91
        0
280
     0
281
     0
  0
CLASS
  1
ACGREFMASTER
  2
AcGrefMaster
  3
AcAttribServices
 90
     1024
 91
        0
280
     0
281
     0
  0
CLASS
  1
ACME_DATABASE
  2
AcMeDbDatabase
  3
AcMeServices
 90
     1024
 91
        0
280
     0
281
     0
  0
CLASS
  1
ACRFINSADJUSTERMGR
  2
AcRfInsAdjusterMgr
  3
AcMeServices
 90
     1024
 91
        0
280
     0
281
     0
  0
CLASS
  1
ACGREFACADMASTER
  2
AcGrefacadMaster
  3
AcGrefServices
 90
     1024
 91
        0
280
     0
281
     0
  0
CLASS
  1
AMIMASTER
  2
AmiMaster
  3
AmiServices
 90
     1024
 91
        0
280
     0
281
     0
  0
CLASS
  1
ACIMSTRSYSVAR
  2
AcImStrSysVar
  3
AcMeServices
 90
     1024
 91
        0
280
     0
281
     0
  0
CLASS
  1
ACMSTANDARDJIS
  2
AcmStandardJIS
  3
"Amdt_StdImp|Product Description: AutoCAD Mechanical|Company: Autodesk, Inc."
 90
     1024
 91
        0
280
     0
281
     0
  0
CLASS
  1
AMGOBJPROPCFG
  2
AmgObjPropCfg
  3
"AmgLay|Product Description: AutoCAD Mechanical|Company: Autodesk, Inc."
 90
     1025
 91
        0
280
     0
281
     0
  0
CLASS
  1
ACMSURFSTANDARDJIS
  2
AcmSurfTextStdJIS
  3
"Amdt_StdImp|Product Description: AutoCAD Mechanical|Company: Autodesk, Inc."
 90
     1024
 91
        0
280
     0
281
     0
  0
CLASS
  1
ACMFCFSTANDARDJIS
  2
AcmFCFStdJIS
  3
"Amdt_StdImp|Product Description: AutoCAD Mechanical|Company: Autodesk, Inc."
 90
     1024
 91
        0
280
     0
281
     0
  0
CLASS
  1
ACMWELDSTANDARDJIS
  2
AcmWeldingStdJIS
  3
"Amdt_StdImp|Product Description: AutoCAD Mechanical|Company: Autodesk, Inc."
 90
     1024
 91
        0
280
     0
281
     0
  0
CLASS
  1
ACMIDSTANDARDJIS
  2
AcmIdStdJIS
  3
"Amdt_StdImp|Product Description: AutoCAD Mechanical|Company: Autodesk, Inc."
 90
     1024
 91
        0
280
     0
281
     0
  0
CLASS
  1
ACMDATUMSTANDARDJIS
  2
AcmDatumStdJIS
  3
"Amdt_StdImp|Product Description: AutoCAD Mechanical|Company: Autodesk, Inc."
 90
     1024
 91
        0
280
     0
281
     0
  0
CLASS
  1
ACMBOMSTANDARDJIS
  2
AcmBOMStdJIS
  3
"Amdt_StdImp|Product Description: AutoCAD Mechanical|Company: Autodesk, Inc."
 90
     1024
 91
        0
280
     0
281
     0
  0
CLASS
  1
ACMDETAILSTANDARDJIS
  2
AmdtDetailSymStdJIS
  3
"Amdt_StdImp|Product Description: AutoCAD Mechanical|Company: Autodesk, Inc."
 90
     1024
 91
        0
280
     0
281
     0
  0
CLASS
  1
ACMSECTIONSTANDARDJIS
  2
AmdtSectionSymStdJIS
  3
"Amdt_StdImp|Product Description: AutoCAD Mechanical|Company: Autodesk, Inc."
 90
     1024
 91
        0
280
     0
281
     0
  0
CLASS
  1
ACMCENTERLINESTANDARDJIS
  2
AmdtCenterLineStdJIS
  3
"Amdt_StdImp|Product Description: AutoCAD Mechanical|Company: Autodesk, Inc."
 90
     1024
 91
        0
280
     0
281
     0
  0
CLASS
  1
ACMTHREADLINESTANDARDJIS
  2
AmdtThreadLineStdJIS
  3
"Amdt_StdImp|Product Description: AutoCAD Mechanical|Company: Autodesk, Inc."
 90
     1024
 91
        0
280
     0
281
     0
  0
CLASS
  1
ACAMGLAYSTD
  2
AcAmgLayStd
  3
"AmgLay|Product Description: AutoCAD Mechanical|Company: Autodesk, Inc."
 90
     1024
 91
        0
280
     0
281
     0
  0
CLASS
  1
ACAMGDIMSTD
  2
AcAmgDimStd
  3
"AmgDim|Product Description: AutoCAD Mechanical|Company: Autodesk, Inc."
 90
     1024
 91
        0
280
     0
281
     0
  0
CLASS
  1
ACAMGTITLESTD
  2
AcAmgTitleStd
  3
"AmgTitle|Product Description: AutoCAD Mechanical|Company: Autodesk, Inc."
 90
     4095
 91
        0
280
     0
281
     0
  0
CLASS
  1
ACMDATADICTIONARY
  2
AcmDataDictionary
  3
"AcmSymBB|Product Description: AutoCAD Mechanical|Company: Autodesk, Inc."
 90
     1024
 91
        0
280
     0
281
     0
  0
CLASS
  1
ACMDATAENTRYBLOCK
  2
AcmDataEntryBlock
  3
AcmSymBB|Product Description: AutoCAD Mechanical|Company: Autodesk, Inc.
 90
     1024
 91
        0
280
     0
281
     0
  0
CLASS
  1
LAYER_INDEX
  2
AcDbLayerIndex
  3
ObjectDBX Classes
 90
        0
 91
        0
280
     0
281
     0
  0
CLASS
  1
IDBUFFER
  2
AcDbIdBuffer
  3
ObjectDBX Classes
 90
        0
 91
        0
280
     0
281
     0
  0
CLASS
  1
ACMNOTESTANDARDJIS
  2
AmdtNoteStdJIS
  3
"Amdt_StdImp|Product Description: AutoCAD Mechanical|Company: Autodesk, Inc."
 90
     1024
 91
        0
280
     0
281
     0
  0
CLASS
  1
ACAMGHOLECHARTSTDJIS
  2
AcAmgHoleChartStdJIS
  3
AmgDim|Product Description: AutoCAD Mechanical|Company: Autodesk, Inc.
 90
     1024
 91
        0
280
     0
281
     0
  0
CLASS
  1
ACAMGFILTERDAT
  2
AcAmgFilterDat
  3
"AcadM|Product Description: AutoCAD Mechanical|Company: Autodesk, Inc."
 90
     1024
 91
        0
280
     0
281
     0
  0
CLASS
  1
ACMFCFSTANDARDJIS98
  2
AcmFCFStdJIS98
  3
"Amdt_StdImp|Product Description: AutoCAD Mechanical|Company: Autodesk, Inc."
 90
     1024
 91
        0
280
     0
281
     0
  0
CLASS
  1
AMDTNOTE
  2
AmdtNote
  3
"AcmSymBB|Product Description: AutoCAD Mechanical|Company: Autodesk, Inc."
 90
     4095
 91
        0
280
     0
281
     1
  0
CLASS
  1
AMDTFORMULAUPDATEDISPATCHER
  2
AmdtFormulaUpdateDispatcher
  3
AcMeServices
 90
     1024
 91
        0
280
     0
281
     0
  0
CLASS
  1
ACMSTANDARDISO
  2
AcmStandardISO
  3
"Amdt_StdImp|Product Description: AutoCAD Mechanical|Company: Autodesk, Inc."
 90
     1024
 91
        0
280
     0
281
     0
  0
CLASS
  1
AMDTEDGESTANDARDISO
  2
AmdtEdgeStdISO
  3
"Amdt_StdImp|Product Description: AutoCAD Mechanical|Company: Autodesk, Inc."
 90
     1024
 91
        0
280
     0
281
     0
  0
CLASS
  1
ACMSURFSTANDARDISO
  2
AcmSurfTextStdISO
  3
"Amdt_StdImp|Product Description: AutoCAD Mechanical|Company: Autodesk, Inc."
 90
     1024
 91
        0
280
     0
281
     0
  0
CLASS
  1
ACMFCFSTANDARDISO
  2
AcmFCFStdISO
  3
"Amdt_StdImp|Product Description: AutoCAD Mechanical|Company: Autodesk, Inc."
 90
     1024
 91
        0
280
     0
281
     0
  0
CLASS
  1
ACMWELDSTANDARDISO
  2
AcmWeldingStdISO
  3
"Amdt_StdImp|Product Description: AutoCAD Mechanical|Company: Autodesk, Inc."
 90
     1024
 91
        0
280
     0
281
     0
  0
CLASS
  1
ACMIDSTANDARDISO
  2
AcmIdStdISO
  3
"Amdt_StdImp|Product Description: AutoCAD Mechanical|Company: Autodesk, Inc."
 90
     1024
 91
        0
280
     0
281
     0
  0
CLASS
  1
ACMDATUMSTANDARDISO
  2
AcmDatumStdISO
  3
"Amdt_StdImp|Product Description: AutoCAD Mechanical|Company: Autodesk, Inc."
 90
     1024
 91
        0
280
     0
281
     0
  0
CLASS
  1
ACMBOMSTANDARDISO
  2
AcmBOMStdISO
  3
"Amdt_StdImp|Product Description: AutoCAD Mechanical|Company: Autodesk, Inc."
 90
     1024
 91
        0
280
     0
281
     0
  0
CLASS
  1
ACMDETAILSTANDARDISO
  2
AmdtDetailSymStdISO
  3
"Amdt_StdImp|Product Description: AutoCAD Mechanical|Company: Autodesk, Inc."
 90
     1024
 91
        0
280
     0
281
     0
  0
CLASS
  1
ACMSECTIONSTANDARDISO
  2
AmdtSectionSymStdISO
  3
"Amdt_StdImp|Product Description: AutoCAD Mechanical|Company: Autodesk, Inc."
 90
     1024
 91
        0
280
     0
281
     0
  0
CLASS
  1
ACMCENTERLINESTANDARDISO
  2
AmdtCenterLineStdISO
  3
"Amdt_StdImp|Product Description: AutoCAD Mechanical|Company: Autodesk, Inc."
 90
     1024
 91
        0
280
     0
281
     0
  0
CLASS
  1
ACMNOTESTANDARDISO
  2
AmdtNoteStdISO
  3
"Amdt_StdImp|Product Description: AutoCAD Mechanical|Company: Autodesk, Inc."
 90
     1024
 91
        0
280
     0
281
     0
  0
CLASS
  1
ACAMGHOLECHARTSTDISO
  2
AcAmgHoleChartStdISO
  3
AmgDim|Product Description: AutoCAD Mechanical|Company: Autodesk, Inc.
 90
     1024
 91
        0
280
     0
281
     0
  0
CLASS
  1
ACMSTANDARDGB
  2
AcmStandardGB
  3
"Amdt_StdImp|Product Description: AutoCAD Mechanical|Company: Autodesk, Inc."
 90
     1024
 91
        0
280
     0
281
     0
  0
CLASS
  1
ACMSURFSTANDARDGB
  2
AcmSurfTextStdGB
  3
"Amdt_StdImp|Product Description: AutoCAD Mechanical|Company: Autodesk, Inc."
 90
     1024
 91
        0
280
     0
281
     0
  0
CLASS
  1
ACMFCFSTANDARDGB
  2
AcmFCFStdGB
  3
"Amdt_StdImp|Product Description: AutoCAD Mechanical|Company: Autodesk, Inc."
 90
     1024
 91
        0
280
     0
281
     0
  0
CLASS
  1
ACMWELDSTANDARDGB
  2
AcmWeldingStdGB
  3
"Amdt_StdImp|Product Description: AutoCAD Mechanical|Company: Autodesk, Inc."
 90
     1024
 91
        0
280
     0
281
     0
  0
CLASS
  1
ACMIDSTANDARDGB
  2
AcmIdStdGB
  3
"Amdt_StdImp|Product Description: AutoCAD Mechanical|Company: Autodesk, Inc."
 90
     1024
 91
        0
280
     0
281
     0
  0
CLASS
  1
ACMDATUMSTANDARDGB
  2
AcmDatumStdGB
  3
"Amdt_StdImp|Product Description: AutoCAD Mechanical|Company: Autodesk, Inc."
 90
     1024
 91
        0
280
     0
281
     0
  0
CLASS
  1
ACMBOMSTANDARDGB
  2
AcmBOMStdGB
  3
"Amdt_StdImp|Product Description: AutoCAD Mechanical|Company: Autodesk, Inc."
 90
     1024
 91
        0
280
     0
281
     0
  0
CLASS
  1
ACMDETAILSTANDARDGB
  2
AmdtDetailSymStdGB
  3
"Amdt_StdImp|Product Description: AutoCAD Mechanical|Company: Autodesk, Inc."
 90
     1024
 91
        0
280
     0
281
     0
  0
CLASS
  1
ACMSECTIONSTANDARDGB
  2
AmdtSectionSymStdGB
  3
"Amdt_StdImp|Product Description: AutoCAD Mechanical|Company: Autodesk, Inc."
 90
     1024
 91
        0
280
     0
281
     0
  0
CLASS
  1
ACMCENTERLINESTANDARDGB
  2
AmdtCenterLineStdGB
  3
"Amdt_StdImp|Product Description: AutoCAD Mechanical|Company: Autodesk, Inc."
 90
     1024
 91
        0
280
     0
281
     0
  0
CLASS
  1
ACMNOTESTANDARDGB
  2
AmdtNoteStdGB
  3
"Amdt_StdImp|Product Description: AutoCAD Mechanical|Company: Autodesk, Inc."
 90
     1024
 91
        0
280
     0
281
     0
  0
CLASS
  1
ACAMGHOLECHARTSTDGB
  2
AcAmgHoleChartStdGB
  3
AmgDim|Product Description: AutoCAD Mechanical|Company: Autodesk, Inc.
 90
     1024
 91
        0
280
     0
281
     0
  0
CLASS
  1
TABLESTYLE
  2
AcDbTableStyle
  3
ObjectDBX Classes
 90
     4095
 91
        1
280
     0
281
     0
  0
CLASS
  1
AM_DRAWING_MGR
  2
AcDmDwgMgr
  3
AcMechDwgViewMgmt
 90
     1024
 91
        0
280
     0
281
     0
  0
CLASS
  1
AM_DWG_DOCUMENT
  2
AcDmDwgDocument
  3
AcMechDwgViewMgmt
 90
     1024
 91
        0
280
     0
281
     0
  0
CLASS
  1
AM_DWG_SHEET
  2
AcDmSheet
  3
AcMechDwgViewMgmt
 90
     1024
 91
        0
280
     0
281
     0
  0
CLASS
  1
AM_VIEWDIMPARMAP
  2
AcDmViewDimParMap
  3
AcMechDwgViewMgmt
 90
     1024
 91
        0
280
     0
281
     0
  0
CLASS
  1
AM_DWGMGR_NAME
  2
AcDmDwgMgrName
  3
AcMechDwgViewMgmt
 90
     1024
 91
        0
280
     0
281
     0
  0
CLASS
  1
AMDTMENUSTATEMGR
  2
AmdtMenuStateMgr
  3
McadcomServices
 90
     1024
 91
        0
280
     0
281
     0
  0
CLASS
  1
AMDTMCOMMENUSTATE
  2
AmdtMcomMenuState
  3
McadcomServices
 90
     1024
 91
        0
280
     0
281
     0
  0
CLASS
  1
MAPIAMMOUDLE
  2
MApiAmModule
  3
MApiAmServices
 90
     1024
 91
        0
280
     0
281
     0
  0
CLASS
  1
AMDTADMENUSTATE
  2
AmdtAdMenuState
  3
DesignerServices
 90
     1024
 91
        0
280
     0
281
     0
  0
CLASS
  1
ADAPPL
  2
AcAdAppl
  3
DesignerServices
 90
     1024
 91
        0
280
     0
281
     0
  0
CLASS
  1
DEPMGR
  2
AcAdDepMgr
  3
DesignerServices
 90
     1024
 91
        0
280
     0
281
     0
  0
CLASS
  1
PARAMMGR
  2
AcAdParamMgr
  3
DesignerServices
 90
     1024
 91
        0
280
     0
281
     0
  0
CLASS
  1
PARAMSCOPE
  2
AcAdParamScope
  3
DesignerServices
 90
     1024
 91
        0
280
     0
281
     0
  0
CLASS
  1
NAMEDAPPL
  2
AcAdNamedAppl
  3
DesignerServices
 90
     1024
 91
        0
280
     0
281
     0
  0
CLASS
  1
AMDTDMMENUSTATE
  2
AmdtDmMenuState
  3
AcMechDwgViewMgmt
 90
     1024
 91
        0
280
     0
281
     0
  0
CLASS
  1
AMDTAMMENUSTATE
  2
AmdtAmMenuState
  3
DesignerAssemblies
 90
     1024
 91
        0
280
     0
281
     0
  0
CLASS
  1
ACAMPROJECT
  2
AcAmProject
  3
DesignerAssemblies
 90
     1024
 91
        0
280
     0
281
     0
  0
CLASS
  1
ACAMGRCOMPDEF
  2
AcAmGrCompDef
  3
DesignerAssemblies
 90
     1024
 91
        0
280
     0
281
     0
  0
CLASS
  1
ACCMCONTEXT
  2
AcCmContext
  3
DesignerAssemblies
 90
     1024
 91
        0
280
     0
281
     0
  0
CLASS
  1
ACAMCOMPDEF
  2
AcAmCompDef
  3
DesignerAssemblies
 90
     1024
 91
        0
280
     0
281
     0
  0
CLASS
  1
ACAMCOMPDEFMGR
  2
AcAmCompDefMgr
  3
DesignerAssemblies
 90
     1024
 91
        0
280
     0
281
     0
  0
CLASS
  1
AMCONTEXTMGR
  2
AcAmContextMgr
  3
DesignerAssemblies
 90
     1024
 91
        0
280
     0
281
     0
  0
CLASS
  1
ACAMCONTEXTMODELER
  2
AcAmContextModeler
  3
DesignerAssemblies
 90
     1024
 91
        0
280
     0
281
     0
  0
CLASS
  1
CATALOGSTATE
  2
AcAmCatalogState
  3
DesignerAssemblies
 90
     1024
 91
        0
280
     0
281
     0
  0
CLASS
  1
ACAMGRCOMPDEFSET
  2
AcAmGrCompDefSet
  3
DesignerAssemblies
 90
     1024
 91
        0
280
     0
281
     0
  0
CLASS
  1
AMDTBROWSERDBTAB
  2
AmdtBrowserDbTab
  3
McadcomServices
 90
     1024
 91
        0
280
     0
281
     0
  0
CLASS
  1
CBROWSERAPPOBJECT
  2
CBrowserAppObject
  3
McadcomServices
 90
     1024
 91
        0
280
     0
281
     0
  0
CLASS
  1
DM_PLACEHOLDER
  2
AcDmSelsetPlaceholder
  3
AcMechDwgViewMgmt
 90
     1024
 91
        0
280
     0
281
     0
  0
CLASS
  1
MATERIAL
  2
AcDbMaterial
  3
ObjectDBX Classes
 90
     1153
 91
        3
280
     0
281
     0
  0
CLASS
  1
VISUALSTYLE
  2
AcDbVisualStyle
  3
ObjectDBX Classes
 90
     4095
 91
       26
280
     0
281
     0
  0
CLASS
  1
ACRFATTGENMGR
  2
AcRfAttGeneralMgr
  3
AcAttribServices
 90
     1024
 91
        0
280
     0
281
     0
  0
CLASS
  1
ACRFOBJATTMGR
  2
AcRfObjAttGroupMgr
  3
AcAttribServices
 90
     1024
 91
        0
280
     0
281
     0
  0
CLASS
  1
ACRFMCADAPIATTHOLDER
  2
AcRfMCADAPIAttHolder
  3
AcAttribServices
 90
     1024
 91
        0
280
     0
281
     0
  0
CLASS
  1
AMDTSYSATTR
  2
AmdtSystemAttribute
  3
AcAttribServices
 90
     1024
 91
        0
280
     0
281
     0
  0
CLASS
  1
ACMTAPERSTANDARDJIS
  2
AcmTaperStdJIS
  3
"Amdt_StdImp|Product Description: AutoCAD Mechanical|Company: Autodesk, Inc."
 90
     1024
 91
        0
280
     0
281
     0
  0
CLASS
  1
CAMSSTRUCTBTNSTATE
  2
StructBtnState
  3
DesignerAssemblies
 90
     1024
 91
        0
280
     0
281
     0
  0
CLASS
  1
SCALE
  2
AcDbScale
  3
ObjectDBX Classes
 90
     1153
 91
       33
280
     0
281
     0
  0
CLASS
  1
MLEADERSTYLE
  2
AcDbMLeaderStyle
  3
ACDB_MLEADERSTYLE_CLASS
 90
     4095
 91
        2
280
     0
281
     0
  0
CLASS
  1
ACMANOOTATIONVIEWSTANDARDJIS
  2
AmdtAnViewStdJIS
  3
"Amdt_StdImp|Product Description: AutoCAD Mechanical|Company: Autodesk, Inc."
 90
     1024
 91
        0
280
     0
281
     0
  0
CLASS
  1
CELLSTYLEMAP
  2
AcDbCellStyleMap
  3
ObjectDBX Classes
 90
     1152
 91
        2
280
     0
281
     0
  0
CLASS
  1
AMDTEDGESTANDARDJIS
  2
AmdtEdgeStdJIS
  3
"Amdt_StdImp|Product Description: AutoCAD Mechanical|Company: Autodesk, Inc."
 90
     1024
 91
        0
280
     0
281
     0
  0
CLASS
  1
EXACXREFPANELOBJECT
  2
ExAcXREFPanelObject
  3
EXAC_ESW
 90
     1025
 91
        0
280
     0
281
     0
  0
CLASS
  1
NPOCOLLECTION
  2
AcDbImpNonPersistentObjectsCollection
  3
ObjectDBX Classes
 90
     1153
 91
        0
280
     0
281
     0
  0
CLASS
  1
MULTILEADER
  2
AcDbMLeader
  3
ACDB_MLEADER_CLASS
 90
     1025
 91
        0
280
     0
281
     1
  0
CLASS
  1
SORTENTSTABLE
  2
AcDbSortentsTable
  3
ObjectDBX Classes
 90
        0
 91
        2
280
     0
281
     0
  0
CLASS
  1
ACMSTANDARDANSI
  2
AcmStandardANSI
  3
"Amdt_StdImp|Product Description: AutoCAD Mechanical|Company: Autodesk, Inc."
 90
     1024
 91
        0
280
     0
281
     0
  0
CLASS
  1
ACMSURFSTANDARDANSI
  2
AcmSurfTextStdANSI
  3
"Amdt_StdImp|Product Description: AutoCAD Mechanical|Company: Autodesk, Inc."
 90
     1024
 91
        0
280
     0
281
     0
  0
CLASS
  1
ACMFCFSTANDARDANSI
  2
AcmFCFStdANSI
  3
"Amdt_StdImp|Product Description: AutoCAD Mechanical|Company: Autodesk, Inc."
 90
     1024
 91
        0
280
     0
281
     0
  0
CLASS
  1
ACMWELDSTANDARDANSI
  2
AcmWeldingStdANSI
  3
"Amdt_StdImp|Product Description: AutoCAD Mechanical|Company: Autodesk, Inc."
 90
     1024
 91
        0
280
     0
281
     0
  0
CLASS
  1
ACMIDSTANDARDANSI
  2
AcmIdStdANSI
  3
"Amdt_StdImp|Product Description: AutoCAD Mechanical|Company: Autodesk, Inc."
 90
     1024
 91
        0
280
     0
281
     0
  0
CLASS
  1
ACMDATUMSTANDARDANSI
  2
AcmDatumStdANSI
  3
"Amdt_StdImp|Product Description: AutoCAD Mechanical|Company: Autodesk, Inc."
 90
     1024
 91
        0
280
     0
281
     0
  0
CLASS
  1
ACMBOMSTANDARDANSI
  2
AcmBOMStdANSI
  3
"Amdt_StdImp|Product Description: AutoCAD Mechanical|Company: Autodesk, Inc."
 90
     1024
 91
        0
280
     0
281
     0
  0
CLASS
  1
ACMDETAILSTANDARDANSI
  2
AmdtDetailSymStdANSI
  3
"Amdt_StdImp|Product Description: AutoCAD Mechanical|Company: Autodesk, Inc."
 90
     1024
 91
        0
280
     0
281
     0
  0
CLASS
  1
ACMSECTIONSTANDARDANSI
  2
AmdtSectionSymStdANSI
  3
"Amdt_StdImp|Product Description: AutoCAD Mechanical|Company: Autodesk, Inc."
 90
     1024
 91
        0
280
     0
281
     0
  0
CLASS
  1
ACMCENTERLINESTANDARDANSI
  2
AmdtCenterLineStdANSI
  3
"Amdt_StdImp|Product Description: AutoCAD Mechanical|Company: Autodesk, Inc."
 90
     1024
 91
        0
280
     0
281
     0
  0
CLASS
  1
ACMTHREADLINESTANDARDANSI
  2
AmdtThreadLineStdANSI
  3
"Amdt_StdImp|Product Description: AutoCAD Mechanical|Company: Autodesk, Inc."
 90
     1024
 91
        0
280
     0
281
     0
  0
CLASS
  1
ACMNOTESTANDARDANSI
  2
AmdtNoteStdANSI
  3
"Amdt_StdImp|Product Description: AutoCAD Mechanical|Company: Autodesk, Inc."
 90
     1024
 91
        0
280
     0
281
     0
  0
CLASS
  1
AMDTNOTETEMPLATEDB
  2
AmdtNoteTemplateDB
  3
AcmSymBB|Product Description: AutoCAD Mechanical|Company: Autodesk, Inc.
 90
     1024
 91
        0
280
     0
281
     0
  0
CLASS
  1
ACMTAPERSTANDARDANSI
  2
AcmTaperStdANSI
  3
"Amdt_StdImp|Product Description: AutoCAD Mechanical|Company: Autodesk, Inc."
 90
     1024
 91
        0
280
     0
281
     0
  0
CLASS
  1
ACMANOOTATIONVIEWSTANDARDANSI
  2
AmdtAnViewStdANSI
  3
"Amdt_StdImp|Product Description: AutoCAD Mechanical|Company: Autodesk, Inc."
 90
     1024
 91
        0
280
     0
281
     0
  0
CLASS
  1
ACAMGHOLECHARTSTDANSI
  2
AcAmgHoleChartStdANSI
  3
AmgDim|Product Description: AutoCAD Mechanical|Company: Autodesk, Inc.
 90
     1024
 91
        0
280
     0
281
     0
  0
CLASS
  1
DIMASSOC
  2
AcDbDimAssoc
  3
"AcDbDimAssoc|Product Desc:     AcDim ARX App For Dimension|Company:          Autodesk, Inc.|WEB Address:      www.autodesk.com"
 90
        0
 91
        0
280
     0
281
     0
  0
CLASS
  1
AMDTEDGESTANDARDISO13715
  2
AmdtEdgeStdISO13715
  3
"Amdt_StdImp|Product Description: AutoCAD Mechanical|Company: Autodesk, Inc."
 90
     1024
 91
        0
280
     0
281
     0
  0
CLASS
  1
ACMSURFSTANDARDISO2002
  2
AcmSurfTextStdISO2002
  3
"Amdt_StdImp|Product Description: AutoCAD Mechanical|Company: Autodesk, Inc."
 90
     1024
 91
        0
280
     0
281
     0
  0
CLASS
  1
ACMSECTIONSTANDARDISO2001
  2
AmdtSectionSymStdISO2001
  3
"Amdt_StdImp|Product Description: AutoCAD Mechanical|Company: Autodesk, Inc."
 90
     1024
 91
        0
280
     0
281
     0
  0
CLASS
  1
ACMTHREADLINESTANDARDISO
  2
AmdtThreadLineStdISO
  3
"Amdt_StdImp|Product Description: AutoCAD Mechanical|Company: Autodesk, Inc."
 90
     1024
 91
        0
280
     0
281
     0
  0
CLASS
  1
ACMTAPERSTANDARDISO
  2
AcmTaperStdISO
  3
"Amdt_StdImp|Product Description: AutoCAD Mechanical|Company: Autodesk, Inc."
 90
     1024
 91
        0
280
     0
281
     0
  0
CLASS
  1
ACMANOOTATIONVIEWSTANDARDISO
  2
AmdtAnViewStdISO
  3
"Amdt_StdImp|Product Description: AutoCAD Mechanical|Company: Autodesk, Inc."
 90
     1024
 91
        0
280
     0
281
     0
  0
CLASS
  1
ACAD_PROXY_OBJECT_WRAPPER
  2
AcDbProxyObjectWrapper
  3
ObjectDBX Classes
 90
        0
 91
        0
280
     0
281
     0
  0
ENDSEC
  0
SECTION
  2
TABLES
  0
TABLE
  2
VPORT
  5
8
102
{ACAD_XDICTIONARY
360
5312
102
}
330
0
100
AcDbSymbolTable
 70
     1
  0
VPORT
  5
59D4
330
8
100
AcDbSymbolTableRecord
100
AcDbViewportTableRecord
  2
*Active
 70
     0
 10
0.0
 20
0.0
 11
1.0
 21
1.0
 12
1560.16696241164
 22
598.3675665336861
 13
0.0
 23
0.0
 14
2.5
 24
2.5
 15
10.0
 25
10.0
 16
0.0
 26
0.0
 36
1.0
 17
0.0
 27
0.0
 37
0.0
 40
2087.071491904072
 41
2.255139056831922
 42
50.0
 43
0.0
 44
0.0
 50
0.0
 51
0.0
 71
     0
 72
   100
 73
     1
 74
     3
 75
     0
 76
     0
 77
     0
 78
     0
281
     0
 65
     1
110
0.0
120
0.0
130
0.0
111
1.0
121
0.0
131
0.0
112
0.0
122
1.0
132
0.0
 79
     0
146
0.0
  0
ENDTAB
  0
TABLE
  2
LTYPE
  5
5
330
0
100
AcDbSymbolTable
 70
     2
  0
LTYPE
  5
14
330
5
100
AcDbSymbolTableRecord
100
AcDbLinetypeTableRecord
  2
ByBlock
 70
     0
  3

 72
    65
 73
     0
 40
0.0
  0
LTYPE
  5
15
330
5
100
AcDbSymbolTableRecord
100
AcDbLinetypeTableRecord
  2
ByLayer
 70
     0
  3

 72
    65
 73
     0
 40
0.0
  0
LTYPE
  5
16
330
5
100
AcDbSymbolTableRecord
100
AcDbLinetypeTableRecord
  2
Continuous
 70
     0
  3
Solid line
 72
    65
 73
     0
 40
0.0
  0
LTYPE
  5
65
330
5
100
AcDbSymbolTableRecord
100
AcDbLinetypeTableRecord
  2
CENTER
 70
     0
  3
__ . __
 72
    65
 73
     4
 40
7.0
 49
4.0
 74
     0
 49
-1.0
 74
     0
 49
1.0
 74
     0
 49
-1.0
 74
     0
  0
ENDTAB
  0
TABLE
  2
LAYER
  5
2
102
{ACAD_XDICTIONARY
360
D1
102
}
330
0
100
AcDbSymbolTable
 70
     1
  0
LAYER
  5
10
102
{ACAD_XDICTIONARY
360
789
102
}
330
2
100
AcDbSymbolTableRecord
100
AcDbLayerTableRecord
  2
0
 70
     0
 62
     7
  6
Continuous
370
    -3
390
F
  0
ENDTAB
  0
TABLE
  2
STYLE
  5
3
330
0
100
AcDbSymbolTable
 70
     2
  0
STYLE
  5
11
330
3
100
AcDbSymbolTableRecord
100
AcDbTextStyleTableRecord
  2
STANDARD
 70
     0
 40
0.0
 41
0.7
 50
0.0
 71
     0
 42
73.98571745357912
  3
romans.shx
  4
bigfont.shx
  0
STYLE
  5
146
330
3
100
AcDbSymbolTableRecord
100
AcDbTextStyleTableRecord
  2
TSKDIM
 70
     0
 40
0.0
 41
0.75
 50
0.0
 71
     0
 42
4.0
  3
romans.shx
  4
EXTFONT.SHX
  0
ENDTAB
  0
TABLE
  2
VIEW
  5
6
330
0
100
AcDbSymbolTable
 70
     0
  0
ENDTAB
  0
TABLE
  2
UCS
  5
7
330
0
100
AcDbSymbolTable
 70
     0
  0
ENDTAB
  0
TABLE
  2
APPID
  5
9
330
0
100
AcDbSymbolTable
 70
    43
  0
APPID
  5
12
330
9
100
AcDbSymbolTableRecord
100
AcDbRegAppTableRecord
  2
ACAD
 70
     0
  0
APPID
  5
30
330
9
100
AcDbSymbolTableRecord
100
AcDbRegAppTableRecord
  2
MCAD_NO_VIS
 70
     0
  0
APPID
  5
31
330
9
100
AcDbSymbolTableRecord
100
AcDbRegAppTableRecord
  2
ACAD_TEMP_GRAPHIC
 70
     0
  0
APPID
  5
44
330
9
100
AcDbSymbolTableRecord
100
AcDbRegAppTableRecord
  2
ACATTRIBSERVICES
 70
     0
  0
APPID
  5
11D
330
9
100
AcDbSymbolTableRecord
100
AcDbRegAppTableRecord
  2
AD_DRAW
 70
     0
  0
APPID
  5
11E
330
9
100
AcDbSymbolTableRecord
100
AcDbRegAppTableRecord
  2
DESIGNERASSEMBLIES
 70
     0
  0
APPID
  5
11F
330
9
100
AcDbSymbolTableRecord
100
AcDbRegAppTableRecord
  2
ASURF_PCURVE_APPNAME
 70
     0
  0
APPID
  5
120
330
9
100
AcDbSymbolTableRecord
100
AcDbRegAppTableRecord
  2
ACADM_DIM_EDIT
 70
     0
  0
APPID
  5
121
330
9
100
AcDbSymbolTableRecord
100
AcDbRegAppTableRecord
  2
GENIUS_GENDIM_13
 70
     0
  0
APPID
  5
122
330
9
100
AcDbSymbolTableRecord
100
AcDbRegAppTableRecord
  2
GENIUS_GENDTOL_13
 70
     0
  0
APPID
  5
123
330
9
100
AcDbSymbolTableRecord
100
AcDbRegAppTableRecord
  2
GENIUS_GE3DTOL_13
 70
     0
  0
APPID
  5
124
330
9
100
AcDbSymbolTableRecord
100
AcDbRegAppTableRecord
  2
AMG_3D2D_5.0
 70
     0
  0
APPID
  5
125
330
9
100
AcDbSymbolTableRecord
100
AcDbRegAppTableRecord
  2
AMDT_DM_ADJ
 70
     0
  0
APPID
  5
126
330
9
100
AcDbSymbolTableRecord
100
AcDbRegAppTableRecord
  2
CK_MATE-SERIES
 70
     0
  0
APPID
  5
127
330
9
100
AcDbSymbolTableRecord
100
AcDbRegAppTableRecord
  2
GEVID1042077799
 70
     0
  0
APPID
  5
128
330
9
100
AcDbSymbolTableRecord
100
AcDbRegAppTableRecord
  2
GEVMK
 70
     0
  0
APPID
  5
129
330
9
100
AcDbSymbolTableRecord
100
AcDbRegAppTableRecord
  2
GEVDC
 70
     0
  0
APPID
  5
12A
330
9
100
AcDbSymbolTableRecord
100
AcDbRegAppTableRecord
  2
GENIUS_GENBH_13
 70
     0
  0
APPID
  5
12B
330
9
100
AcDbSymbolTableRecord
100
AcDbRegAppTableRecord
  2
GENIUS_GENOLIS_13
 70
     0
  0
APPID
  5
12C
330
9
100
AcDbSymbolTableRecord
100
AcDbRegAppTableRecord
  2
GENIUS_GENOENT_13
 70
     0
  0
APPID
  5
12D
330
9
100
AcDbSymbolTableRecord
100
AcDbRegAppTableRecord
  2
GENIUS_GENODEF_13
 70
     0
  0
APPID
  5
12E
330
9
100
AcDbSymbolTableRecord
100
AcDbRegAppTableRecord
  2
GENIUS_GENOBJ-NBEHI-BHF_13
 70
     0
  0
APPID
  5
12F
330
9
100
AcDbSymbolTableRecord
100
AcDbRegAppTableRecord
  2
GENIUS_GENOREF_13
 70
     0
  0
APPID
  5
130
330
9
100
AcDbSymbolTableRecord
100
AcDbRegAppTableRecord
  2
GENIUS_GENOBJ-NBEHI-BHB_13
 70
     0
  0
APPID
  5
131
330
9
100
AcDbSymbolTableRecord
100
AcDbRegAppTableRecord
  2
GEVID1042183772
 70
     0
  0
APPID
  5
132
330
9
100
AcDbSymbolTableRecord
100
AcDbRegAppTableRecord
  2
GEVID1042183773
 70
     0
  0
APPID
  5
133
330
9
100
AcDbSymbolTableRecord
100
AcDbRegAppTableRecord
  2
GEVID1042183774
 70
     0
  0
APPID
  5
2E8
330
9
100
AcDbSymbolTableRecord
100
AcDbRegAppTableRecord
  2
DCO15
 70
     0
  0
APPID
  5
570
330
9
100
AcDbSymbolTableRecord
100
AcDbRegAppTableRecord
  2
ACAD_DSTYLE_DIMARC_LENGTH_SYMBOL
 70
     0
  0
APPID
  5
571
330
9
100
AcDbSymbolTableRecord
100
AcDbRegAppTableRecord
  2
ACAD_DSTYLE_DIMJOGGED_JOGANGLE_SYMBOL
 70
     0
  0
APPID
  5
607
330
9
100
AcDbSymbolTableRecord
100
AcDbRegAppTableRecord
  2
ACAD_MLEADERVER
 70
     0
  0
APPID
  5
6ED
330
9
100
AcDbSymbolTableRecord
100
AcDbRegAppTableRecord
  2
ACAD_DSTYLE_DIMJAG
 70
     0
  0
APPID
  5
6EE
330
9
100
AcDbSymbolTableRecord
100
AcDbRegAppTableRecord
  2
ACAD_DSTYLE_DIMTALN
 70
     0
  0
APPID
  5
6EF
330
9
100
AcDbSymbolTableRecord
100
AcDbRegAppTableRecord
  2
ACAD_PSEXT
 70
     0
  0
APPID
  5
70D
330
9
100
AcDbSymbolTableRecord
100
AcDbRegAppTableRecord
  2
ACAD_EXEMPT_FROM_CAD_STANDARDS
 70
     0
  0
APPID
  5
B46
330
9
100
AcDbSymbolTableRecord
100
AcDbRegAppTableRecord
  2
AcAecLayerStandard
 70
     0
  0
APPID
  5
B9A
330
9
100
AcDbSymbolTableRecord
100
AcDbRegAppTableRecord
  2
ACAD_DSTYLE_DIMINSPECT
 70
     0
  0
APPID
  5
D83
330
9
100
AcDbSymbolTableRecord
100
AcDbRegAppTableRecord
  2
GENIUS_GENOBJ-N-FIL_13
 70
     0
  0
APPID
  5
2531
330
9
100
AcDbSymbolTableRecord
100
AcDbRegAppTableRecord
  2
ACAD_DSTYLE_DIMRADIAL_EXTENSION
 70
     0
  0
APPID
  5
36C9
330
9
100
AcDbSymbolTableRecord
100
AcDbRegAppTableRecord
  2
ACAD_DSTYLE_DIMANGULAR_EXTENSION
 70
     0
  0
APPID
  5
5321
330
9
100
AcDbSymbolTableRecord
100
AcDbRegAppTableRecord
  2
ACAD_DSTYLE_DIM_LINETYPE
 70
     0
  0
APPID
  5
5322
330
9
100
AcDbSymbolTableRecord
100
AcDbRegAppTableRecord
  2
ACAD_DSTYLE_DIM_EXT1_LINETYPE
 70
     0
  0
APPID
  5
5323
330
9
100
AcDbSymbolTableRecord
100
AcDbRegAppTableRecord
  2
ACAD_DSTYLE_DIM_EXT2_LINETYPE
 70
     0
  0
ENDTAB
  0
TABLE
  2
DIMSTYLE
  5
A
330
0
100
AcDbSymbolTable
 70
     1
100
AcDbDimStyleTable
 71
     1
340
111
  0
DIMSTYLE
105
111
330
A
100
AcDbSymbolTableRecord
100
AcDbDimStyleTableRecord
  2
TSK
 70
     0
  4
"
 41
3.0
 42
1.0
 43
10.0
 44
1.0
 47
0.1
 48
0.1
 73
     0
 74
     0
 77
     3
 78
     8
 79
     2
140
3.0
141
0.0
143
0.0393701
146
0.71
147
1.5
172
     1
176
   256
177
   256
178
     2
271
     2
272
     2
284
     8
340
146
341
159
342
159
371
     9
372
     9
1001
ACAD_DSTYLE_DIMJOGGED_JOGANGLE_SYMBOL
1070
   384
1040
0.7853981633974483
1001
ACAD_DSTYLE_DIMJAG
1070
   388
1040
1.5
1001
ACAD_DSTYLE_DIMTALN
1070
   392
1070
     0
1001
ACAD_DSTYLE_DIMARC_LENGTH_SYMBOL
1070
   379
1070
     1
  0
ENDTAB
  0
TABLE
  2
BLOCK_RECORD
  5
1
330
0
100
AcDbSymbolTable
 70
     3
  0
BLOCK_RECORD
  5
1F
102
{ACAD_XDICTIONARY
360
82
102
}
330
1
100
AcDbSymbolTableRecord
100
AcDbBlockTableRecord
  2
*Model_Space
340
22
  0
BLOCK_RECORD
  5
1B
102
{ACAD_XDICTIONARY
360
59D6
102
}
330
1
100
AcDbSymbolTableRecord
100
AcDbBlockTableRecord
  2
*Paper_Space
340
1E
  0
BLOCK_RECORD
  5
23
102
{ACAD_XDICTIONARY
360
59D8
102
}
330
1
100
AcDbSymbolTableRecord
100
AcDbBlockTableRecord
  2
*Paper_Space0
340
26
  0
BLOCK_RECORD
  5
159
330
1
100
AcDbSymbolTableRecord
100
AcDbBlockTableRecord
  2
_Open
340
0
  0
BLOCK_RECORD
  5
5A37
102
{ACAD_XDICTIONARY
360
5B59
102
}
330
1
100
AcDbSymbolTableRecord
100
AcDbBlockTableRecord
  2
HE150A-125A-30
340
0
1001
ACAD
1000
DesignCenter Data
1002
{
1070
     1
1070
     4
1002
}
  0
ENDTAB
  0
ENDSEC
  0
SECTION
  2
BLOCKS
  0
BLOCK
  5
20
330
1F
100
AcDbEntity
  8
0
100
AcDbBlockBegin
  2
*Model_Space
 70
     0
 10
0.0
 20
0.0
 30
0.0
  3
*Model_Space
  1

  0
ENDBLK
  5
21
330
1F
100
AcDbEntity
  8
0
100
AcDbBlockEnd
  0
BLOCK
  5
1C
330
1B
100
AcDbEntity
 67
     1
  8
0
100
AcDbBlockBegin
  2
*Paper_Space
 70
     0
 10
0.0
 20
0.0
 30
0.0
  3
*Paper_Space
  1

  0
ENDBLK
  5
1D
330
1B
100
AcDbEntity
 67
     1
  8
0
100
AcDbBlockEnd
  0
BLOCK
  5
24
330
23
100
AcDbEntity
 67
     1
  8
0
100
AcDbBlockBegin
  2
*Paper_Space0
 70
     0
 10
0.0
 20
0.0
 30
0.0
  3
*Paper_Space0
  1

  0
ENDBLK
  5
25
330
23
100
AcDbEntity
 67
     1
  8
0
100
AcDbBlockEnd
  0
BLOCK
  5
15D
330
159
100
AcDbEntity
  8
0
100
AcDbBlockBegin
  2
_Open
 70
     0
 10
0.0
 20
0.0
 30
0.0
  3
_Open
  1

  0
LINE
  5
15A
330
159
100
AcDbEntity
  8
0
  6
ByBlock
 62
     0
370
    -2
100
AcDbLine
 10
-1.0
 20
0.1666666666666666
 30
0.0
 11
0.0
 21
0.0
 31
0.0
  0
LINE
  5
15B
330
159
100
AcDbEntity
  8
0
  6
ByBlock
 62
     0
370
    -2
100
AcDbLine
 10
-1.0
 20
-0.1666666666666666
 30
0.0
 11
0.0
 21
0.0
 31
0.0
  0
LINE
  5
15C
330
159
100
AcDbEntity
  8
0
  6
ByBlock
 62
     0
370
    -2
100
AcDbLine
 10
0.0
 20
0.0
 30
0.0
 11
-1.0
 21
0.0
 31
0.0
  0
ENDBLK
  5
15E
330
159
100
AcDbEntity
  8
0
100
AcDbBlockEnd
  0
BLOCK
  5
5B5B
330
5A37
100
AcDbEntity
  8
0
100
AcDbBlockBegin
  2
HE150A-125A-30
 70
     0
 10
0.0
 20
0.0
 30
0.0
  3
HE150A-125A-30
  1

  0
LINE
  5
5A38
330
5A37
100
AcDbEntity
  8
0
  6
CENTER
100
AcDbLine
 10
2399.603186516393
 20
97.50000000000273
 30
0.0
 11
2450.603186516395
 21
97.50000000000273
 31
0.0
  0
LINE
  5
5A39
330
5A37
100
AcDbEntity
  8
0
100
AcDbLine
 10
440.103186516399
 20
-82.59999999999763
 30
0.0
 11
486.7031865163949
 21
-82.59999999999582
 31
0.0
  0
ARC
  5
5A3A
330
5A37
100
AcDbEntity
  8
0
100
AcDbCircle
 10
2403.103186516393
 20
83.10000000000309
 30
0.0
 40
0.5
100
AcDbArc
 50
270.0
 51
0.0
  0
LINE
  5
5A3B
330
5A37
100
AcDbEntity
  8
0
100
AcDbLine
 10
2403.603186516393
 20
110.0000000000027
 30
0.0
 11
2403.603186516392
 21
-109.9999999999972
 31
0.0
  0
LINE
  5
5A3C
330
5A37
100
AcDbEntity
  8
0
100
AcDbLine
 10
2425.603186516394
 20
110.0000000000027
 30
0.0
 11
2425.603186516393
 21
-109.9999999999972
 31
0.0
  0
LINE
  5
5A3D
330
5A37
100
AcDbEntity
  8
0
100
AcDbLine
 10
2425.603186516393
 20
110.0000000000027
 30
0.0
 11
2403.603186516393
 21
110.0000000000027
 31
0.0
  0
LINE
  5
5A3E
330
5A37
100
AcDbEntity
  8
0
100
AcDbLine
 10
2446.603186516395
 20
110.0000000000045
 30
0.0
 11
2428.603186516396
 21
110.0000000000027
 31
0.0
  0
LINE
  5
5A3F
330
5A37
100
AcDbEntity
  8
0
100
AcDbLine
 10
2428.603186516396
 20
88.00000000000455
 30
0.0
 11
2425.603186516394
 21
88.00000000000455
 31
0.0
  0
LINE
  5
5A40
330
5A37
100
AcDbEntity
  8
0
100
AcDbLine
 10
2428.603186516396
 20
110.0000000000027
 30
0.0
 11
2428.603186516396
 21
-109.9999999999972
 31
0.0
  0
LINE
  5
5A41
330
5A37
100
AcDbEntity
  8
0
100
AcDbLine
 10
2446.603186516396
 20
110.0000000000045
 30
0.0
 11
2446.603186516396
 21
-109.9999999999972
 31
0.0
  0
LINE
  5
5A42
330
5A37
100
AcDbEntity
  8
0
100
AcDbLine
 10
2455.603186516396
 20
79.00000000000273
 30
0.0
 11
2451.603186516396
 21
79.00000000000273
 31
0.0
  0
ARC
  5
5A43
330
5A37
100
AcDbEntity
  8
0
100
AcDbCircle
 10
2451.603186516396
 20
84.00000000000273
 30
0.0
 40
5.0
100
AcDbArc
 50
180.0
 51
270.0
  0
LINE
  5
5A44
330
5A37
100
AcDbEntity
  8
0
100
AcDbLine
 10
1457.603186516392
 20
-82.59999999997399
 30
0.0
 11
2403.103186516393
 21
-82.59999999999582
 31
0.0
  0
LINE
  5
5A45
330
5A37
100
AcDbEntity
  8
0
100
AcDbLine
 10
2455.603186516398
 20
-78.99999999999727
 30
0.0
 11
2455.603186516396
 21
79.00000000000273
 31
0.0
  0
ARC
  5
5A46
330
5A37
100
AcDbEntity
  8
0
100
AcDbCircle
 10
2451.603186516395
 20
-83.99999999999545
 30
0.0
 40
5.0
100
AcDbArc
 50
90.0
 51
180.0
  0
LINE
  5
5A47
330
5A37
100
AcDbEntity
  8
0
100
AcDbLine
 10
2455.603186516398
 20
-78.99999999999727
 30
0.0
 11
2451.603186516396
 21
-78.99999999999727
 31
0.0
  0
ARC
  5
5A48
330
5A37
100
AcDbEntity
  8
0
100
AcDbCircle
 10
2403.103186516393
 20
-83.09999999999581
 30
0.0
 40
0.5
100
AcDbArc
 50
0.0
 51
90.0
  0
LINE
  5
5A49
330
5A37
100
AcDbEntity
  8
0
  6
CENTER
100
AcDbLine
 10
2450.603186516396
 20
-97.49999999999728
 30
0.0
 11
2399.603186516393
 21
-97.49999999999545
 31
0.0
  0
LINE
  5
5A4A
330
5A37
100
AcDbEntity
  8
0
100
AcDbLine
 10
2446.603186516395
 20
-109.9999999999972
 30
0.0
 11
2428.603186516396
 21
-109.9999999999972
 31
0.0
  0
LINE
  5
5A4B
330
5A37
100
AcDbEntity
  8
0
100
AcDbLine
 10
2425.603186516392
 20
-109.9999999999972
 30
0.0
 11
2403.603186516392
 21
-109.9999999999972
 31
0.0
  0
LINE
  5
5A4C
330
5A37
100
AcDbEntity
  8
0
100
AcDbLine
 10
1389.332339161929
 20
95.00000000002637
 30
0.0
 11
1453.874033870861
 21
95.00000000002637
 31
0.0
  0
LINE
  5
5A4D
330
5A37
100
AcDbEntity
  8
0
100
AcDbLine
 10
1405.853186516395
 20
95.00000000002614
 30
0.0
 11
1405.853186516394
 21
-94.99999999997568
 31
0.0
  0
LINE
  5
5A4E
330
5A37
100
AcDbEntity
  8
0
100
AcDbLine
 10
1401.353186516394
 20
95.00000000002614
 30
0.0
 11
1401.353186516394
 21
-94.99999999997568
 31
0.0
  0
LINE
  5
5A4F
330
5A37
100
AcDbEntity
  8
0
100
AcDbLine
 10
1396.853186516395
 20
95.00000000002614
 30
0.0
 11
1396.853186516394
 21
-94.99999999997568
 31
0.0
  0
LINE
  5
5A50
330
5A37
100
AcDbEntity
  8
0
100
AcDbLine
 10
1392.353186516395
 20
95.00000000002456
 30
0.0
 11
1392.353186516394
 21
-94.99999999997545
 31
0.0
  0
LINE
  5
5A51
330
5A37
100
AcDbEntity
  8
0
100
AcDbLine
 10
1385.603186516397
 20
88.54091814878575
 30
0.0
 11
1385.603186516395
 21
-88.54091814873482
 31
0.0
  0
LINE
  5
5A52
330
5A37
100
AcDbEntity
  8
0
100
AcDbLine
 10
1385.603186516397
 20
88.54091814878575
 30
0.0
 11
1389.332339161929
 21
95.00000000002637
 31
0.0
  0
LINE
  5
5A53
330
5A37
100
AcDbEntity
  8
0
100
AcDbLine
 10
1423.853186516395
 20
95.00000000002614
 30
0.0
 11
1423.853186516394
 21
-94.99999999997568
 31
0.0
  0
LINE
  5
5A54
330
5A37
100
AcDbEntity
  8
0
100
AcDbLine
 10
1419.353186516395
 20
95.00000000002614
 30
0.0
 11
1419.353186516393
 21
-94.99999999997568
 31
0.0
  0
LINE
  5
5A55
330
5A37
100
AcDbEntity
  8
0
100
AcDbLine
 10
1428.353186516395
 20
95.00000000002614
 30
0.0
 11
1428.353186516394
 21
-94.99999999997568
 31
0.0
  0
LINE
  5
5A56
330
5A37
100
AcDbEntity
  8
0
100
AcDbLine
 10
1432.853186516395
 20
95.00000000002614
 30
0.0
 11
1432.853186516394
 21
-94.99999999997568
 31
0.0
  0
LINE
  5
5A57
330
5A37
100
AcDbEntity
  8
0
100
AcDbLine
 10
1437.353186516395
 20
95.00000000002614
 30
0.0
 11
1437.353186516394
 21
-94.99999999997568
 31
0.0
  0
LINE
  5
5A58
330
5A37
100
AcDbEntity
  8
0
100
AcDbLine
 10
1441.853186516395
 20
95.00000000002614
 30
0.0
 11
1441.853186516394
 21
-94.99999999997568
 31
0.0
  0
LINE
  5
5A59
330
5A37
100
AcDbEntity
  8
0
100
AcDbLine
 10
1414.853186516395
 20
95.00000000002614
 30
0.0
 11
1414.853186516394
 21
-94.99999999997568
 31
0.0
  0
LINE
  5
5A5A
330
5A37
100
AcDbEntity
  8
0
100
AcDbLine
 10
1410.353186516395
 20
95.00000000002614
 30
0.0
 11
1410.353186516394
 21
-94.99999999997568
 31
0.0
  0
LINE
  5
5A5B
330
5A37
100
AcDbEntity
  8
0
100
AcDbLine
 10
1450.853186516395
 20
95.00000000002456
 30
0.0
 11
1450.853186516394
 21
-94.99999999997545
 31
0.0
  0
LINE
  5
5A5C
330
5A37
100
AcDbEntity
  8
0
100
AcDbLine
 10
1457.603186516394
 20
88.54091814878575
 30
0.0
 11
1457.603186516392
 21
-88.54091814873482
 31
0.0
  0
LINE
  5
5A5D
330
5A37
100
AcDbEntity
  8
0
100
AcDbLine
 10
1457.603186516394
 20
88.54091814878575
 30
0.0
 11
1453.874033870861
 21
95.00000000002637
 31
0.0
  0
LINE
  5
5A5E
330
5A37
100
AcDbEntity
  8
0
100
AcDbLine
 10
1446.353186516394
 20
95.00000000002614
 30
0.0
 11
1446.353186516394
 21
-94.99999999997568
 31
0.0
  0
LINE
  5
5A5F
330
5A37
100
AcDbEntity
  8
0
100
AcDbLine
 10
1385.603186516395
 20
-88.54091814873482
 30
0.0
 11
1389.332339161928
 21
-94.99999999997545
 31
0.0
  0
LINE
  5
5A60
330
5A37
100
AcDbEntity
  8
0
100
AcDbLine
 10
1389.332339161928
 20
-94.99999999997545
 30
0.0
 11
1453.87403387086
 21
-94.99999999997545
 31
0.0
  0
LINE
  5
5A61
330
5A37
100
AcDbEntity
  8
0
100
AcDbLine
 10
1457.603186516392
 20
-88.54091814873482
 30
0.0
 11
1453.87403387086
 21
-94.99999999997545
 31
0.0
  0
LINE
  5
5A62
330
5A37
100
AcDbEntity
  8
0
100
AcDbLine
 10
1389.33233916193
 20
-94.99999999997545
 30
0.0
 11
1389.332339161928
 21
95.00000000002456
 31
0.0
  0
LINE
  5
5A63
330
5A37
100
AcDbEntity
  8
0
100
AcDbLine
 10
1453.874033870861
 20
-94.99999999997545
 30
0.0
 11
1453.874033870861
 21
95.00000000002637
 31
0.0
  0
LINE
  5
5A64
330
5A37
100
AcDbEntity
  8
0
100
AcDbLine
 10
2428.603186516396
 20
-87.99999999999727
 30
0.0
 11
2425.603186516394
 21
-87.99999999999545
 31
0.0
  0
LINE
  5
5A65
330
5A37
100
AcDbEntity
  8
0
  6
CENTER
100
AcDbLine
 10
443.6031865164009
 20
97.50000000001774
 30
0.0
 11
392.6031865163991
 21
97.50000000001865
 31
0.0
  0
LINE
  5
5A66
330
5A37
100
AcDbEntity
  8
0
100
AcDbLine
 10
440.1031865164009
 20
82.60000000001809
 30
0.0
 11
1385.6031865164
 21
82.59999999996125
 31
0.0
  0
ARC
  5
5A67
330
5A37
100
AcDbEntity
  8
0
100
AcDbCircle
 10
440.1031865164009
 20
83.1000000000181
 30
0.0
 40
0.5
100
AcDbArc
 50
180.0
 51
270.0
  0
LINE
  5
5A68
330
5A37
100
AcDbEntity
  8
0
100
AcDbLine
 10
439.6031865164009
 20
110.0000000000177
 30
0.0
 11
439.603186516399
 21
-109.9999999999822
 31
0.0
  0
LINE
  5
5A69
330
5A37
100
AcDbEntity
  8
0
100
AcDbLine
 10
417.6031865164008
 20
110.0000000000182
 30
0.0
 11
417.6031865163972
 21
-109.9999999999818
 31
0.0
  0
LINE
  5
5A6A
330
5A37
100
AcDbEntity
  8
0
100
AcDbLine
 10
417.6031865164008
 20
110.0000000000182
 30
0.0
 11
439.6031865164009
 21
110.0000000000177
 31
0.0
  0
LINE
  5
5A6B
330
5A37
100
AcDbEntity
  8
0
100
AcDbLine
 10
396.6031865163991
 20
110.0000000000202
 30
0.0
 11
414.603186516399
 21
110.0000000000182
 31
0.0
  0
LINE
  5
5A6C
330
5A37
100
AcDbEntity
  8
0
100
AcDbLine
 10
414.6031865163973
 20
88.00000000002
 30
0.0
 11
417.6031865164008
 21
88.00000000002
 31
0.0
  0
LINE
  5
5A6D
330
5A37
100
AcDbEntity
  8
0
100
AcDbLine
 10
414.603186516399
 20
110.0000000000182
 30
0.0
 11
414.6031865163954
 21
-109.9999999999818
 31
0.0
  0
LINE
  5
5A6E
330
5A37
100
AcDbEntity
  8
0
100
AcDbLine
 10
396.6031865163991
 20
110.0000000000202
 30
0.0
 11
396.6031865163955
 21
-109.9999999999816
 31
0.0
  0
LINE
  5
5A6F
330
5A37
100
AcDbEntity
  8
0
100
AcDbLine
 10
387.6031865163973
 20
79.00000000001864
 30
0.0
 11
391.6031865163973
 21
79.00000000001864
 31
0.0
  0
ARC
  5
5A70
330
5A37
100
AcDbEntity
  8
0
100
AcDbCircle
 10
391.6031865163973
 20
84.00000000001865
 30
0.0
 40
5.0
100
AcDbArc
 50
270.0
 51
0.0
  0
LINE
  5
5A71
330
5A37
100
AcDbEntity
  8
0
  6
CENTER
100
AcDbLine
 10
365.6031865163964
 20
0.0000000000190994
 30
0.0
 11
2477.603186516396
 21
-0.0000000000136424
 31
0.0
  0
LINE
  5
5A72
330
5A37
100
AcDbEntity
  8
0
100
AcDbLine
 10
387.6031865163936
 20
-78.99999999998136
 30
0.0
 11
387.6031865163973
 21
79.00000000001864
 31
0.0
  0
ARC
  5
5A73
330
5A37
100
AcDbEntity
  8
0
100
AcDbCircle
 10
391.6031865163954
 20
-83.99999999997953
 30
0.0
 40
5.0
100
AcDbArc
 50
0.0
 51
90.0
  0
LINE
  5
5A74
330
5A37
100
AcDbEntity
  8
0
100
AcDbLine
 10
387.6031865163936
 20
-78.99999999998136
 30
0.0
 11
391.6031865163954
 21
-78.99999999998136
 31
0.0
  0
ARC
  5
5A75
330
5A37
100
AcDbEntity
  8
0
100
AcDbCircle
 10
440.103186516399
 20
-83.09999999998082
 30
0.0
 40
0.5
100
AcDbArc
 50
90.0
 51
180.0
  0
LINE
  5
5A76
330
5A37
100
AcDbEntity
  8
0
  6
CENTER
100
AcDbLine
 10
392.6031865163955
 20
-97.49999999998136
 30
0.0
 11
443.6031865163982
 21
-97.49999999998046
 31
0.0
  0
LINE
  5
5A77
330
5A37
100
AcDbEntity
  8
0
100
AcDbLine
 10
396.6031865163955
 20
-109.9999999999816
 30
0.0
 11
414.6031865163954
 21
-109.9999999999818
 31
0.0
  0
LINE
  5
5A78
330
5A37
100
AcDbEntity
  8
0
100
AcDbLine
 10
417.6031865163991
 20
-109.9999999999818
 30
0.0
 11
439.603186516399
 21
-109.9999999999822
 31
0.0
  0
LINE
  5
5A79
330
5A37
100
AcDbEntity
  8
0
100
AcDbLine
 10
414.6031865163954
 20
-87.99999999998181
 30
0.0
 11
417.6031865163972
 21
-87.99999999997998
 31
0.0
  0
LINE
  5
5A7A
330
5A37
100
AcDbEntity
  8
0
100
AcDbLine
 10
371.1283679545254
 20
-74.74700167122591
 30
0.0
 11
371.1283679545254
 21
1.047001671263842
 31
0.0
  0
LINE
  5
5A7B
330
5A37
100
AcDbEntity
  8
0
  6
CENTER
100
AcDbLine
 10
362.4544437953414
 20
-36.84999999998081
 30
0.0
 11
394.2582096072788
 21
-36.84999999998081
 31
0.0
  0
LINE
  5
5A7C
330
5A37
100
AcDbEntity
  8
0
100
AcDbLine
 10
365.6031865163955
 20
-82.3499999999808
 30
0.0
 11
365.6031865163955
 21
8.65000000001919
 31
0.0
  0
LINE
  5
5A7D
330
5A37
100
AcDbEntity
  8
0
100
AcDbLine
 10
368.4531865163958
 20
-81.47631477076719
 30
0.0
 11
368.4531865163958
 21
7.776314770805129
 31
0.0
  0
LINE
  5
5A7E
330
5A37
100
AcDbEntity
  8
0
100
AcDbLine
 10
372.5287828146725
 20
1.300000000019281
 30
0.0
 11
387.6031865163954
 21
1.300000000019281
 31
0.0
  0
ARC
  5
5A7F
330
5A37
100
AcDbEntity
  8
0
100
AcDbCircle
 10
372.5287828146725
 20
3.300000000019281
 30
0.0
 40
2.0
100
AcDbArc
 50
200.0000000000137
 51
270.0
1001
GENIUS_GENODEF_13
1002
{
1000
HIER
1070
     0
1002
}
1002
{
1000
MANEDIT
1070
     0
1002
}
1002
{
1000
NOSEL
1070
     0
1002
}
1002
{
1000
BEHIND
1070
     0
1002
}
1002
{
1000
OTHER
1070
     0
1002
}
1002
{
1000
REACTOR
1002
}
1001
GENIUS_GENOBJ-N-FIL_13
1002
{
1000
OWNER
1000
GEN
1002
}
  0
LINE
  5
5A80
330
5A37
100
AcDbEntity
  8
0
100
AcDbLine
 10
367.8930204858284
 20
8.65000000001919
 30
0.0
 11
365.6031865163955
 21
8.65000000001919
 31
0.0
  0
LINE
  5
5A81
330
5A37
100
AcDbEntity
  8
0
100
AcDbLine
 10
368.6447745824576
 20
8.123616114679407
 30
0.0
 11
370.6493975730996
 21
2.615959713367828
 31
0.0
  0
ARC
  5
5A82
330
5A37
100
AcDbEntity
  8
0
100
AcDbCircle
 10
367.8930204858284
 20
7.850000000019008
 30
0.0
 40
0.8
100
AcDbArc
 50
20.00000000001373
 51
90.0
1001
GENIUS_GENOBJ-N-FIL_13
1002
{
1000
OWNER
1000
GEN
1002
}
1001
GENIUS_GENODEF_13
1002
{
1000
HIER
1070
     0
1002
}
1002
{
1000
MANEDIT
1070
     0
1002
}
1002
{
1000
NOSEL
1070
     0
1002
}
1002
{
1000
BEHIND
1070
     0
1002
}
1002
{
1000
OTHER
1070
     0
1002
}
1002
{
1000
REACTOR
1002
}
  0
LINE
  5
5A83
330
5A37
100
AcDbEntity
  8
0
100
AcDbLine
 10
372.5287828146725
 20
-74.9999999999809
 30
0.0
 11
387.6031865163964
 21
-74.9999999999809
 31
0.0
  0
ARC
  5
5A84
330
5A37
100
AcDbEntity
  8
0
100
AcDbCircle
 10
372.5287828146725
 20
-76.9999999999809
 30
0.0
 40
2.0
100
AcDbArc
 50
90.0
 51
159.9999999999863
1001
GENIUS_GENODEF_13
1002
{
1000
HIER
1070
     0
1002
}
1002
{
1000
MANEDIT
1070
     0
1002
}
1002
{
1000
NOSEL
1070
     0
1002
}
1002
{
1000
BEHIND
1070
     0
1002
}
1002
{
1000
OTHER
1070
     0
1002
}
1002
{
1000
REACTOR
1002
}
1001
GENIUS_GENOBJ-N-FIL_13
1002
{
1000
OWNER
1000
GEN
1002
}
  0
LINE
  5
5A85
330
5A37
100
AcDbEntity
  8
0
100
AcDbLine
 10
367.8930204858284
 20
-82.3499999999808
 30
0.0
 11
365.6031865163955
 21
-82.3499999999808
 31
0.0
  0
LINE
  5
5A86
330
5A37
100
AcDbEntity
  8
0
100
AcDbLine
 10
368.6447745824557
 20
-81.82361611464148
 30
0.0
 11
370.6493975730996
 21
-76.31595971332945
 31
0.0
  0
ARC
  5
5A87
330
5A37
100
AcDbEntity
  8
0
100
AcDbCircle
 10
367.8930204858284
 20
-81.54999999998109
 30
0.0
 40
0.8
100
AcDbArc
 50
270.0
 51
339.9999999999863
1001
GENIUS_GENOBJ-N-FIL_13
1002
{
1000
OWNER
1000
GEN
1002
}
1001
GENIUS_GENODEF_13
1002
{
1000
HIER
1070
     0
1002
}
1002
{
1000
MANEDIT
1070
     0
1002
}
1002
{
1000
NOSEL
1070
     0
1002
}
1002
{
1000
BEHIND
1070
     0
1002
}
1002
{
1000
OTHER
1070
     0
1002
}
1002
{
1000
REACTOR
1002
}
  0
LINE
  5
5A88
330
5A37
100
AcDbEntity
  8
0
100
AcDbLine
 10
2472.078005078268
 20
74.74700167123137
 30
0.0
 11
2472.078005078268
 21
-1.047001671258385
 31
0.0
  0
LINE
  5
5A89
330
5A37
100
AcDbEntity
  8
0
  6
CENTER
100
AcDbLine
 10
2480.751929237452
 20
36.84999999998627
 30
0.0
 11
2448.948163425514
 21
36.84999999998627
 31
0.0
  0
LINE
  5
5A8A
330
5A37
100
AcDbEntity
  8
0
100
AcDbLine
 10
2477.603186516397
 20
82.34999999998626
 30
0.0
 11
2477.603186516397
 21
-8.650000000013733
 31
0.0
  0
LINE
  5
5A8B
330
5A37
100
AcDbEntity
  8
0
100
AcDbLine
 10
2474.753186516397
 20
81.47631477077267
 30
0.0
 11
2474.753186516397
 21
-7.776314770799672
 31
0.0
  0
LINE
  5
5A8C
330
5A37
100
AcDbEntity
  8
0
100
AcDbLine
 10
2470.67759021812
 20
-1.300000000013824
 30
0.0
 11
2455.603186516397
 21
-1.300000000013824
 31
0.0
  0
ARC
  5
5A8D
330
5A37
100
AcDbEntity
  8
0
100
AcDbCircle
 10
2470.67759021812
 20
-3.300000000013824
 30
0.0
 40
2.0
100
AcDbArc
 50
20.00000000000148
 51
90.0
1001
GENIUS_GENODEF_13
1002
{
1000
HIER
1070
     0
1002
}
1002
{
1000
MANEDIT
1070
     0
1002
}
1002
{
1000
NOSEL
1070
     0
1002
}
1002
{
1000
BEHIND
1070
     0
1002
}
1002
{
1000
OTHER
1070
     0
1002
}
1002
{
1000
REACTOR
1002
}
1001
GENIUS_GENOBJ-N-FIL_13
1002
{
1000
OWNER
1000
GEN
1002
}
  0
LINE
  5
5A8E
330
5A37
100
AcDbEntity
  8
0
100
AcDbLine
 10
2475.313352546964
 20
-8.650000000013733
 30
0.0
 11
2477.603186516397
 21
-8.650000000013733
 31
0.0
  0
LINE
  5
5A8F
330
5A37
100
AcDbEntity
  8
0
100
AcDbLine
 10
2474.561598450335
 20
-8.12361611467395
 30
0.0
 11
2472.556975459693
 21
-2.615959713362371
 31
0.0
  0
ARC
  5
5A90
330
5A37
100
AcDbEntity
  8
0
100
AcDbCircle
 10
2475.313352546964
 20
-7.850000000013551
 30
0.0
 40
0.8
100
AcDbArc
 50
200.0000000000015
 51
270.0
1001
GENIUS_GENOBJ-N-FIL_13
1002
{
1000
OWNER
1000
GEN
1002
}
1001
GENIUS_GENODEF_13
1002
{
1000
HIER
1070
     0
1002
}
1002
{
1000
MANEDIT
1070
     0
1002
}
1002
{
1000
NOSEL
1070
     0
1002
}
1002
{
1000
BEHIND
1070
     0
1002
}
1002
{
1000
OTHER
1070
     0
1002
}
1002
{
1000
REACTOR
1002
}
  0
LINE
  5
5A91
330
5A37
100
AcDbEntity
  8
0
100
AcDbLine
 10
2470.67759021812
 20
74.99999999998635
 30
0.0
 11
2455.603186516396
 21
74.99999999998635
 31
0.0
  0
ARC
  5
5A92
330
5A37
100
AcDbEntity
  8
0
100
AcDbCircle
 10
2470.67759021812
 20
76.99999999998635
 30
0.0
 40
2.0
100
AcDbArc
 50
270.0
 51
339.9999999999985
1001
GENIUS_GENODEF_13
1002
{
1000
HIER
1070
     0
1002
}
1002
{
1000
MANEDIT
1070
     0
1002
}
1002
{
1000
NOSEL
1070
     0
1002
}
1002
{
1000
BEHIND
1070
     0
1002
}
1002
{
1000
OTHER
1070
     0
1002
}
1002
{
1000
REACTOR
1002
}
1001
GENIUS_GENOBJ-N-FIL_13
1002
{
1000
OWNER
1000
GEN
1002
}
  0
LINE
  5
5A93
330
5A37
100
AcDbEntity
  8
0
100
AcDbLine
 10
2475.313352546964
 20
82.34999999998626
 30
0.0
 11
2477.603186516397
 21
82.34999999998626
 31
0.0
  0
LINE
  5
5A94
330
5A37
100
AcDbEntity
  8
0
100
AcDbLine
 10
2474.561598450337
 20
81.82361611464694
 30
0.0
 11
2472.556975459693
 21
76.3159597133349
 31
0.0
  0
ARC
  5
5A95
330
5A37
100
AcDbEntity
  8
0
100
AcDbCircle
 10
2475.313352546964
 20
81.54999999998654
 30
0.0
 40
0.8
100
AcDbArc
 50
90.0
 51
159.9999999999985
1001
GENIUS_GENOBJ-N-FIL_13
1002
{
1000
OWNER
1000
GEN
1002
}
1001
GENIUS_GENODEF_13
1002
{
1000
HIER
1070
     0
1002
}
1002
{
1000
MANEDIT
1070
     0
1002
}
1002
{
1000
NOSEL
1070
     0
1002
}
1002
{
1000
BEHIND
1070
     0
1002
}
1002
{
1000
OTHER
1070
     0
1002
}
1002
{
1000
REACTOR
1002
}
  0
LINE
  5
5A96
330
5A37
100
AcDbEntity
  8
0
  6
CENTER
100
AcDbLine
 10
556.6031865163954
 20
-174.9999999999841
 30
0.0
 11
556.6031865163954
 21
30.00000000001501
 31
0.0
  0
LINE
  5
5A97
330
5A37
100
AcDbEntity
  8
0
100
AcDbLine
 10
431.6031865163954
 20
-144.9999999999836
 30
0.0
 11
681.6031865163954
 21
-144.9999999999836
 31
0.0
  0
LINE
  5
5A98
330
5A37
100
AcDbEntity
  8
0
100
AcDbLine
 10
681.6031865163954
 20
-164.9999999999841
 30
0.0
 11
431.6031865163954
 21
-164.9999999999841
 31
0.0
  0
LINE
  5
5A99
330
5A37
100
AcDbEntity
  8
0
  6
CENTER
100
AcDbLine
 10
661.6031865163954
 20
-172.999999999984
 30
0.0
 11
661.6031865163954
 21
-134.9999999999836
 31
0.0
  0
LINE
  5
5A9A
330
5A37
100
AcDbEntity
  8
0
100
AcDbLine
 10
681.6031865163954
 20
-144.9999999999836
 30
0.0
 11
681.6031865163954
 21
-164.9999999999841
 31
0.0
  0
LINE
  5
5A9B
330
5A37
100
AcDbEntity
  8
0
  6
CENTER
100
AcDbLine
 10
451.6031865163954
 20
-172.999999999984
 30
0.0
 11
451.6031865163954
 21
-134.9999999999836
 31
0.0
  0
LINE
  5
5A9C
330
5A37
100
AcDbEntity
  8
0
100
AcDbLine
 10
431.6031865163954
 20
-164.9999999999841
 30
0.0
 11
431.6031865163954
 21
-144.9999999999836
 31
0.0
  0
LINE
  5
5A9D
330
5A37
100
AcDbEntity
  8
0
100
AcDbLine
 10
626.5031865163969
 20
-144.9999999999841
 30
0.0
 11
626.503186516395
 21
-82.5999999999899
 31
0.0
  0
LINE
  5
5A9E
330
5A37
100
AcDbEntity
  8
0
100
AcDbLine
 10
486.7031865163958
 20
-144.9999999999841
 30
0.0
 11
486.7031865163949
 21
-82.59999999999582
 31
0.0
  0
ARC
  5
5A9F
330
5A37
100
AcDbEntity
  8
0
100
AcDbCircle
 10
556.6031865163973
 20
-126.6085219020224
 30
0.0
 40
82.60000000000877
100
AcDbArc
 50
32.19421408869996
 51
147.8057859113
  0
LINE
  5
5AA0
330
5A37
100
AcDbEntity
  8
0
100
AcDbLine
 10
626.503186516395
 20
-82.5999999999899
 30
0.0
 11
1385.603186516399
 21
-82.59999999995534
 31
0.0
  0
LINE
  5
5AA1
330
5A37
100
AcDbEntity
  8
0
100
AcDbLine
 10
2403.103186516393
 20
82.60000000000308
 30
0.0
 11
2356.503186516397
 21
82.60000000000127
 31
0.0
  0
LINE
  5
5AA2
330
5A37
100
AcDbEntity
  8
0
100
AcDbLine
 10
2216.703186516398
 20
82.59999999999536
 30
0.0
 11
1457.603186516393
 21
82.59999999996081
 31
0.0
  0
LINE
  5
5AA3
330
5A37
100
AcDbEntity
  8
0
  6
CENTER
100
AcDbLine
 10
2286.603186516397
 20
174.9999999999895
 30
0.0
 11
2286.603186516397
 21
-0.0000000000106866
 31
0.0
  0
LINE
  5
5AA4
330
5A37
100
AcDbEntity
  8
0
100
AcDbLine
 10
2411.603186516397
 20
144.9999999999891
 30
0.0
 11
2161.603186516397
 21
144.9999999999891
 31
0.0
  0
LINE
  5
5AA5
330
5A37
100
AcDbEntity
  8
0
100
AcDbLine
 10
2161.603186516397
 20
164.9999999999895
 30
0.0
 11
2411.603186516397
 21
164.9999999999895
 31
0.0
  0
LINE
  5
5AA6
330
5A37
100
AcDbEntity
  8
0
  6
CENTER
100
AcDbLine
 10
2181.603186516397
 20
172.9999999999895
 30
0.0
 11
2181.603186516397
 21
134.9999999999891
 31
0.0
  0
LINE
  5
5AA7
330
5A37
100
AcDbEntity
  8
0
100
AcDbLine
 10
2161.603186516397
 20
144.9999999999891
 30
0.0
 11
2161.603186516397
 21
164.9999999999895
 31
0.0
  0
LINE
  5
5AA8
330
5A37
100
AcDbEntity
  8
0
  6
CENTER
100
AcDbLine
 10
2391.603186516397
 20
172.9999999999895
 30
0.0
 11
2391.603186516397
 21
134.9999999999891
 31
0.0
  0
LINE
  5
5AA9
330
5A37
100
AcDbEntity
  8
0
100
AcDbLine
 10
2411.603186516397
 20
164.9999999999895
 30
0.0
 11
2411.603186516397
 21
144.9999999999891
 31
0.0
  0
LINE
  5
5AAA
330
5A37
100
AcDbEntity
  8
0
100
AcDbLine
 10
2216.703186516396
 20
144.9999999999895
 30
0.0
 11
2216.703186516398
 21
82.59999999999536
 31
0.0
  0
LINE
  5
5AAB
330
5A37
100
AcDbEntity
  8
0
100
AcDbLine
 10
2356.503186516397
 20
144.9999999999895
 30
0.0
 11
2356.503186516397
 21
82.60000000000127
 31
0.0
  0
ARC
  5
5AAC
330
5A37
100
AcDbEntity
  8
0
100
AcDbCircle
 10
2286.603186516396
 20
126.6085219020278
 30
0.0
 40
82.60000000000877
100
AcDbArc
 50
212.1942140887359
 51
327.8057859112752
  0
LINE
  5
5AAD
330
5A37
100
AcDbEntity
  8
0
  6
CENTER
100
AcDbLine
 10
2399.603186516393
 20
855.9132838053947
 30
0.0
 11
2450.603186516395
 21
855.9132838053947
 31
0.0
  0
LINE
  5
5AAE
330
5A37
100
AcDbEntity
  8
0
100
AcDbLine
 10
440.103186516399
 20
675.8132838053943
 30
0.0
 11
1385.603186516399
 21
675.8132838054311
 31
0.0
  0
ARC
  5
5AAF
330
5A37
100
AcDbEntity
  8
0
100
AcDbCircle
 10
2403.103186516393
 20
841.5132838053951
 30
0.0
 40
0.5
100
AcDbArc
 50
270.0
 51
0.0
  0
LINE
  5
5AB0
330
5A37
100
AcDbEntity
  8
0
100
AcDbLine
 10
2403.603186516393
 20
868.4132838053947
 30
0.0
 11
2403.603186516393
 21
802.4132838053933
 31
0.0
  0
LINE
  5
5AB1
330
5A37
100
AcDbEntity
  8
0
100
AcDbLine
 10
2425.603186516394
 20
868.4132838053947
 30
0.0
 11
2425.603186516393
 21
648.4132838053946
 31
0.0
  0
LINE
  5
5AB2
330
5A37
100
AcDbEntity
  8
0
100
AcDbLine
 10
2425.603186516393
 20
868.4132838053947
 30
0.0
 11
2403.603186516393
 21
868.4132838053947
 31
0.0
  0
LINE
  5
5AB3
330
5A37
100
AcDbEntity
  8
0
100
AcDbLine
 10
2446.603186516395
 20
868.4132838053965
 30
0.0
 11
2428.603186516396
 21
868.4132838053947
 31
0.0
  0
LINE
  5
5AB4
330
5A37
100
AcDbEntity
  8
0
100
AcDbLine
 10
2428.603186516396
 20
846.4132838053965
 30
0.0
 11
2425.603186516394
 21
846.4132838053965
 31
0.0
  0
LINE
  5
5AB5
330
5A37
100
AcDbEntity
  8
0
100
AcDbLine
 10
2428.603186516396
 20
868.4132838053947
 30
0.0
 11
2428.603186516396
 21
648.4132838053946
 31
0.0
  0
LINE
  5
5AB6
330
5A37
100
AcDbEntity
  8
0
100
AcDbLine
 10
2446.603186516396
 20
868.4132838053965
 30
0.0
 11
2446.603186516396
 21
648.4132838053946
 31
0.0
  0
LINE
  5
5AB7
330
5A37
100
AcDbEntity
  8
0
100
AcDbLine
 10
2455.603186516396
 20
837.4132838053947
 30
0.0
 11
2451.603186516396
 21
837.4132838053947
 31
0.0
  0
ARC
  5
5AB8
330
5A37
100
AcDbEntity
  8
0
100
AcDbCircle
 10
2451.603186516396
 20
842.4132838053946
 30
0.0
 40
5.0
100
AcDbArc
 50
180.0
 51
270.0
  0
LINE
  5
5AB9
330
5A37
100
AcDbEntity
  8
0
100
AcDbLine
 10
1457.603186516392
 20
675.813283805418
 30
0.0
 11
2192.782932839469
 21
675.8132838054011
 31
0.0
  0
LINE
  5
5ABA
330
5A37
100
AcDbEntity
  8
0
100
AcDbLine
 10
2455.603186516398
 20
679.4132838053947
 30
0.0
 11
2455.603186516396
 21
837.4132838053947
 31
0.0
  0
ARC
  5
5ABB
330
5A37
100
AcDbEntity
  8
0
100
AcDbCircle
 10
2451.603186516395
 20
674.4132838053965
 30
0.0
 40
5.0
100
AcDbArc
 50
90.0
 51
180.0
  0
LINE
  5
5ABC
330
5A37
100
AcDbEntity
  8
0
100
AcDbLine
 10
2455.603186516398
 20
679.4132838053947
 30
0.0
 11
2451.603186516396
 21
679.4132838053947
 31
0.0
  0
ARC
  5
5ABD
330
5A37
100
AcDbEntity
  8
0
100
AcDbCircle
 10
2403.103186516393
 20
675.3132838053962
 30
0.0
 40
0.5
100
AcDbArc
 50
0.0
 51
90.0
  0
LINE
  5
5ABE
330
5A37
100
AcDbEntity
  8
0
  6
CENTER
100
AcDbLine
 10
2450.603186516396
 20
660.9132838053946
 30
0.0
 11
2399.603186516393
 21
660.9132838053965
 31
0.0
  0
LINE
  5
5ABF
330
5A37
100
AcDbEntity
  8
0
100
AcDbLine
 10
2446.603186516395
 20
648.4132838053946
 30
0.0
 11
2428.603186516396
 21
648.4132838053946
 31
0.0
  0
LINE
  5
5AC0
330
5A37
100
AcDbEntity
  8
0
100
AcDbLine
 10
2425.603186516392
 20
648.4132838053946
 30
0.0
 11
2403.603186516392
 21
648.4132838053946
 31
0.0
  0
LINE
  5
5AC1
330
5A37
100
AcDbEntity
  8
0
100
AcDbLine
 10
1389.332339161929
 20
853.4132838054183
 30
0.0
 11
1453.874033870861
 21
853.4132838054183
 31
0.0
  0
LINE
  5
5AC2
330
5A37
100
AcDbEntity
  8
0
100
AcDbLine
 10
1405.853186516395
 20
853.4132838054183
 30
0.0
 11
1405.853186516394
 21
663.4132838054161
 31
0.0
  0
LINE
  5
5AC3
330
5A37
100
AcDbEntity
  8
0
100
AcDbLine
 10
1401.353186516395
 20
853.4132838054183
 30
0.0
 11
1401.353186516393
 21
663.4132838054161
 31
0.0
  0
LINE
  5
5AC4
330
5A37
100
AcDbEntity
  8
0
100
AcDbLine
 10
1396.853186516395
 20
853.4132838054183
 30
0.0
 11
1396.853186516394
 21
663.4132838054161
 31
0.0
  0
LINE
  5
5AC5
330
5A37
100
AcDbEntity
  8
0
100
AcDbLine
 10
1392.353186516395
 20
853.4132838054166
 30
0.0
 11
1392.353186516394
 21
663.4132838054165
 31
0.0
  0
LINE
  5
5AC6
330
5A37
100
AcDbEntity
  8
0
100
AcDbLine
 10
1385.603186516397
 20
846.9542019541776
 30
0.0
 11
1385.603186516395
 21
669.8723656566571
 31
0.0
  0
LINE
  5
5AC7
330
5A37
100
AcDbEntity
  8
0
100
AcDbLine
 10
1385.603186516397
 20
846.9542019541776
 30
0.0
 11
1389.332339161929
 21
853.4132838054183
 31
0.0
  0
LINE
  5
5AC8
330
5A37
100
AcDbEntity
  8
0
100
AcDbLine
 10
1423.853186516395
 20
853.4132838054183
 30
0.0
 11
1423.853186516394
 21
663.4132838054161
 31
0.0
  0
LINE
  5
5AC9
330
5A37
100
AcDbEntity
  8
0
100
AcDbLine
 10
1419.353186516395
 20
853.4132838054183
 30
0.0
 11
1419.353186516393
 21
663.4132838054161
 31
0.0
  0
LINE
  5
5ACA
330
5A37
100
AcDbEntity
  8
0
100
AcDbLine
 10
1428.353186516395
 20
853.4132838054183
 30
0.0
 11
1428.353186516394
 21
663.4132838054161
 31
0.0
  0
LINE
  5
5ACB
330
5A37
100
AcDbEntity
  8
0
100
AcDbLine
 10
1432.853186516395
 20
853.4132838054183
 30
0.0
 11
1432.853186516394
 21
663.4132838054161
 31
0.0
  0
LINE
  5
5ACC
330
5A37
100
AcDbEntity
  8
0
100
AcDbLine
 10
1437.353186516394
 20
853.4132838054183
 30
0.0
 11
1437.353186516394
 21
663.4132838054161
 31
0.0
  0
LINE
  5
5ACD
330
5A37
100
AcDbEntity
  8
0
100
AcDbLine
 10
1441.853186516395
 20
853.4132838054183
 30
0.0
 11
1441.853186516394
 21
663.4132838054161
 31
0.0
  0
LINE
  5
5ACE
330
5A37
100
AcDbEntity
  8
0
100
AcDbLine
 10
1414.853186516395
 20
853.4132838054183
 30
0.0
 11
1414.853186516394
 21
663.4132838054161
 31
0.0
  0
LINE
  5
5ACF
330
5A37
100
AcDbEntity
  8
0
100
AcDbLine
 10
1410.353186516395
 20
853.4132838054183
 30
0.0
 11
1410.353186516394
 21
663.4132838054161
 31
0.0
  0
LINE
  5
5AD0
330
5A37
100
AcDbEntity
  8
0
100
AcDbLine
 10
1450.853186516395
 20
853.4132838054166
 30
0.0
 11
1450.853186516394
 21
663.4132838054165
 31
0.0
  0
LINE
  5
5AD1
330
5A37
100
AcDbEntity
  8
0
100
AcDbLine
 10
1457.603186516394
 20
846.9542019541776
 30
0.0
 11
1457.603186516392
 21
669.8723656566571
 31
0.0
  0
LINE
  5
5AD2
330
5A37
100
AcDbEntity
  8
0
100
AcDbLine
 10
1457.603186516394
 20
846.9542019541776
 30
0.0
 11
1453.874033870861
 21
853.4132838054183
 31
0.0
  0
LINE
  5
5AD3
330
5A37
100
AcDbEntity
  8
0
100
AcDbLine
 10
1446.353186516394
 20
853.4132838054183
 30
0.0
 11
1446.353186516394
 21
663.4132838054161
 31
0.0
  0
LINE
  5
5AD4
330
5A37
100
AcDbEntity
  8
0
100
AcDbLine
 10
1385.603186516395
 20
669.8723656566571
 30
0.0
 11
1389.332339161928
 21
663.4132838054165
 31
0.0
  0
LINE
  5
5AD5
330
5A37
100
AcDbEntity
  8
0
100
AcDbLine
 10
1389.332339161928
 20
663.4132838054165
 30
0.0
 11
1453.87403387086
 21
663.4132838054165
 31
0.0
  0
LINE
  5
5AD6
330
5A37
100
AcDbEntity
  8
0
100
AcDbLine
 10
1457.603186516392
 20
669.8723656566571
 30
0.0
 11
1453.87403387086
 21
663.4132838054165
 31
0.0
  0
LINE
  5
5AD7
330
5A37
100
AcDbEntity
  8
0
100
AcDbLine
 10
1389.33233916193
 20
663.4132838054165
 30
0.0
 11
1389.332339161928
 21
853.4132838054166
 31
0.0
  0
LINE
  5
5AD8
330
5A37
100
AcDbEntity
  8
0
100
AcDbLine
 10
1453.874033870861
 20
663.4132838054165
 30
0.0
 11
1453.874033870861
 21
853.4132838054183
 31
0.0
  0
LINE
  5
5AD9
330
5A37
100
AcDbEntity
  8
0
100
AcDbLine
 10
2428.603186516396
 20
670.4132838053947
 30
0.0
 11
2425.603186516394
 21
670.4132838053965
 31
0.0
  0
LINE
  5
5ADA
330
5A37
100
AcDbEntity
  8
0
  6
CENTER
100
AcDbLine
 10
443.6031865164009
 20
855.9132838054102
 30
0.0
 11
392.6031865163991
 21
855.9132838054111
 31
0.0
  0
LINE
  5
5ADB
330
5A37
100
AcDbEntity
  8
0
100
AcDbLine
 10
440.1031865164009
 20
841.0132838054105
 30
0.0
 11
1385.6031865164
 21
841.0132838053533
 31
0.0
  0
ARC
  5
5ADC
330
5A37
100
AcDbEntity
  8
0
100
AcDbCircle
 10
440.1031865164009
 20
841.5132838054105
 30
0.0
 40
0.5
100
AcDbArc
 50
180.0
 51
270.0
  0
LINE
  5
5ADD
330
5A37
100
AcDbEntity
  8
0
100
AcDbLine
 10
439.6031865164009
 20
868.4132838054102
 30
0.0
 11
439.603186516399
 21
648.4132838054101
 31
0.0
  0
LINE
  5
5ADE
330
5A37
100
AcDbEntity
  8
0
100
AcDbLine
 10
417.6031865164008
 20
868.4132838054102
 30
0.0
 11
417.6031865163972
 21
648.4132838054101
 31
0.0
  0
LINE
  5
5ADF
330
5A37
100
AcDbEntity
  8
0
100
AcDbLine
 10
417.6031865164008
 20
868.4132838054102
 30
0.0
 11
439.6031865164009
 21
868.4132838054102
 31
0.0
  0
LINE
  5
5AE0
330
5A37
100
AcDbEntity
  8
0
100
AcDbLine
 10
396.6031865163991
 20
868.4132838054123
 30
0.0
 11
414.603186516399
 21
868.4132838054102
 31
0.0
  0
LINE
  5
5AE1
330
5A37
100
AcDbEntity
  8
0
100
AcDbLine
 10
414.6031865163973
 20
846.4132838054119
 30
0.0
 11
417.6031865164008
 21
846.4132838054119
 31
0.0
  0
LINE
  5
5AE2
330
5A37
100
AcDbEntity
  8
0
100
AcDbLine
 10
414.603186516399
 20
868.4132838054102
 30
0.0
 11
414.6031865163954
 21
648.4132838054101
 31
0.0
  0
LINE
  5
5AE3
330
5A37
100
AcDbEntity
  8
0
100
AcDbLine
 10
396.6031865163991
 20
868.4132838054123
 30
0.0
 11
396.6031865163955
 21
648.4132838054106
 31
0.0
  0
LINE
  5
5AE4
330
5A37
100
AcDbEntity
  8
0
100
AcDbLine
 10
387.6031865163973
 20
837.413283805411
 30
0.0
 11
391.6031865163973
 21
837.413283805411
 31
0.0
  0
ARC
  5
5AE5
330
5A37
100
AcDbEntity
  8
0
100
AcDbCircle
 10
391.6031865163973
 20
842.4132838054111
 30
0.0
 40
5.0
100
AcDbArc
 50
270.0
 51
0.0
  0
LINE
  5
5AE6
330
5A37
100
AcDbEntity
  8
0
  6
CENTER
100
AcDbLine
 10
2480.751929237452
 20
758.4132838054174
 30
0.0
 11
362.4544437953423
 21
758.4132838054106
 31
0.0
  0
LINE
  5
5AE7
330
5A37
100
AcDbEntity
  8
0
100
AcDbLine
 10
387.6031865163936
 20
679.413283805411
 30
0.0
 11
387.6031865163973
 21
837.413283805411
 31
0.0
  0
ARC
  5
5AE8
330
5A37
100
AcDbEntity
  8
0
100
AcDbCircle
 10
391.6031865163954
 20
674.4132838054128
 30
0.0
 40
5.0
100
AcDbArc
 50
0.0
 51
90.0
  0
LINE
  5
5AE9
330
5A37
100
AcDbEntity
  8
0
100
AcDbLine
 10
387.6031865163936
 20
679.413283805411
 30
0.0
 11
391.6031865163954
 21
679.413283805411
 31
0.0
  0
ARC
  5
5AEA
330
5A37
100
AcDbEntity
  8
0
100
AcDbCircle
 10
440.103186516399
 20
675.3132838054116
 30
0.0
 40
0.5
100
AcDbArc
 50
90.0
 51
180.0
  0
LINE
  5
5AEB
330
5A37
100
AcDbEntity
  8
0
  6
CENTER
100
AcDbLine
 10
392.6031865163955
 20
660.9132838054111
 30
0.0
 11
443.6031865163982
 21
660.913283805412
 31
0.0
  0
LINE
  5
5AEC
330
5A37
100
AcDbEntity
  8
0
100
AcDbLine
 10
396.6031865163955
 20
648.4132838054106
 30
0.0
 11
414.6031865163954
 21
648.4132838054101
 31
0.0
  0
LINE
  5
5AED
330
5A37
100
AcDbEntity
  8
0
100
AcDbLine
 10
417.6031865163991
 20
648.4132838054101
 30
0.0
 11
439.603186516399
 21
648.4132838054101
 31
0.0
  0
LINE
  5
5AEE
330
5A37
100
AcDbEntity
  8
0
100
AcDbLine
 10
414.6031865163954
 20
670.4132838054102
 30
0.0
 11
417.6031865163972
 21
670.4132838054119
 31
0.0
  0
LINE
  5
5AEF
330
5A37
100
AcDbEntity
  8
0
100
AcDbLine
 10
371.1283679545263
 20
720.5162821341651
 30
0.0
 11
371.1283679545263
 21
796.3102854766552
 31
0.0
  0
LINE
  5
5AF0
330
5A37
100
AcDbEntity
  8
0
100
AcDbLine
 10
365.6031865163964
 20
712.9132838054106
 30
0.0
 11
365.6031865163964
 21
803.9132838054106
 31
0.0
  0
LINE
  5
5AF1
330
5A37
100
AcDbEntity
  8
0
100
AcDbLine
 10
368.4531865163967
 20
713.7869690346238
 30
0.0
 11
368.4531865163967
 21
803.0395985761966
 31
0.0
  0
LINE
  5
5AF2
330
5A37
100
AcDbEntity
  8
0
100
AcDbLine
 10
372.5287828146734
 20
796.5632838054102
 30
0.0
 11
387.6031865163964
 21
796.5632838054102
 31
0.0
  0
ARC
  5
5AF3
330
5A37
100
AcDbEntity
  8
0
100
AcDbCircle
 10
372.5287828146734
 20
798.5632838054102
 30
0.0
 40
2.0
100
AcDbArc
 50
200.0000000000137
 51
270.0
1001
GENIUS_GENODEF_13
1002
{
1000
HIER
1070
     0
1002
}
1002
{
1000
MANEDIT
1070
     0
1002
}
1002
{
1000
NOSEL
1070
     0
1002
}
1002
{
1000
BEHIND
1070
     0
1002
}
1002
{
1000
OTHER
1070
     0
1002
}
1002
{
1000
REACTOR
1002
}
1001
GENIUS_GENOBJ-N-FIL_13
1002
{
1000
OWNER
1000
GEN
1002
}
  0
LINE
  5
5AF4
330
5A37
100
AcDbEntity
  8
0
100
AcDbLine
 10
367.8930204858293
 20
803.9132838054106
 30
0.0
 11
365.6031865163964
 21
803.9132838054106
 31
0.0
  0
LINE
  5
5AF5
330
5A37
100
AcDbEntity
  8
0
100
AcDbLine
 10
368.6447745824585
 20
803.3868999200707
 30
0.0
 11
370.6493975731005
 21
797.8792435187592
 31
0.0
  0
ARC
  5
5AF6
330
5A37
100
AcDbEntity
  8
0
100
AcDbCircle
 10
367.8930204858293
 20
803.1132838054103
 30
0.0
 40
0.8
100
AcDbArc
 50
20.00000000001373
 51
90.0
1001
GENIUS_GENOBJ-N-FIL_13
1002
{
1000
OWNER
1000
GEN
1002
}
1001
GENIUS_GENODEF_13
1002
{
1000
HIER
1070
     0
1002
}
1002
{
1000
MANEDIT
1070
     0
1002
}
1002
{
1000
NOSEL
1070
     0
1002
}
1002
{
1000
BEHIND
1070
     0
1002
}
1002
{
1000
OTHER
1070
     0
1002
}
1002
{
1000
REACTOR
1002
}
  0
LINE
  5
5AF7
330
5A37
100
AcDbEntity
  8
0
100
AcDbLine
 10
372.5287828146734
 20
720.2632838054101
 30
0.0
 11
387.6031865163973
 21
720.2632838054101
 31
0.0
  0
ARC
  5
5AF8
330
5A37
100
AcDbEntity
  8
0
100
AcDbCircle
 10
372.5287828146734
 20
718.26328380541
 30
0.0
 40
2.0
100
AcDbArc
 50
90.0
 51
159.9999999999863
1001
GENIUS_GENODEF_13
1002
{
1000
HIER
1070
     0
1002
}
1002
{
1000
MANEDIT
1070
     0
1002
}
1002
{
1000
NOSEL
1070
     0
1002
}
1002
{
1000
BEHIND
1070
     0
1002
}
1002
{
1000
OTHER
1070
     0
1002
}
1002
{
1000
REACTOR
1002
}
1001
GENIUS_GENOBJ-N-FIL_13
1002
{
1000
OWNER
1000
GEN
1002
}
  0
LINE
  5
5AF9
330
5A37
100
AcDbEntity
  8
0
100
AcDbLine
 10
367.8930204858293
 20
712.9132838054106
 30
0.0
 11
365.6031865163964
 21
712.9132838054106
 31
0.0
  0
LINE
  5
5AFA
330
5A37
100
AcDbEntity
  8
0
100
AcDbLine
 10
368.6447745824566
 20
713.4396676907495
 30
0.0
 11
370.6493975731005
 21
718.9473240920619
 31
0.0
  0
ARC
  5
5AFB
330
5A37
100
AcDbEntity
  8
0
100
AcDbCircle
 10
367.8930204858293
 20
713.7132838054099
 30
0.0
 40
0.8
100
AcDbArc
 50
270.0
 51
339.9999999999651
1001
GENIUS_GENOBJ-N-FIL_13
1002
{
1000
OWNER
1000
GEN
1002
}
1001
GENIUS_GENODEF_13
1002
{
1000
HIER
1070
     0
1002
}
1002
{
1000
MANEDIT
1070
     0
1002
}
1002
{
1000
NOSEL
1070
     0
1002
}
1002
{
1000
BEHIND
1070
     0
1002
}
1002
{
1000
OTHER
1070
     0
1002
}
1002
{
1000
REACTOR
1002
}
  0
LINE
  5
5AFC
330
5A37
100
AcDbEntity
  8
0
100
AcDbLine
 10
2472.078005078268
 20
796.3102854766621
 30
0.0
 11
2472.078005078268
 21
720.5162821341728
 31
0.0
  0
LINE
  5
5AFD
330
5A37
100
AcDbEntity
  8
0
100
AcDbLine
 10
2477.603186516397
 20
803.9132838054174
 30
0.0
 11
2477.603186516397
 21
712.9132838054174
 31
0.0
  0
LINE
  5
5AFE
330
5A37
100
AcDbEntity
  8
0
100
AcDbLine
 10
2474.753186516397
 20
803.0395985762034
 30
0.0
 11
2474.753186516397
 21
713.7869690346315
 31
0.0
  0
LINE
  5
5AFF
330
5A37
100
AcDbEntity
  8
0
100
AcDbLine
 10
2470.67759021812
 20
720.2632838054169
 30
0.0
 11
2455.603186516397
 21
720.2632838054169
 31
0.0
  0
ARC
  5
5B00
330
5A37
100
AcDbEntity
  8
0
100
AcDbCircle
 10
2470.67759021812
 20
718.2632838054169
 30
0.0
 40
2.0
100
AcDbArc
 50
20.00000000000148
 51
90.0
1001
GENIUS_GENODEF_13
1002
{
1000
HIER
1070
     0
1002
}
1002
{
1000
MANEDIT
1070
     0
1002
}
1002
{
1000
NOSEL
1070
     0
1002
}
1002
{
1000
BEHIND
1070
     0
1002
}
1002
{
1000
OTHER
1070
     0
1002
}
1002
{
1000
REACTOR
1002
}
1001
GENIUS_GENOBJ-N-FIL_13
1002
{
1000
OWNER
1000
GEN
1002
}
  0
LINE
  5
5B01
330
5A37
100
AcDbEntity
  8
0
100
AcDbLine
 10
2475.313352546964
 20
712.9132838054174
 30
0.0
 11
2477.603186516397
 21
712.9132838054174
 31
0.0
  0
LINE
  5
5B02
330
5A37
100
AcDbEntity
  8
0
100
AcDbLine
 10
2474.561598450335
 20
713.4396676907572
 30
0.0
 11
2472.556975459693
 21
718.9473240920688
 31
0.0
  0
ARC
  5
5B03
330
5A37
100
AcDbEntity
  8
0
100
AcDbCircle
 10
2475.313352546964
 20
713.7132838054176
 30
0.0
 40
0.8
100
AcDbArc
 50
200.0000000000015
 51
270.0
1001
GENIUS_GENOBJ-N-FIL_13
1002
{
1000
OWNER
1000
GEN
1002
}
1001
GENIUS_GENODEF_13
1002
{
1000
HIER
1070
     0
1002
}
1002
{
1000
MANEDIT
1070
     0
1002
}
1002
{
1000
NOSEL
1070
     0
1002
}
1002
{
1000
BEHIND
1070
     0
1002
}
1002
{
1000
OTHER
1070
     0
1002
}
1002
{
1000
REACTOR
1002
}
  0
LINE
  5
5B04
330
5A37
100
AcDbEntity
  8
0
100
AcDbLine
 10
2470.67759021812
 20
796.5632838054171
 30
0.0
 11
2455.603186516396
 21
796.5632838054171
 31
0.0
  0
ARC
  5
5B05
330
5A37
100
AcDbEntity
  8
0
100
AcDbCircle
 10
2470.67759021812
 20
798.563283805417
 30
0.0
 40
2.0
100
AcDbArc
 50
270.0
 51
339.9999999999985
1001
GENIUS_GENODEF_13
1002
{
1000
HIER
1070
     0
1002
}
1002
{
1000
MANEDIT
1070
     0
1002
}
1002
{
1000
NOSEL
1070
     0
1002
}
1002
{
1000
BEHIND
1070
     0
1002
}
1002
{
1000
OTHER
1070
     0
1002
}
1002
{
1000
REACTOR
1002
}
1001
GENIUS_GENOBJ-N-FIL_13
1002
{
1000
OWNER
1000
GEN
1002
}
  0
LINE
  5
5B06
330
5A37
100
AcDbEntity
  8
0
100
AcDbLine
 10
2475.313352546964
 20
803.9132838054174
 30
0.0
 11
2477.603186516397
 21
803.9132838054174
 31
0.0
  0
LINE
  5
5B07
330
5A37
100
AcDbEntity
  8
0
100
AcDbLine
 10
2474.561598450337
 20
803.3868999200777
 30
0.0
 11
2472.556975459693
 21
797.8792435187661
 31
0.0
  0
ARC
  5
5B08
330
5A37
100
AcDbEntity
  8
0
100
AcDbCircle
 10
2475.313352546964
 20
803.1132838054173
 30
0.0
 40
0.8
100
AcDbArc
 50
90.0
 51
159.9999999999985
1001
GENIUS_GENOBJ-N-FIL_13
1002
{
1000
OWNER
1000
GEN
1002
}
1001
GENIUS_GENODEF_13
1002
{
1000
HIER
1070
     0
1002
}
1002
{
1000
MANEDIT
1070
     0
1002
}
1002
{
1000
NOSEL
1070
     0
1002
}
1002
{
1000
BEHIND
1070
     0
1002
}
1002
{
1000
OTHER
1070
     0
1002
}
1002
{
1000
REACTOR
1002
}
  0
LINE
  5
5B09
330
5A37
100
AcDbEntity
  8
0
100
AcDbLine
 10
2403.103186516393
 20
841.013283805395
 30
0.0
 11
2380.423440193297
 21
841.0132838053947
 31
0.0
  0
LINE
  5
5B0A
330
5A37
100
AcDbEntity
  8
0
100
AcDbLine
 10
2192.782932839491
 20
841.0132838053865
 30
0.0
 11
1457.603186516393
 21
841.0132838053533
 31
0.0
  0
LINE
  5
5B0B
330
5A37
100
AcDbEntity
  8
0
  6
CENTER
100
AcDbLine
 10
2286.603186516397
 20
920.4750418849576
 30
0.0
 11
2286.603186516397
 21
596.351525725805
 31
0.0
  0
LINE
  5
5B0C
330
5A37
100
AcDbEntity
  8
0
  6
CENTER
100
AcDbLine
 10
2318.557253118882
 20
681.2693428406882
 30
0.0
 11
2335.01264071058
 21
641.5425229427028
 31
0.0
  0
LINE
  5
5B0D
330
5A37
100
AcDbEntity
  8
0
  6
CENTER
100
AcDbLine
 10
2318.557253118882
 20
835.5572247700738
 30
0.0
 11
2335.01264071058
 21
875.2840446680593
 31
0.0
  0
LINE
  5
5B0E
330
5A37
100
AcDbEntity
  8
0
  6
CENTER
100
AcDbLine
 10
2209.459245551705
 20
790.367350407866
 30
0.0
 11
2169.732425653718
 21
806.8227379995651
 31
0.0
  0
LINE
  5
5B0F
330
5A37
100
AcDbEntity
  8
0
  6
CENTER
100
AcDbLine
 10
2254.649119913912
 20
835.5572247700738
 30
0.0
 11
2238.193732322212
 21
875.2840446680593
 31
0.0
  0
LINE
  5
5B10
330
5A37
100
AcDbEntity
  8
0
  6
CENTER
100
AcDbLine
 10
2209.459245551705
 20
726.4592172028961
 30
0.0
 11
2169.732425653718
 21
710.003829611197
 31
0.0
  0
LINE
  5
5B11
330
5A37
100
AcDbEntity
  8
0
  6
CENTER
100
AcDbLine
 10
2254.649119913912
 20
681.2693428406882
 30
0.0
 11
2238.193732322212
 21
641.5425229427028
 31
0.0
  0
LINE
  5
5B12
330
5A37
100
AcDbEntity
  8
0
  6
CENTER
100
AcDbLine
 10
2363.747127481089
 20
790.367350407866
 30
0.0
 11
2403.473947379075
 21
806.8227379995651
 31
0.0
  0
LINE
  5
5B13
330
5A37
100
AcDbEntity
  8
0
  6
CENTER
100
AcDbLine
 10
2363.747127481089
 20
726.4592172028961
 30
0.0
 11
2403.473947379075
 21
710.003829611197
 31
0.0
  0
LINE
  5
5B14
330
5A37
100
AcDbEntity
  8
0
  6
CENTER
100
AcDbLine
 10
588.5572531188795
 20
681.2693428406882
 30
0.0
 11
605.0126407105786
 21
641.5425229427028
 31
0.0
  0
LINE
  5
5B15
330
5A37
100
AcDbEntity
  8
0
  6
CENTER
100
AcDbLine
 10
588.5572531188795
 20
835.5572247700738
 30
0.0
 11
605.0126407105786
 21
875.2840446680593
 31
0.0
  0
LINE
  5
5B16
330
5A37
100
AcDbEntity
  8
0
  6
CENTER
100
AcDbLine
 10
524.6491199139095
 20
835.5572247700738
 30
0.0
 11
508.1937323222105
 21
875.2840446680593
 31
0.0
  0
LINE
  5
5B17
330
5A37
100
AcDbEntity
  8
0
  6
CENTER
100
AcDbLine
 10
524.6491199139095
 20
681.2693428406882
 30
0.0
 11
508.1937323222105
 21
641.5425229427028
 31
0.0
  0
ARC
  5
5B18
330
5A37
100
AcDbEntity
  8
0
  6
CENTER
100
AcDbCircle
 10
556.6031865163954
 20
758.413283805381
 30
0.0
 40
105.0
100
AcDbArc
 50
51.87508837798094
 51
128.124911622019
  0
ARC
  5
5B19
330
5A37
100
AcDbEntity
  8
0
100
AcDbCircle
 10
556.6031865163954
 20
758.413283805381
 30
0.0
 40
125.0
100
AcDbArc
 50
41.3609139104375
 51
138.6390860895527
  0
LINE
  5
5B1A
330
5A37
100
AcDbEntity
  8
0
100
AcDbLine
 10
2380.423440193323
 20
675.813283805397
 30
0.0
 11
2403.103186516393
 21
675.8132838053962
 31
0.0
  0
LINE
  5
5B1B
330
5A37
100
AcDbEntity
  8
0
100
AcDbLine
 10
2403.603186516392
 20
714.4132838053678
 30
0.0
 11
2403.603186516392
 21
648.4132838053946
 31
0.0
  0
LINE
  5
5B1C
330
5A37
100
AcDbEntity
  8
0
  6
CENTER
100
AcDbLine
 10
556.6031865163954
 20
920.4750418849211
 30
0.0
 11
556.6031865163954
 21
596.3515257257686
 31
0.0
  0
ARC
  5
5B1D
330
5A37
100
AcDbEntity
  8
0
  6
CENTER
100
AcDbCircle
 10
556.6031865163954
 20
758.413283805381
 30
0.0
 40
105.0
100
AcDbArc
 50
231.8750883779524
 51
308.1249116220476
  0
ARC
  5
5B1E
330
5A37
100
AcDbEntity
  8
0
100
AcDbCircle
 10
556.6031865163954
 20
758.413283805381
 30
0.0
 40
125.0
100
AcDbArc
 50
221.3609139104105
 51
318.6390860895894
  0
TEXT
  5
5B1F
330
5A37
100
AcDbEntity
  8
0
100
AcDbText
 10
990.6508055640205
 20
941.5632838053479
 30
0.0
 40
50.0
  1
150AX2000L-125AX3S
 72
     4
 11
1421.603186516402
 21
966.5632838053479
 31
0.0
100
AcDbText
  0
CIRCLE
  5
5B20
330
5A37
100
AcDbEntity
  8
0
100
AcDbCircle
 10
2326.784946914732
 20
661.4059328916964
 30
0.0
 40
11.5
  0
CIRCLE
  5
5B21
330
5A37
100
AcDbEntity
  8
0
100
AcDbCircle
 10
2326.784946914732
 20
855.4206347190657
 30
0.0
 40
11.5
  0
CIRCLE
  5
5B22
330
5A37
100
AcDbEntity
  8
0
  6
CENTER
100
AcDbCircle
 10
2286.603186516397
 20
758.413283805381
 30
0.0
 40
105.0
  0
CIRCLE
  5
5B23
330
5A37
100
AcDbEntity
  8
0
100
AcDbCircle
 10
2286.603186516397
 20
758.413283805381
 30
0.0
 40
125.0
  0
CIRCLE
  5
5B24
330
5A37
100
AcDbEntity
  8
0
100
AcDbCircle
 10
2189.595835602712
 20
798.5950442037156
 30
0.0
 40
11.5
  0
CIRCLE
  5
5B25
330
5A37
100
AcDbEntity
  8
0
100
AcDbCircle
 10
2246.421426118063
 20
855.4206347190657
 30
0.0
 40
11.5
  0
CIRCLE
  5
5B26
330
5A37
100
AcDbEntity
  8
0
100
AcDbCircle
 10
2189.595835602712
 20
718.2315234070465
 30
0.0
 40
11.5
  0
CIRCLE
  5
5B27
330
5A37
100
AcDbEntity
  8
0
100
AcDbCircle
 10
2246.421426118063
 20
661.4059328916964
 30
0.0
 40
11.5
  0
CIRCLE
  5
5B28
330
5A37
100
AcDbEntity
  8
0
100
AcDbCircle
 10
2383.610537430083
 20
798.5950442037156
 30
0.0
 40
11.5
  0
CIRCLE
  5
5B29
330
5A37
100
AcDbEntity
  8
0
100
AcDbCircle
 10
2383.610537430083
 20
718.2315234070465
 30
0.0
 40
11.5
  0
CIRCLE
  5
5B2A
330
5A37
100
AcDbEntity
  8
0
100
AcDbCircle
 10
596.7849469147299
 20
661.4059328916964
 30
0.0
 40
11.5
  0
CIRCLE
  5
5B2B
330
5A37
100
AcDbEntity
  8
0
100
AcDbCircle
 10
596.7849469147299
 20
855.4206347190657
 30
0.0
 40
11.5
  0
CIRCLE
  5
5B2C
330
5A37
100
AcDbEntity
  8
0
100
AcDbCircle
 10
516.4214261180609
 20
855.4206347190657
 30
0.0
 40
11.5
  0
CIRCLE
  5
5B2D
330
5A37
100
AcDbEntity
  8
0
100
AcDbCircle
 10
516.4214261180609
 20
661.4059328916964
 30
0.0
 40
11.5
  0
CIRCLE
  5
5B2E
330
5A37
100
AcDbEntity
  8
0
100
AcDbCircle
 10
2286.603186516397
 20
758.413283805381
 30
0.0
 40
69.90000000000145
  0
LINE
  5
5B2F
330
5A37
100
AcDbEntity
  8
0
  6
CENTER
100
AcDbLine
 10
-26.72997001343856
 20
-82.26638865955193
 30
0.0
 11
-33.52834388968631
 21
-103.1896320180467
 31
0.0
  0
LINE
  5
5B30
330
5A37
100
AcDbEntity
  8
0
  6
CENTER
100
AcDbLine
 10
26.72997001343992
 20
-82.26638865955056
 30
0.0
 11
33.52834388968995
 21
-103.1896320180453
 31
0.0
  0
LINE
  5
5B31
330
5A37
100
AcDbEntity
  8
0
  6
CENTER
100
AcDbLine
 10
26.72997001343856
 20
82.26638865954965
 30
0.0
 11
33.52834388968631
 21
103.1896320180426
 31
0.0
  0
LINE
  5
5B32
330
5A37
100
AcDbEntity
  8
0
  6
CENTER
100
AcDbLine
 10
-26.72997001343947
 20
82.26638865954829
 30
0.0
 11
-33.5283438896895
 21
103.1896320180412
 31
0.0
  0
LINE
  5
5B33
330
5A37
100
AcDbEntity
  8
0
  6
CENTER
100
AcDbLine
 10
-69.97997001344993
 20
50.84342432330913
 30
0.0
 11
-87.77834388969996
 21
63.77469987374183
 31
0.0
  0
LINE
  5
5B34
330
5A37
100
AcDbEntity
  8
0
  6
CENTER
100
AcDbLine
 10
69.97997001344856
 20
50.84342432330959
 30
0.0
 11
87.77834388969722
 21
63.77469987374547
 31
0.0
  0
LINE
  5
5B35
330
5A37
100
AcDbEntity
  8
0
  6
CENTER
100
AcDbLine
 10
-69.97997001344902
 20
-50.84342432331368
 30
0.0
 11
-87.77834388969768
 21
-63.77469987374775
 31
0.0
  0
LINE
  5
5B36
330
5A37
100
AcDbEntity
  8
0
  6
CENTER
100
AcDbLine
 10
69.97997001344993
 20
-50.84342432331141
 30
0.0
 11
87.77834388969996
 21
-63.77469987374593
 31
0.0
  0
LINE
  5
5B37
330
5A37
100
AcDbEntity
  8
0
  6
CENTER
100
AcDbLine
 10
-128.1457031754817
 20
0.0000000000011369
 30
0.0
 11
128.1457031754817
 21
-0.0000000000011369
 31
0.0
  0
LINE
  5
5B38
330
5A37
100
AcDbEntity
  8
0
  6
CENTER
100
AcDbLine
 10
-0.000000000001819
 20
-173.0
 30
0.0
 11
0.000000000001819
 21
173.0
 31
0.0
  0
ARC
  5
5B39
330
5A37
100
AcDbEntity
  8
0
100
AcDbCircle
 10
0.0
 20
-0.0000000000002274
 30
0.0
 40
79.00000000001615
100
AcDbArc
 50
288.2738895665734
 51
251.726110433373
  0
LINE
  5
5B3A
330
5A37
100
AcDbEntity
  8
0
  6
CENTER
100
AcDbLine
 10
53.92571967168942
 20
-36.85000000000036
 30
0.0
 11
-53.92571967169397
 21
-36.84999999999945
 31
0.0
  0
LINE
  5
5B3B
330
5A37
100
AcDbEntity
  8
0
100
AcDbLine
 10
124.9999999999982
 20
-145.0000000000013
 30
0.0
 11
-125.0000000000018
 21
-144.9999999999986
 31
0.0
  0
LINE
  5
5B3C
330
5A37
100
AcDbEntity
  8
0
100
AcDbLine
 10
-125.0000000000018
 20
-164.9999999999986
 30
0.0
 11
124.9999999999982
 21
-165.0000000000013
 31
0.0
  0
LINE
  5
5B3D
330
5A37
100
AcDbEntity
  8
0
  6
CENTER
100
AcDbLine
 10
-105.0000000000018
 20
-172.9999999999991
 30
0.0
 11
-105.0000000000013
 21
-134.9999999999991
 31
0.0
  0
LINE
  5
5B3E
330
5A37
100
AcDbEntity
  8
0
100
AcDbLine
 10
-125.0000000000018
 20
-144.9999999999986
 30
0.0
 11
-125.0000000000018
 21
-164.9999999999986
 31
0.0
  0
LINE
  5
5B3F
330
5A37
100
AcDbEntity
  8
0
  6
CENTER
100
AcDbLine
 10
104.9999999999982
 20
-173.0000000000009
 30
0.0
 11
104.9999999999986
 21
-135.0000000000009
 31
0.0
  0
LINE
  5
5B40
330
5A37
100
AcDbEntity
  8
0
100
AcDbLine
 10
124.9999999999982
 20
-165.0000000000013
 30
0.0
 11
124.9999999999982
 21
-145.0000000000013
 31
0.0
  0
LINE
  5
5B41
330
5A37
100
AcDbEntity
  8
0
100
AcDbLine
 10
-69.90000000000327
 20
-144.9999999999995
 30
0.0
 11
-69.90000000000055
 21
-84.93521060198464
 31
0.0
  0
LINE
  5
5B42
330
5A37
100
AcDbEntity
  8
0
100
AcDbLine
 10
69.89999999999781
 20
-145.0000000000004
 30
0.0
 11
69.89999999999918
 21
-84.93521060198577
 31
0.0
  0
LINE
  5
5B43
330
5A37
100
AcDbEntity
  8
0
100
AcDbLine
 10
125.0000000000013
 20
144.9999999999991
 30
0.0
 11
-124.9999999999986
 21
145.0000000000009
 31
0.0
  0
LINE
  5
5B44
330
5A37
100
AcDbEntity
  8
0
100
AcDbLine
 10
-124.9999999999982
 20
165.0000000000009
 30
0.0
 11
125.0000000000018
 21
164.9999999999991
 31
0.0
  0
LINE
  5
5B45
330
5A37
100
AcDbEntity
  8
0
  6
CENTER
100
AcDbLine
 10
-104.9999999999982
 20
173.0000000000009
 30
0.0
 11
-104.9999999999986
 21
135.0000000000009
 31
0.0
  0
LINE
  5
5B46
330
5A37
100
AcDbEntity
  8
0
100
AcDbLine
 10
-124.9999999999986
 20
145.0000000000009
 30
0.0
 11
-124.9999999999982
 21
165.0000000000009
 31
0.0
  0
LINE
  5
5B47
330
5A37
100
AcDbEntity
  8
0
  6
CENTER
100
AcDbLine
 10
105.0000000000018
 20
172.9999999999991
 30
0.0
 11
105.0000000000013
 21
134.9999999999991
 31
0.0
  0
LINE
  5
5B48
330
5A37
100
AcDbEntity
  8
0
100
AcDbLine
 10
125.0000000000018
 20
164.9999999999991
 30
0.0
 11
125.0000000000013
 21
144.9999999999991
 31
0.0
  0
LINE
  5
5B49
330
5A37
100
AcDbEntity
  8
0
100
AcDbLine
 10
-69.90000000000009
 20
145.0000000000009
 30
0.0
 11
-69.89999999999873
 21
84.93521060198601
 31
0.0
  0
LINE
  5
5B4A
330
5A37
100
AcDbEntity
  8
0
100
AcDbLine
 10
69.900000000001
 20
144.9999999999991
 30
0.0
 11
69.900000000001
 21
84.93521060198441
 31
0.0
  0
CIRCLE
  5
5B4B
330
5A37
100
AcDbEntity
  8
0
100
AcDbCircle
 10
-30.12915695156244
 20
-92.72801033879932
 30
0.0
 40
7.0
  0
CIRCLE
  5
5B4C
330
5A37
100
AcDbEntity
  8
0
100
AcDbCircle
 10
30.12915695156517
 20
-92.72801033879796
 30
0.0
 40
7.0
  0
CIRCLE
  5
5B4D
330
5A37
100
AcDbEntity
  8
0
  6
CENTER
100
AcDbCircle
 10
0.0
 20
-0.0000000000011369
 30
0.0
 40
97.5
  0
CIRCLE
  5
5B4E
330
5A37
100
AcDbEntity
  8
0
100
AcDbCircle
 10
30.12915695156153
 20
92.72801033879705
 30
0.0
 40
7.0
  0
CIRCLE
  5
5B4F
330
5A37
100
AcDbEntity
  8
0
100
AcDbCircle
 10
-30.12915695156517
 20
92.72801033879387
 30
0.0
 40
7.0
  0
CIRCLE
  5
5B50
330
5A37
100
AcDbEntity
  8
0
100
AcDbCircle
 10
-78.87915695157471
 20
57.30906209852538
 30
0.0
 40
7.0
  0
CIRCLE
  5
5B51
330
5A37
100
AcDbEntity
  8
0
100
AcDbCircle
 10
78.87915695157198
 20
57.30906209852765
 30
0.0
 40
7.0
  0
CIRCLE
  5
5B52
330
5A37
100
AcDbEntity
  8
0
100
AcDbCircle
 10
-97.50000000002092
 20
-0.0000000000038654
 30
0.0
 40
7.0
  0
CIRCLE
  5
5B53
330
5A37
100
AcDbEntity
  8
0
100
AcDbCircle
 10
-78.87915695157335
 20
-57.30906209852992
 30
0.0
 40
7.0
  0
CIRCLE
  5
5B54
330
5A37
100
AcDbEntity
  8
0
100
AcDbCircle
 10
78.87915695157471
 20
-57.30906209852765
 30
0.0
 40
7.0
  0
CIRCLE
  5
5B55
330
5A37
100
AcDbEntity
  8
0
100
AcDbCircle
 10
97.50000000002001
 20
-0.0000000000002274
 30
0.0
 40
7.0
  0
CIRCLE
  5
5B56
330
5A37
100
AcDbEntity
  8
0
100
AcDbCircle
 10
0.0
 20
-0.0000000000011369
 30
0.0
 40
110.0000000000152
  0
CIRCLE
  5
5B57
330
5A37
100
AcDbEntity
  8
0
100
AcDbCircle
 10
-0.0000000000004547
 20
-36.84999999999991
 30
0.0
 40
45.49999999999999
  0
CIRCLE
  5
5B58
330
5A37
100
AcDbEntity
  8
0
100
AcDbCircle
 10
-0.0000000000004547
 20
-36.84999999999991
 30
0.0
 40
36.15
  0
ENDBLK
  5
5B5C
330
5A37
100
AcDbEntity
  8
0
100
AcDbBlockEnd
  0
ENDSEC
  0
SECTION
  2
ENTITIES
  0
LINE
  5
1DF0
330
1F
100
AcDbEntity
  8
0
  6
CENTER
100
AcDbLine
 10
2399.603186516393
 20
97.50000000000273
 30
0.0
 11
2450.603186516395
 21
97.50000000000273
 31
0.0
  0
LINE
  5
1DF1
330
1F
100
AcDbEntity
  8
0
100
AcDbLine
 10
440.103186516399
 20
-82.59999999999763
 30
0.0
 11
506.7031865163788
 21
-82.60000000002136
 31
0.0
  0
ARC
  5
1DF2
330
1F
100
AcDbEntity
  8
0
100
AcDbCircle
 10
2403.103186516393
 20
83.10000000000309
 30
0.0
 40
0.5
100
AcDbArc
 50
270.0
 51
0.0
  0
LINE
  5
1DF3
330
1F
100
AcDbEntity
  8
0
100
AcDbLine
 10
2403.603186516393
 20
110.0000000000027
 30
0.0
 11
2403.603186516392
 21
-109.9999999999972
 31
0.0
  0
LINE
  5
1DF5
330
1F
100
AcDbEntity
  8
0
100
AcDbLine
 10
2425.603186516394
 20
110.0000000000027
 30
0.0
 11
2425.603186516393
 21
-109.9999999999972
 31
0.0
  0
LINE
  5
1DF7
330
1F
100
AcDbEntity
  8
0
100
AcDbLine
 10
2425.603186516393
 20
110.0000000000027
 30
0.0
 11
2403.603186516393
 21
110.0000000000027
 31
0.0
  0
LINE
  5
1E09
330
1F
100
AcDbEntity
  8
0
100
AcDbLine
 10
2446.603186516395
 20
110.0000000000045
 30
0.0
 11
2428.603186516396
 21
110.0000000000027
 31
0.0
  0
LINE
  5
1E0A
330
1F
100
AcDbEntity
  8
0
100
AcDbLine
 10
2428.603186516396
 20
88.00000000000455
 30
0.0
 11
2425.603186516394
 21
88.00000000000455
 31
0.0
  0
LINE
  5
1E0B
330
1F
100
AcDbEntity
  8
0
100
AcDbLine
 10
2428.603186516396
 20
110.0000000000027
 30
0.0
 11
2428.603186516396
 21
-109.9999999999972
 31
0.0
  0
LINE
  5
1E0C
330
1F
100
AcDbEntity
  8
0
100
AcDbLine
 10
2446.603186516396
 20
110.0000000000045
 30
0.0
 11
2446.603186516396
 21
-109.9999999999972
 31
0.0
  0
LINE
  5
1E0D
330
1F
100
AcDbEntity
  8
0
100
AcDbLine
 10
2455.603186516396
 20
79.00000000000273
 30
0.0
 11
2451.603186516396
 21
79.00000000000273
 31
0.0
  0
ARC
  5
1E0E
330
1F
100
AcDbEntity
  8
0
100
AcDbCircle
 10
2451.603186516396
 20
84.00000000000273
 30
0.0
 40
5.0
100
AcDbArc
 50
180.0
 51
270.0
  0
LINE
  5
1E14
330
1F
100
AcDbEntity
  8
0
100
AcDbLine
 10
1457.603186516392
 20
-82.59999999997399
 30
0.0
 11
2403.103186516393
 21
-82.59999999999582
 31
0.0
  0
LINE
  5
1E16
330
1F
100
AcDbEntity
  8
0
100
AcDbLine
 10
2455.603186516398
 20
-78.99999999999727
 30
0.0
 11
2455.603186516396
 21
79.00000000000273
 31
0.0
  0
ARC
  5
1E1F
330
1F
100
AcDbEntity
  8
0
100
AcDbCircle
 10
2451.603186516395
 20
-83.99999999999545
 30
0.0
 40
5.0
100
AcDbArc
 50
90.0
 51
180.0
  0
LINE
  5
1E21
330
1F
100
AcDbEntity
  8
0
100
AcDbLine
 10
2455.603186516398
 20
-78.99999999999727
 30
0.0
 11
2451.603186516396
 21
-78.99999999999727
 31
0.0
  0
ARC
  5
1E23
330
1F
100
AcDbEntity
  8
0
100
AcDbCircle
 10
2403.103186516393
 20
-83.09999999999581
 30
0.0
 40
0.5
100
AcDbArc
 50
0.0
 51
90.0
  0
LINE
  5
1E24
330
1F
100
AcDbEntity
  8
0
  6
CENTER
100
AcDbLine
 10
2450.603186516396
 20
-97.49999999999728
 30
0.0
 11
2399.603186516393
 21
-97.49999999999545
 31
0.0
  0
LINE
  5
1E2A
330
1F
100
AcDbEntity
  8
0
100
AcDbLine
 10
2446.603186516395
 20
-109.9999999999972
 30
0.0
 11
2428.603186516396
 21
-109.9999999999972
 31
0.0
  0
LINE
  5
1E2F
330
1F
100
AcDbEntity
  8
0
100
AcDbLine
 10
2425.603186516392
 20
-109.9999999999972
 30
0.0
 11
2403.603186516392
 21
-109.9999999999972
 31
0.0
  0
LINE
  5
1E58
330
1F
100
AcDbEntity
  8
0
100
AcDbLine
 10
1389.332339161929
 20
95.00000000002637
 30
0.0
 11
1453.874033870861
 21
95.00000000002637
 31
0.0
  0
LINE
  5
1E59
330
1F
100
AcDbEntity
  8
0
100
AcDbLine
 10
1405.853186516395
 20
95.00000000002614
 30
0.0
 11
1405.853186516394
 21
-94.99999999997568
 31
0.0
  0
LINE
  5
1E5A
330
1F
100
AcDbEntity
  8
0
100
AcDbLine
 10
1401.353186516394
 20
95.00000000002614
 30
0.0
 11
1401.353186516394
 21
-94.99999999997568
 31
0.0
  0
LINE
  5
1E5B
330
1F
100
AcDbEntity
  8
0
100
AcDbLine
 10
1396.853186516395
 20
95.00000000002614
 30
0.0
 11
1396.853186516394
 21
-94.99999999997568
 31
0.0
  0
LINE
  5
1E5C
330
1F
100
AcDbEntity
  8
0
100
AcDbLine
 10
1392.353186516395
 20
95.00000000002456
 30
0.0
 11
1392.353186516394
 21
-94.99999999997545
 31
0.0
  0
LINE
  5
1E5E
330
1F
100
AcDbEntity
  8
0
100
AcDbLine
 10
1385.603186516397
 20
88.54091814878575
 30
0.0
 11
1385.603186516395
 21
-88.54091814873482
 31
0.0
  0
LINE
  5
1E61
330
1F
100
AcDbEntity
  8
0
100
AcDbLine
 10
1385.603186516397
 20
88.54091814878575
 30
0.0
 11
1389.332339161929
 21
95.00000000002637
 31
0.0
  0
LINE
  5
1E62
330
1F
100
AcDbEntity
  8
0
100
AcDbLine
 10
1423.853186516395
 20
95.00000000002614
 30
0.0
 11
1423.853186516394
 21
-94.99999999997568
 31
0.0
  0
LINE
  5
1E64
330
1F
100
AcDbEntity
  8
0
100
AcDbLine
 10
1419.353186516395
 20
95.00000000002614
 30
0.0
 11
1419.353186516393
 21
-94.99999999997568
 31
0.0
  0
LINE
  5
1E65
330
1F
100
AcDbEntity
  8
0
100
AcDbLine
 10
1428.353186516395
 20
95.00000000002614
 30
0.0
 11
1428.353186516394
 21
-94.99999999997568
 31
0.0
  0
LINE
  5
1E66
330
1F
100
AcDbEntity
  8
0
100
AcDbLine
 10
1432.853186516395
 20
95.00000000002614
 30
0.0
 11
1432.853186516394
 21
-94.99999999997568
 31
0.0
  0
LINE
  5
1E67
330
1F
100
AcDbEntity
  8
0
100
AcDbLine
 10
1437.353186516395
 20
95.00000000002614
 30
0.0
 11
1437.353186516394
 21
-94.99999999997568
 31
0.0
  0
LINE
  5
1E68
330
1F
100
AcDbEntity
  8
0
100
AcDbLine
 10
1441.853186516395
 20
95.00000000002614
 30
0.0
 11
1441.853186516394
 21
-94.99999999997568
 31
0.0
  0
LINE
  5
1E69
330
1F
100
AcDbEntity
  8
0
100
AcDbLine
 10
1414.853186516395
 20
95.00000000002614
 30
0.0
 11
1414.853186516394
 21
-94.99999999997568
 31
0.0
  0
LINE
  5
1E71
330
1F
100
AcDbEntity
  8
0
100
AcDbLine
 10
1410.353186516395
 20
95.00000000002614
 30
0.0
 11
1410.353186516394
 21
-94.99999999997568
 31
0.0
  0
LINE
  5
1E73
330
1F
100
AcDbEntity
  8
0
100
AcDbLine
 10
1450.853186516395
 20
95.00000000002456
 30
0.0
 11
1450.853186516394
 21
-94.99999999997545
 31
0.0
  0
LINE
  5
1E74
330
1F
100
AcDbEntity
  8
0
100
AcDbLine
 10
1457.603186516394
 20
88.54091814878575
 30
0.0
 11
1457.603186516392
 21
-88.54091814873482
 31
0.0
  0
LINE
  5
1E75
330
1F
100
AcDbEntity
  8
0
100
AcDbLine
 10
1457.603186516394
 20
88.54091814878575
 30
0.0
 11
1453.874033870861
 21
95.00000000002637
 31
0.0
  0
LINE
  5
1E77
330
1F
100
AcDbEntity
  8
0
100
AcDbLine
 10
1446.353186516394
 20
95.00000000002614
 30
0.0
 11
1446.353186516394
 21
-94.99999999997568
 31
0.0
  0
LINE
  5
1E7E
330
1F
100
AcDbEntity
  8
0
100
AcDbLine
 10
1385.603186516395
 20
-88.54091814873482
 30
0.0
 11
1389.332339161928
 21
-94.99999999997545
 31
0.0
  0
LINE
  5
1E7F
330
1F
100
AcDbEntity
  8
0
100
AcDbLine
 10
1389.332339161928
 20
-94.99999999997545
 30
0.0
 11
1453.87403387086
 21
-94.99999999997545
 31
0.0
  0
LINE
  5
1E99
330
1F
100
AcDbEntity
  8
0
100
AcDbLine
 10
1457.603186516392
 20
-88.54091814873482
 30
0.0
 11
1453.87403387086
 21
-94.99999999997545
 31
0.0
  0
LINE
  5
1EA4
330
1F
100
AcDbEntity
  8
0
100
AcDbLine
 10
1389.33233916193
 20
-94.99999999997545
 30
0.0
 11
1389.332339161928
 21
95.00000000002456
 31
0.0
  0
LINE
  5
1EA5
330
1F
100
AcDbEntity
  8
0
100
AcDbLine
 10
1453.874033870861
 20
-94.99999999997545
 30
0.0
 11
1453.874033870861
 21
95.00000000002637
 31
0.0
  0
LINE
  5
1EA6
330
1F
100
AcDbEntity
  8
0
100
AcDbLine
 10
2428.603186516396
 20
-87.99999999999727
 30
0.0
 11
2425.603186516394
 21
-87.99999999999545
 31
0.0
  0
LINE
  5
1F76
330
1F
100
AcDbEntity
  8
0
  6
CENTER
100
AcDbLine
 10
443.6031865164009
 20
97.50000000001774
 30
0.0
 11
392.6031865163991
 21
97.50000000001865
 31
0.0
  0
LINE
  5
1F77
330
1F
100
AcDbEntity
  8
0
100
AcDbLine
 10
440.1031865164009
 20
82.60000000001809
 30
0.0
 11
1385.6031865164
 21
82.59999999996125
 31
0.0
  0
ARC
  5
1F78
330
1F
100
AcDbEntity
  8
0
100
AcDbCircle
 10
440.1031865164009
 20
83.1000000000181
 30
0.0
 40
0.5
100
AcDbArc
 50
180.0
 51
270.0
  0
LINE
  5
1F79
330
1F
100
AcDbEntity
  8
0
100
AcDbLine
 10
439.6031865164009
 20
110.0000000000177
 30
0.0
 11
439.603186516399
 21
-109.9999999999822
 31
0.0
  0
LINE
  5
1F7A
330
1F
100
AcDbEntity
  8
0
100
AcDbLine
 10
417.6031865164008
 20
110.0000000000182
 30
0.0
 11
417.6031865163972
 21
-109.9999999999818
 31
0.0
  0
LINE
  5
1F7B
330
1F
100
AcDbEntity
  8
0
100
AcDbLine
 10
417.6031865164008
 20
110.0000000000182
 30
0.0
 11
439.6031865164009
 21
110.0000000000177
 31
0.0
  0
LINE
  5
1F7C
330
1F
100
AcDbEntity
  8
0
100
AcDbLine
 10
396.6031865163991
 20
110.0000000000202
 30
0.0
 11
414.603186516399
 21
110.0000000000182
 31
0.0
  0
LINE
  5
1F7D
330
1F
100
AcDbEntity
  8
0
100
AcDbLine
 10
414.6031865163973
 20
88.00000000002
 30
0.0
 11
417.6031865164008
 21
88.00000000002
 31
0.0
  0
LINE
  5
1F7E
330
1F
100
AcDbEntity
  8
0
100
AcDbLine
 10
414.603186516399
 20
110.0000000000182
 30
0.0
 11
414.6031865163954
 21
-109.9999999999818
 31
0.0
  0
LINE
  5
1F7F
330
1F
100
AcDbEntity
  8
0
100
AcDbLine
 10
396.6031865163991
 20
110.0000000000202
 30
0.0
 11
396.6031865163955
 21
-109.9999999999816
 31
0.0
  0
LINE
  5
1F80
330
1F
100
AcDbEntity
  8
0
100
AcDbLine
 10
387.6031865163973
 20
79.00000000001864
 30
0.0
 11
391.6031865163973
 21
79.00000000001864
 31
0.0
  0
ARC
  5
1F81
330
1F
100
AcDbEntity
  8
0
100
AcDbCircle
 10
391.6031865163973
 20
84.00000000001865
 30
0.0
 40
5.0
100
AcDbArc
 50
270.0
 51
0.0
  0
LINE
  5
1F83
330
1F
100
AcDbEntity
  8
0
  6
CENTER
100
AcDbLine
 10
365.6031865163964
 20
0.0000000000190994
 30
0.0
 11
2477.603186516396
 21
-0.0000000000136424
 31
0.0
  0
LINE
  5
1F84
330
1F
100
AcDbEntity
  8
0
100
AcDbLine
 10
387.6031865163936
 20
-78.99999999998136
 30
0.0
 11
387.6031865163973
 21
79.00000000001864
 31
0.0
  0
ARC
  5
1F85
330
1F
100
AcDbEntity
  8
0
100
AcDbCircle
 10
391.6031865163954
 20
-83.99999999997953
 30
0.0
 40
5.0
100
AcDbArc
 50
0.0
 51
90.0
  0
LINE
  5
1F86
330
1F
100
AcDbEntity
  8
0
100
AcDbLine
 10
387.6031865163936
 20
-78.99999999998136
 30
0.0
 11
391.6031865163954
 21
-78.99999999998136
 31
0.0
  0
ARC
  5
1F87
330
1F
100
AcDbEntity
  8
0
100
AcDbCircle
 10
440.103186516399
 20
-83.09999999998082
 30
0.0
 40
0.5
100
AcDbArc
 50
90.0
 51
180.0
  0
LINE
  5
1F88
330
1F
100
AcDbEntity
  8
0
  6
CENTER
100
AcDbLine
 10
392.6031865163955
 20
-97.49999999998136
 30
0.0
 11
443.6031865163982
 21
-97.49999999998046
 31
0.0
  0
LINE
  5
1F89
330
1F
100
AcDbEntity
  8
0
100
AcDbLine
 10
396.6031865163955
 20
-109.9999999999816
 30
0.0
 11
414.6031865163954
 21
-109.9999999999818
 31
0.0
  0
LINE
  5
1F8A
330
1F
100
AcDbEntity
  8
0
100
AcDbLine
 10
417.6031865163991
 20
-109.9999999999818
 30
0.0
 11
439.603186516399
 21
-109.9999999999822
 31
0.0
  0
LINE
  5
1F8B
330
1F
100
AcDbEntity
  8
0
100
AcDbLine
 10
414.6031865163954
 20
-87.99999999998181
 30
0.0
 11
417.6031865163972
 21
-87.99999999997998
 31
0.0
  0
LINE
  5
1F91
330
1F
100
AcDbEntity
  8
0
100
AcDbLine
 10
371.1283679545254
 20
-74.74700167122591
 30
0.0
 11
371.1283679545254
 21
1.047001671263842
 31
0.0
  0
LINE
  5
1F92
330
1F
100
AcDbEntity
  8
0
  6
CENTER
100
AcDbLine
 10
362.4544437953414
 20
-36.84999999998081
 30
0.0
 11
394.2582096072788
 21
-36.84999999998081
 31
0.0
  0
LINE
  5
1F93
330
1F
100
AcDbEntity
  8
0
100
AcDbLine
 10
365.6031865163955
 20
-82.3499999999808
 30
0.0
 11
365.6031865163955
 21
8.65000000001919
 31
0.0
  0
LINE
  5
1F94
330
1F
100
AcDbEntity
  8
0
100
AcDbLine
 10
368.4531865163958
 20
-81.47631477076719
 30
0.0
 11
368.4531865163958
 21
7.776314770805129
 31
0.0
  0
LINE
  5
1F95
330
1F
100
AcDbEntity
  8
0
100
AcDbLine
 10
372.5287828146725
 20
1.300000000019281
 30
0.0
 11
387.6031865163954
 21
1.300000000019281
 31
0.0
  0
ARC
  5
1F96
330
1F
100
AcDbEntity
  8
0
100
AcDbCircle
 10
372.5287828146725
 20
3.300000000019281
 30
0.0
 40
2.0
100
AcDbArc
 50
200.0000000000137
 51
270.0
1001
GENIUS_GENODEF_13
1002
{
1000
HIER
1070
     0
1002
}
1002
{
1000
MANEDIT
1070
     0
1002
}
1002
{
1000
NOSEL
1070
     0
1002
}
1002
{
1000
BEHIND
1070
     0
1002
}
1002
{
1000
OTHER
1070
     0
1002
}
1002
{
1000
REACTOR
1002
}
1001
GENIUS_GENOBJ-N-FIL_13
1002
{
1000
OWNER
1000
GEN
1002
}
  0
LINE
  5
1F97
330
1F
100
AcDbEntity
  8
0
100
AcDbLine
 10
367.8930204858284
 20
8.65000000001919
 30
0.0
 11
365.6031865163955
 21
8.65000000001919
 31
0.0
  0
LINE
  5
1F98
330
1F
100
AcDbEntity
  8
0
100
AcDbLine
 10
368.6447745824576
 20
8.123616114679407
 30
0.0
 11
370.6493975730996
 21
2.615959713367828
 31
0.0
  0
ARC
  5
1F99
330
1F
100
AcDbEntity
  8
0
100
AcDbCircle
 10
367.8930204858284
 20
7.850000000019008
 30
0.0
 40
0.8
100
AcDbArc
 50
20.00000000001373
 51
90.0
1001
GENIUS_GENOBJ-N-FIL_13
1002
{
1000
OWNER
1000
GEN
1002
}
1001
GENIUS_GENODEF_13
1002
{
1000
HIER
1070
     0
1002
}
1002
{
1000
MANEDIT
1070
     0
1002
}
1002
{
1000
NOSEL
1070
     0
1002
}
1002
{
1000
BEHIND
1070
     0
1002
}
1002
{
1000
OTHER
1070
     0
1002
}
1002
{
1000
REACTOR
1002
}
  0
LINE
  5
1F9A
330
1F
100
AcDbEntity
  8
0
100
AcDbLine
 10
372.5287828146725
 20
-74.9999999999809
 30
0.0
 11
387.6031865163964
 21
-74.9999999999809
 31
0.0
  0
ARC
  5
1F9B
330
1F
100
AcDbEntity
  8
0
100
AcDbCircle
 10
372.5287828146725
 20
-76.9999999999809
 30
0.0
 40
2.0
100
AcDbArc
 50
90.0
 51
159.9999999999863
1001
GENIUS_GENODEF_13
1002
{
1000
HIER
1070
     0
1002
}
1002
{
1000
MANEDIT
1070
     0
1002
}
1002
{
1000
NOSEL
1070
     0
1002
}
1002
{
1000
BEHIND
1070
     0
1002
}
1002
{
1000
OTHER
1070
     0
1002
}
1002
{
1000
REACTOR
1002
}
1001
GENIUS_GENOBJ-N-FIL_13
1002
{
1000
OWNER
1000
GEN
1002
}
  0
LINE
  5
1F9C
330
1F
100
AcDbEntity
  8
0
100
AcDbLine
 10
367.8930204858284
 20
-82.3499999999808
 30
0.0
 11
365.6031865163955
 21
-82.3499999999808
 31
0.0
  0
LINE
  5
1F9D
330
1F
100
AcDbEntity
  8
0
100
AcDbLine
 10
368.6447745824557
 20
-81.82361611464148
 30
0.0
 11
370.6493975730996
 21
-76.31595971332945
 31
0.0
  0
ARC
  5
1F9E
330
1F
100
AcDbEntity
  8
0
100
AcDbCircle
 10
367.8930204858284
 20
-81.54999999998109
 30
0.0
 40
0.8
100
AcDbArc
 50
270.0
 51
339.9999999999863
1001
GENIUS_GENOBJ-N-FIL_13
1002
{
1000
OWNER
1000
GEN
1002
}
1001
GENIUS_GENODEF_13
1002
{
1000
HIER
1070
     0
1002
}
1002
{
1000
MANEDIT
1070
     0
1002
}
1002
{
1000
NOSEL
1070
     0
1002
}
1002
{
1000
BEHIND
1070
     0
1002
}
1002
{
1000
OTHER
1070
     0
1002
}
1002
{
1000
REACTOR
1002
}
  0
LINE
  5
1FA1
330
1F
100
AcDbEntity
  8
0
100
AcDbLine
 10
2472.078005078268
 20
74.74700167123137
 30
0.0
 11
2472.078005078268
 21
-1.047001671258385
 31
0.0
  0
LINE
  5
1FA2
330
1F
100
AcDbEntity
  8
0
  6
CENTER
100
AcDbLine
 10
2480.751929237452
 20
36.84999999998627
 30
0.0
 11
2448.948163425514
 21
36.84999999998627
 31
0.0
  0
LINE
  5
1FA3
330
1F
100
AcDbEntity
  8
0
100
AcDbLine
 10
2477.603186516397
 20
82.34999999998626
 30
0.0
 11
2477.603186516397
 21
-8.650000000013733
 31
0.0
  0
LINE
  5
1FA4
330
1F
100
AcDbEntity
  8
0
100
AcDbLine
 10
2474.753186516397
 20
81.47631477077267
 30
0.0
 11
2474.753186516397
 21
-7.776314770799672
 31
0.0
  0
LINE
  5
1FA5
330
1F
100
AcDbEntity
  8
0
100
AcDbLine
 10
2470.67759021812
 20
-1.300000000013824
 30
0.0
 11
2455.603186516397
 21
-1.300000000013824
 31
0.0
  0
ARC
  5
1FA6
330
1F
100
AcDbEntity
  8
0
100
AcDbCircle
 10
2470.67759021812
 20
-3.300000000013824
 30
0.0
 40
2.0
100
AcDbArc
 50
20.00000000000148
 51
90.0
1001
GENIUS_GENODEF_13
1002
{
1000
HIER
1070
     0
1002
}
1002
{
1000
MANEDIT
1070
     0
1002
}
1002
{
1000
NOSEL
1070
     0
1002
}
1002
{
1000
BEHIND
1070
     0
1002
}
1002
{
1000
OTHER
1070
     0
1002
}
1002
{
1000
REACTOR
1002
}
1001
GENIUS_GENOBJ-N-FIL_13
1002
{
1000
OWNER
1000
GEN
1002
}
  0
LINE
  5
1FA7
330
1F
100
AcDbEntity
  8
0
100
AcDbLine
 10
2475.313352546964
 20
-8.650000000013733
 30
0.0
 11
2477.603186516397
 21
-8.650000000013733
 31
0.0
  0
LINE
  5
1FA8
330
1F
100
AcDbEntity
  8
0
100
AcDbLine
 10
2474.561598450335
 20
-8.12361611467395
 30
0.0
 11
2472.556975459693
 21
-2.615959713362371
 31
0.0
  0
ARC
  5
1FA9
330
1F
100
AcDbEntity
  8
0
100
AcDbCircle
 10
2475.313352546964
 20
-7.850000000013551
 30
0.0
 40
0.8
100
AcDbArc
 50
200.0000000000015
 51
270.0
1001
GENIUS_GENOBJ-N-FIL_13
1002
{
1000
OWNER
1000
GEN
1002
}
1001
GENIUS_GENODEF_13
1002
{
1000
HIER
1070
     0
1002
}
1002
{
1000
MANEDIT
1070
     0
1002
}
1002
{
1000
NOSEL
1070
     0
1002
}
1002
{
1000
BEHIND
1070
     0
1002
}
1002
{
1000
OTHER
1070
     0
1002
}
1002
{
1000
REACTOR
1002
}
  0
LINE
  5
1FAA
330
1F
100
AcDbEntity
  8
0
100
AcDbLine
 10
2470.67759021812
 20
74.99999999998635
 30
0.0
 11
2455.603186516396
 21
74.99999999998635
 31
0.0
  0
ARC
  5
1FAB
330
1F
100
AcDbEntity
  8
0
100
AcDbCircle
 10
2470.67759021812
 20
76.99999999998635
 30
0.0
 40
2.0
100
AcDbArc
 50
270.0
 51
339.9999999999985
1001
GENIUS_GENODEF_13
1002
{
1000
HIER
1070
     0
1002
}
1002
{
1000
MANEDIT
1070
     0
1002
}
1002
{
1000
NOSEL
1070
     0
1002
}
1002
{
1000
BEHIND
1070
     0
1002
}
1002
{
1000
OTHER
1070
     0
1002
}
1002
{
1000
REACTOR
1002
}
1001
GENIUS_GENOBJ-N-FIL_13
1002
{
1000
OWNER
1000
GEN
1002
}
  0
LINE
  5
1FAC
330
1F
100
AcDbEntity
  8
0
100
AcDbLine
 10
2475.313352546964
 20
82.34999999998626
 30
0.0
 11
2477.603186516397
 21
82.34999999998626
 31
0.0
  0
LINE
  5
1FAD
330
1F
100
AcDbEntity
  8
0
100
AcDbLine
 10
2474.561598450337
 20
81.82361611464694
 30
0.0
 11
2472.556975459693
 21
76.3159597133349
 31
0.0
  0
ARC
  5
1FAE
330
1F
100
AcDbEntity
  8
0
100
AcDbCircle
 10
2475.313352546964
 20
81.54999999998654
 30
0.0
 40
0.8
100
AcDbArc
 50
90.0
 51
159.9999999999985
1001
GENIUS_GENOBJ-N-FIL_13
1002
{
1000
OWNER
1000
GEN
1002
}
1001
GENIUS_GENODEF_13
1002
{
1000
HIER
1070
     0
1002
}
1002
{
1000
MANEDIT
1070
     0
1002
}
1002
{
1000
NOSEL
1070
     0
1002
}
1002
{
1000
BEHIND
1070
     0
1002
}
1002
{
1000
OTHER
1070
     0
1002
}
1002
{
1000
REACTOR
1002
}
  0
LINE
  5
2008
330
1F
100
AcDbEntity
  8
0
100
AcDbLine
 10
646.5031865163949
 20
-82.5999999999899
 30
0.0
 11
1385.603186516399
 21
-82.59999999995534
 31
0.0
  0
LINE
  5
2009
330
1F
100
AcDbEntity
  8
0
100
AcDbLine
 10
2403.103186516393
 20
82.60000000000308
 30
0.0
 11
2336.504849193624
 21
82.60000000002722
 31
0.0
  0
LINE
  5
200A
330
1F
100
AcDbEntity
  8
0
100
AcDbLine
 10
2196.704849193624
 20
82.59999999998234
 30
0.0
 11
1457.603186516393
 21
82.59999999996081
 31
0.0
  0
LINE
  5
2028
330
1F
100
AcDbEntity
  8
0
  6
CENTER
100
AcDbLine
 10
2399.603186516393
 20
855.9132838053947
 30
0.0
 11
2450.603186516395
 21
855.9132838053947
 31
0.0
  0
LINE
  5
2029
330
1F
100
AcDbEntity
  8
0
100
AcDbLine
 10
440.103186516399
 20
675.8132838053943
 30
0.0
 11
1385.603186516399
 21
675.8132838054311
 31
0.0
  0
ARC
  5
202B
330
1F
100
AcDbEntity
  8
0
100
AcDbCircle
 10
2403.103186516393
 20
841.5132838053951
 30
0.0
 40
0.5
100
AcDbArc
 50
270.0
 51
0.0
  0
LINE
  5
202C
330
1F
100
AcDbEntity
  8
0
100
AcDbLine
 10
2403.603186516393
 20
868.4132838053947
 30
0.0
 11
2403.603186516393
 21
648.4132838053946
 31
0.0
  0
LINE
  5
202D
330
1F
100
AcDbEntity
  8
0
100
AcDbLine
 10
2425.603186516394
 20
868.4132838053947
 30
0.0
 11
2425.603186516393
 21
648.4132838053946
 31
0.0
  0
LINE
  5
202E
330
1F
100
AcDbEntity
  8
0
100
AcDbLine
 10
2425.603186516393
 20
868.4132838053947
 30
0.0
 11
2403.603186516393
 21
868.4132838053947
 31
0.0
  0
LINE
  5
202F
330
1F
100
AcDbEntity
  8
0
100
AcDbLine
 10
2446.603186516395
 20
868.4132838053965
 30
0.0
 11
2428.603186516396
 21
868.4132838053947
 31
0.0
  0
LINE
  5
2030
330
1F
100
AcDbEntity
  8
0
100
AcDbLine
 10
2428.603186516396
 20
846.4132838053965
 30
0.0
 11
2425.603186516394
 21
846.4132838053965
 31
0.0
  0
LINE
  5
2031
330
1F
100
AcDbEntity
  8
0
100
AcDbLine
 10
2428.603186516396
 20
868.4132838053947
 30
0.0
 11
2428.603186516396
 21
648.4132838053946
 31
0.0
  0
LINE
  5
2032
330
1F
100
AcDbEntity
  8
0
100
AcDbLine
 10
2446.603186516396
 20
868.4132838053965
 30
0.0
 11
2446.603186516396
 21
648.4132838053946
 31
0.0
  0
LINE
  5
2033
330
1F
100
AcDbEntity
  8
0
100
AcDbLine
 10
2455.603186516396
 20
837.4132838053947
 30
0.0
 11
2451.603186516396
 21
837.4132838053947
 31
0.0
  0
ARC
  5
2034
330
1F
100
AcDbEntity
  8
0
100
AcDbCircle
 10
2451.603186516396
 20
842.4132838053946
 30
0.0
 40
5.0
100
AcDbArc
 50
180.0
 51
270.0
  0
LINE
  5
2035
330
1F
100
AcDbEntity
  8
0
100
AcDbLine
 10
1457.603186516392
 20
675.813283805418
 30
0.0
 11
2172.782932839468
 21
675.8132838054016
 31
0.0
  0
LINE
  5
2036
330
1F
100
AcDbEntity
  8
0
100
AcDbLine
 10
2455.603186516398
 20
679.4132838053947
 30
0.0
 11
2455.603186516396
 21
837.4132838053947
 31
0.0
  0
ARC
  5
2037
330
1F
100
AcDbEntity
  8
0
100
AcDbCircle
 10
2451.603186516395
 20
674.4132838053965
 30
0.0
 40
5.0
100
AcDbArc
 50
90.0
 51
180.0
  0
LINE
  5
2038
330
1F
100
AcDbEntity
  8
0
100
AcDbLine
 10
2455.603186516398
 20
679.4132838053947
 30
0.0
 11
2451.603186516396
 21
679.4132838053947
 31
0.0
  0
ARC
  5
2039
330
1F
100
AcDbEntity
  8
0
100
AcDbCircle
 10
2403.103186516393
 20
675.3132838053962
 30
0.0
 40
0.5
100
AcDbArc
 50
0.0
 51
90.0
  0
LINE
  5
203A
330
1F
100
AcDbEntity
  8
0
  6
CENTER
100
AcDbLine
 10
2450.603186516396
 20
660.9132838053946
 30
0.0
 11
2399.603186516393
 21
660.9132838053965
 31
0.0
  0
LINE
  5
203B
330
1F
100
AcDbEntity
  8
0
100
AcDbLine
 10
2446.603186516395
 20
648.4132838053946
 30
0.0
 11
2428.603186516396
 21
648.4132838053946
 31
0.0
  0
LINE
  5
203C
330
1F
100
AcDbEntity
  8
0
100
AcDbLine
 10
2425.603186516392
 20
648.4132838053946
 30
0.0
 11
2403.603186516392
 21
648.4132838053946
 31
0.0
  0
LINE
  5
203F
330
1F
100
AcDbEntity
  8
0
100
AcDbLine
 10
1389.332339161929
 20
853.4132838054183
 30
0.0
 11
1453.874033870861
 21
853.4132838054183
 31
0.0
  0
LINE
  5
2040
330
1F
100
AcDbEntity
  8
0
100
AcDbLine
 10
1405.853186516395
 20
853.4132838054183
 30
0.0
 11
1405.853186516394
 21
663.4132838054161
 31
0.0
  0
LINE
  5
2041
330
1F
100
AcDbEntity
  8
0
100
AcDbLine
 10
1401.353186516395
 20
853.4132838054183
 30
0.0
 11
1401.353186516393
 21
663.4132838054161
 31
0.0
  0
LINE
  5
2042
330
1F
100
AcDbEntity
  8
0
100
AcDbLine
 10
1396.853186516395
 20
853.4132838054183
 30
0.0
 11
1396.853186516394
 21
663.4132838054161
 31
0.0
  0
LINE
  5
2043
330
1F
100
AcDbEntity
  8
0
100
AcDbLine
 10
1392.353186516395
 20
853.4132838054166
 30
0.0
 11
1392.353186516394
 21
663.4132838054165
 31
0.0
  0
LINE
  5
2045
330
1F
100
AcDbEntity
  8
0
100
AcDbLine
 10
1385.603186516397
 20
846.9542019541776
 30
0.0
 11
1385.603186516395
 21
669.8723656566571
 31
0.0
  0
LINE
  5
2049
330
1F
100
AcDbEntity
  8
0
100
AcDbLine
 10
1385.603186516397
 20
846.9542019541776
 30
0.0
 11
1389.332339161929
 21
853.4132838054183
 31
0.0
  0
LINE
  5
204A
330
1F
100
AcDbEntity
  8
0
100
AcDbLine
 10
1423.853186516395
 20
853.4132838054183
 30
0.0
 11
1423.853186516394
 21
663.4132838054161
 31
0.0
  0
LINE
  5
204B
330
1F
100
AcDbEntity
  8
0
100
AcDbLine
 10
1419.353186516395
 20
853.4132838054183
 30
0.0
 11
1419.353186516393
 21
663.4132838054161
 31
0.0
  0
LINE
  5
204C
330
1F
100
AcDbEntity
  8
0
100
AcDbLine
 10
1428.353186516395
 20
853.4132838054183
 30
0.0
 11
1428.353186516394
 21
663.4132838054161
 31
0.0
  0
LINE
  5
204D
330
1F
100
AcDbEntity
  8
0
100
AcDbLine
 10
1432.853186516395
 20
853.4132838054183
 30
0.0
 11
1432.853186516394
 21
663.4132838054161
 31
0.0
  0
LINE
  5
204E
330
1F
100
AcDbEntity
  8
0
100
AcDbLine
 10
1437.353186516394
 20
853.4132838054183
 30
0.0
 11
1437.353186516394
 21
663.4132838054161
 31
0.0
  0
LINE
  5
204F
330
1F
100
AcDbEntity
  8
0
100
AcDbLine
 10
1441.853186516395
 20
853.4132838054183
 30
0.0
 11
1441.853186516394
 21
663.4132838054161
 31
0.0
  0
LINE
  5
2050
330
1F
100
AcDbEntity
  8
0
100
AcDbLine
 10
1414.853186516395
 20
853.4132838054183
 30
0.0
 11
1414.853186516394
 21
663.4132838054161
 31
0.0
  0
LINE
  5
2057
330
1F
100
AcDbEntity
  8
0
100
AcDbLine
 10
1410.353186516395
 20
853.4132838054183
 30
0.0
 11
1410.353186516394
 21
663.4132838054161
 31
0.0
  0
LINE
  5
2059
330
1F
100
AcDbEntity
  8
0
100
AcDbLine
 10
1450.853186516395
 20
853.4132838054166
 30
0.0
 11
1450.853186516394
 21
663.4132838054165
 31
0.0
  0
LINE
  5
205A
330
1F
100
AcDbEntity
  8
0
100
AcDbLine
 10
1457.603186516394
 20
846.9542019541776
 30
0.0
 11
1457.603186516392
 21
669.8723656566571
 31
0.0
  0
LINE
  5
205B
330
1F
100
AcDbEntity
  8
0
100
AcDbLine
 10
1457.603186516394
 20
846.9542019541776
 30
0.0
 11
1453.874033870861
 21
853.4132838054183
 31
0.0
  0
LINE
  5
205D
330
1F
100
AcDbEntity
  8
0
100
AcDbLine
 10
1446.353186516394
 20
853.4132838054183
 30
0.0
 11
1446.353186516394
 21
663.4132838054161
 31
0.0
  0
LINE
  5
2062
330
1F
100
AcDbEntity
  8
0
100
AcDbLine
 10
1385.603186516395
 20
669.8723656566571
 30
0.0
 11
1389.332339161928
 21
663.4132838054165
 31
0.0
  0
LINE
  5
2063
330
1F
100
AcDbEntity
  8
0
100
AcDbLine
 10
1389.332339161928
 20
663.4132838054165
 30
0.0
 11
1453.87403387086
 21
663.4132838054165
 31
0.0
  0
LINE
  5
206E
330
1F
100
AcDbEntity
  8
0
100
AcDbLine
 10
1457.603186516392
 20
669.8723656566571
 30
0.0
 11
1453.87403387086
 21
663.4132838054165
 31
0.0
  0
LINE
  5
2070
330
1F
100
AcDbEntity
  8
0
100
AcDbLine
 10
1389.33233916193
 20
663.4132838054165
 30
0.0
 11
1389.332339161928
 21
853.4132838054166
 31
0.0
  0
LINE
  5
2071
330
1F
100
AcDbEntity
  8
0
100
AcDbLine
 10
1453.874033870861
 20
663.4132838054165
 30
0.0
 11
1453.874033870861
 21
853.4132838054183
 31
0.0
  0
LINE
  5
2072
330
1F
100
AcDbEntity
  8
0
100
AcDbLine
 10
2428.603186516396
 20
670.4132838053947
 30
0.0
 11
2425.603186516394
 21
670.4132838053965
 31
0.0
  0
LINE
  5
2073
330
1F
100
AcDbEntity
  8
0
  6
CENTER
100
AcDbLine
 10
443.6031865164009
 20
855.9132838054102
 30
0.0
 11
392.6031865163991
 21
855.9132838054111
 31
0.0
  0
LINE
  5
2074
330
1F
100
AcDbEntity
  8
0
100
AcDbLine
 10
440.1031865164009
 20
841.0132838054105
 30
0.0
 11
1385.6031865164
 21
841.0132838053533
 31
0.0
  0
ARC
  5
2075
330
1F
100
AcDbEntity
  8
0
100
AcDbCircle
 10
440.1031865164009
 20
841.5132838054105
 30
0.0
 40
0.5
100
AcDbArc
 50
180.0
 51
270.0
  0
LINE
  5
2076
330
1F
100
AcDbEntity
  8
0
100
AcDbLine
 10
439.6031865164009
 20
868.4132838054102
 30
0.0
 11
439.603186516399
 21
648.4132838054101
 31
0.0
  0
LINE
  5
2077
330
1F
100
AcDbEntity
  8
0
100
AcDbLine
 10
417.6031865164008
 20
868.4132838054102
 30
0.0
 11
417.6031865163972
 21
648.4132838054101
 31
0.0
  0
LINE
  5
2078
330
1F
100
AcDbEntity
  8
0
100
AcDbLine
 10
417.6031865164008
 20
868.4132838054102
 30
0.0
 11
439.6031865164009
 21
868.4132838054102
 31
0.0
  0
LINE
  5
2079
330
1F
100
AcDbEntity
  8
0
100
AcDbLine
 10
396.6031865163991
 20
868.4132838054123
 30
0.0
 11
414.603186516399
 21
868.4132838054102
 31
0.0
  0
LINE
  5
207A
330
1F
100
AcDbEntity
  8
0
100
AcDbLine
 10
414.6031865163973
 20
846.4132838054119
 30
0.0
 11
417.6031865164008
 21
846.4132838054119
 31
0.0
  0
LINE
  5
207B
330
1F
100
AcDbEntity
  8
0
100
AcDbLine
 10
414.603186516399
 20
868.4132838054102
 30
0.0
 11
414.6031865163954
 21
648.4132838054101
 31
0.0
  0
LINE
  5
207C
330
1F
100
AcDbEntity
  8
0
100
AcDbLine
 10
396.6031865163991
 20
868.4132838054123
 30
0.0
 11
396.6031865163955
 21
648.4132838054106
 31
0.0
  0
LINE
  5
207D
330
1F
100
AcDbEntity
  8
0
100
AcDbLine
 10
387.6031865163973
 20
837.413283805411
 30
0.0
 11
391.6031865163973
 21
837.413283805411
 31
0.0
  0
ARC
  5
207E
330
1F
100
AcDbEntity
  8
0
100
AcDbCircle
 10
391.6031865163973
 20
842.4132838054111
 30
0.0
 40
5.0
100
AcDbArc
 50
270.0
 51
0.0
  0
LINE
  5
207F
330
1F
100
AcDbEntity
  8
0
  6
CENTER
100
AcDbLine
 10
2480.751929237452
 20
758.4132838054174
 30
0.0
 11
362.4544437953423
 21
758.4132838054106
 31
0.0
  0
LINE
  5
2080
330
1F
100
AcDbEntity
  8
0
100
AcDbLine
 10
387.6031865163936
 20
679.413283805411
 30
0.0
 11
387.6031865163973
 21
837.413283805411
 31
0.0
  0
ARC
  5
2081
330
1F
100
AcDbEntity
  8
0
100
AcDbCircle
 10
391.6031865163954
 20
674.4132838054128
 30
0.0
 40
5.0
100
AcDbArc
 50
0.0
 51
90.0
  0
LINE
  5
2082
330
1F
100
AcDbEntity
  8
0
100
AcDbLine
 10
387.6031865163936
 20
679.413283805411
 30
0.0
 11
391.6031865163954
 21
679.413283805411
 31
0.0
  0
ARC
  5
2083
330
1F
100
AcDbEntity
  8
0
100
AcDbCircle
 10
440.103186516399
 20
675.3132838054116
 30
0.0
 40
0.5
100
AcDbArc
 50
90.0
 51
180.0
  0
LINE
  5
2084
330
1F
100
AcDbEntity
  8
0
  6
CENTER
100
AcDbLine
 10
392.6031865163955
 20
660.9132838054111
 30
0.0
 11
443.6031865163982
 21
660.913283805412
 31
0.0
  0
LINE
  5
2085
330
1F
100
AcDbEntity
  8
0
100
AcDbLine
 10
396.6031865163955
 20
648.4132838054106
 30
0.0
 11
414.6031865163954
 21
648.4132838054101
 31
0.0
  0
LINE
  5
2086
330
1F
100
AcDbEntity
  8
0
100
AcDbLine
 10
417.6031865163991
 20
648.4132838054101
 30
0.0
 11
439.603186516399
 21
648.4132838054101
 31
0.0
  0
LINE
  5
2087
330
1F
100
AcDbEntity
  8
0
100
AcDbLine
 10
414.6031865163954
 20
670.4132838054102
 30
0.0
 11
417.6031865163972
 21
670.4132838054119
 31
0.0
  0
LINE
  5
2088
330
1F
100
AcDbEntity
  8
0
100
AcDbLine
 10
371.1283679545263
 20
720.5162821341651
 30
0.0
 11
371.1283679545263
 21
796.3102854766552
 31
0.0
  0
LINE
  5
208A
330
1F
100
AcDbEntity
  8
0
100
AcDbLine
 10
365.6031865163964
 20
712.9132838054106
 30
0.0
 11
365.6031865163964
 21
803.9132838054106
 31
0.0
  0
LINE
  5
208B
330
1F
100
AcDbEntity
  8
0
100
AcDbLine
 10
368.4531865163967
 20
713.7869690346238
 30
0.0
 11
368.4531865163967
 21
803.0395985761966
 31
0.0
  0
LINE
  5
208C
330
1F
100
AcDbEntity
  8
0
100
AcDbLine
 10
372.5287828146734
 20
796.5632838054102
 30
0.0
 11
387.6031865163964
 21
796.5632838054102
 31
0.0
  0
ARC
  5
208D
330
1F
100
AcDbEntity
  8
0
100
AcDbCircle
 10
372.5287828146734
 20
798.5632838054102
 30
0.0
 40
2.0
100
AcDbArc
 50
200.0000000000137
 51
270.0
1001
GENIUS_GENODEF_13
1002
{
1000
HIER
1070
     0
1002
}
1002
{
1000
MANEDIT
1070
     0
1002
}
1002
{
1000
NOSEL
1070
     0
1002
}
1002
{
1000
BEHIND
1070
     0
1002
}
1002
{
1000
OTHER
1070
     0
1002
}
1002
{
1000
REACTOR
1002
}
1001
GENIUS_GENOBJ-N-FIL_13
1002
{
1000
OWNER
1000
GEN
1002
}
  0
LINE
  5
208E
330
1F
100
AcDbEntity
  8
0
100
AcDbLine
 10
367.8930204858293
 20
803.9132838054106
 30
0.0
 11
365.6031865163964
 21
803.9132838054106
 31
0.0
  0
LINE
  5
208F
330
1F
100
AcDbEntity
  8
0
100
AcDbLine
 10
368.6447745824585
 20
803.3868999200707
 30
0.0
 11
370.6493975731005
 21
797.8792435187592
 31
0.0
  0
ARC
  5
2090
330
1F
100
AcDbEntity
  8
0
100
AcDbCircle
 10
367.8930204858293
 20
803.1132838054103
 30
0.0
 40
0.8
100
AcDbArc
 50
20.00000000001373
 51
90.0
1001
GENIUS_GENOBJ-N-FIL_13
1002
{
1000
OWNER
1000
GEN
1002
}
1001
GENIUS_GENODEF_13
1002
{
1000
HIER
1070
     0
1002
}
1002
{
1000
MANEDIT
1070
     0
1002
}
1002
{
1000
NOSEL
1070
     0
1002
}
1002
{
1000
BEHIND
1070
     0
1002
}
1002
{
1000
OTHER
1070
     0
1002
}
1002
{
1000
REACTOR
1002
}
  0
LINE
  5
2091
330
1F
100
AcDbEntity
  8
0
100
AcDbLine
 10
372.5287828146734
 20
720.2632838054101
 30
0.0
 11
387.6031865163973
 21
720.2632838054101
 31
0.0
  0
ARC
  5
2092
330
1F
100
AcDbEntity
  8
0
100
AcDbCircle
 10
372.5287828146734
 20
718.26328380541
 30
0.0
 40
2.0
100
AcDbArc
 50
90.0
 51
159.9999999999863
1001
GENIUS_GENODEF_13
1002
{
1000
HIER
1070
     0
1002
}
1002
{
1000
MANEDIT
1070
     0
1002
}
1002
{
1000
NOSEL
1070
     0
1002
}
1002
{
1000
BEHIND
1070
     0
1002
}
1002
{
1000
OTHER
1070
     0
1002
}
1002
{
1000
REACTOR
1002
}
1001
GENIUS_GENOBJ-N-FIL_13
1002
{
1000
OWNER
1000
GEN
1002
}
  0
LINE
  5
2093
330
1F
100
AcDbEntity
  8
0
100
AcDbLine
 10
367.8930204858293
 20
712.9132838054106
 30
0.0
 11
365.6031865163964
 21
712.9132838054106
 31
0.0
  0
LINE
  5
2094
330
1F
100
AcDbEntity
  8
0
100
AcDbLine
 10
368.6447745824566
 20
713.4396676907495
 30
0.0
 11
370.6493975731005
 21
718.9473240920619
 31
0.0
  0
ARC
  5
2095
330
1F
100
AcDbEntity
  8
0
100
AcDbCircle
 10
367.8930204858293
 20
713.7132838054099
 30
0.0
 40
0.8
100
AcDbArc
 50
270.0
 51
339.9999999999651
1001
GENIUS_GENOBJ-N-FIL_13
1002
{
1000
OWNER
1000
GEN
1002
}
1001
GENIUS_GENODEF_13
1002
{
1000
HIER
1070
     0
1002
}
1002
{
1000
MANEDIT
1070
     0
1002
}
1002
{
1000
NOSEL
1070
     0
1002
}
1002
{
1000
BEHIND
1070
     0
1002
}
1002
{
1000
OTHER
1070
     0
1002
}
1002
{
1000
REACTOR
1002
}
  0
LINE
  5
2096
330
1F
100
AcDbEntity
  8
0
100
AcDbLine
 10
2472.078005078268
 20
796.3102854766621
 30
0.0
 11
2472.078005078268
 21
720.5162821341728
 31
0.0
  0
LINE
  5
2098
330
1F
100
AcDbEntity
  8
0
100
AcDbLine
 10
2477.603186516397
 20
803.9132838054174
 30
0.0
 11
2477.603186516397
 21
712.9132838054174
 31
0.0
  0
LINE
  5
2099
330
1F
100
AcDbEntity
  8
0
100
AcDbLine
 10
2474.753186516397
 20
803.0395985762034
 30
0.0
 11
2474.753186516397
 21
713.7869690346315
 31
0.0
  0
LINE
  5
209A
330
1F
100
AcDbEntity
  8
0
100
AcDbLine
 10
2470.67759021812
 20
720.2632838054169
 30
0.0
 11
2455.603186516397
 21
720.2632838054169
 31
0.0
  0
ARC
  5
209B
330
1F
100
AcDbEntity
  8
0
100
AcDbCircle
 10
2470.67759021812
 20
718.2632838054169
 30
0.0
 40
2.0
100
AcDbArc
 50
20.00000000000148
 51
90.0
1001
GENIUS_GENODEF_13
1002
{
1000
HIER
1070
     0
1002
}
1002
{
1000
MANEDIT
1070
     0
1002
}
1002
{
1000
NOSEL
1070
     0
1002
}
1002
{
1000
BEHIND
1070
     0
1002
}
1002
{
1000
OTHER
1070
     0
1002
}
1002
{
1000
REACTOR
1002
}
1001
GENIUS_GENOBJ-N-FIL_13
1002
{
1000
OWNER
1000
GEN
1002
}
  0
LINE
  5
209C
330
1F
100
AcDbEntity
  8
0
100
AcDbLine
 10
2475.313352546964
 20
712.9132838054174
 30
0.0
 11
2477.603186516397
 21
712.9132838054174
 31
0.0
  0
LINE
  5
209D
330
1F
100
AcDbEntity
  8
0
100
AcDbLine
 10
2474.561598450335
 20
713.4396676907572
 30
0.0
 11
2472.556975459693
 21
718.9473240920688
 31
0.0
  0
ARC
  5
209E
330
1F
100
AcDbEntity
  8
0
100
AcDbCircle
 10
2475.313352546964
 20
713.7132838054176
 30
0.0
 40
0.8
100
AcDbArc
 50
200.0000000000015
 51
270.0
1001
GENIUS_GENOBJ-N-FIL_13
1002
{
1000
OWNER
1000
GEN
1002
}
1001
GENIUS_GENODEF_13
1002
{
1000
HIER
1070
     0
1002
}
1002
{
1000
MANEDIT
1070
     0
1002
}
1002
{
1000
NOSEL
1070
     0
1002
}
1002
{
1000
BEHIND
1070
     0
1002
}
1002
{
1000
OTHER
1070
     0
1002
}
1002
{
1000
REACTOR
1002
}
  0
LINE
  5
209F
330
1F
100
AcDbEntity
  8
0
100
AcDbLine
 10
2470.67759021812
 20
796.5632838054171
 30
0.0
 11
2455.603186516396
 21
796.5632838054171
 31
0.0
  0
ARC
  5
20A0
330
1F
100
AcDbEntity
  8
0
100
AcDbCircle
 10
2470.67759021812
 20
798.563283805417
 30
0.0
 40
2.0
100
AcDbArc
 50
270.0
 51
339.9999999999985
1001
GENIUS_GENODEF_13
1002
{
1000
HIER
1070
     0
1002
}
1002
{
1000
MANEDIT
1070
     0
1002
}
1002
{
1000
NOSEL
1070
     0
1002
}
1002
{
1000
BEHIND
1070
     0
1002
}
1002
{
1000
OTHER
1070
     0
1002
}
1002
{
1000
REACTOR
1002
}
1001
GENIUS_GENOBJ-N-FIL_13
1002
{
1000
OWNER
1000
GEN
1002
}
  0
LINE
  5
20A1
330
1F
100
AcDbEntity
  8
0
100
AcDbLine
 10
2475.313352546964
 20
803.9132838054174
 30
0.0
 11
2477.603186516397
 21
803.9132838054174
 31
0.0
  0
LINE
  5
20A2
330
1F
100
AcDbEntity
  8
0
100
AcDbLine
 10
2474.561598450337
 20
803.3868999200777
 30
0.0
 11
2472.556975459693
 21
797.8792435187661
 31
0.0
  0
ARC
  5
20A3
330
1F
100
AcDbEntity
  8
0
100
AcDbCircle
 10
2475.313352546964
 20
803.1132838054173
 30
0.0
 40
0.8
100
AcDbArc
 50
90.0
 51
159.9999999999985
1001
GENIUS_GENOBJ-N-FIL_13
1002
{
1000
OWNER
1000
GEN
1002
}
1001
GENIUS_GENODEF_13
1002
{
1000
HIER
1070
     0
1002
}
1002
{
1000
MANEDIT
1070
     0
1002
}
1002
{
1000
NOSEL
1070
     0
1002
}
1002
{
1000
BEHIND
1070
     0
1002
}
1002
{
1000
OTHER
1070
     0
1002
}
1002
{
1000
REACTOR
1002
}
  0
LINE
  5
20AE
330
1F
100
AcDbEntity
  8
0
100
AcDbLine
 10
2403.103186516393
 20
841.013283805395
 30
0.0
 11
2360.423440193297
 21
841.0132838053948
 31
0.0
  0
LINE
  5
20AF
330
1F
100
AcDbEntity
  8
0
100
AcDbLine
 10
2172.782932839488
 20
841.0132838053854
 30
0.0
 11
1457.603186516393
 21
841.0132838053533
 31
0.0
  0
LINE
  5
20D7
330
1F
100
AcDbEntity
  8
0
100
AcDbLine
 10
2360.423440193321
 20
675.813283805397
 30
0.0
 11
2403.103186516393
 21
675.8132838053962
 31
0.0
  0
TEXT
  5
20DF
330
1F
100
AcDbEntity
  8
0
100
AcDbText
 10
990.6508055640205
 20
941.5632838053479
 30
0.0
 40
50.0
  1
150AX2000L-125AX3S
 72
     4
 11
1421.603186516402
 21
966.5632838053479
 31
0.0
100
AcDbText
  0
LINE
  5
587E
330
1F
100
AcDbEntity
  8
0
  6
CENTER
100
AcDbLine
 10
-26.72997001343856
 20
-82.26638865955193
 30
0.0
 11
-33.52834388968631
 21
-103.1896320180467
 31
0.0
  0
LINE
  5
587F
330
1F
100
AcDbEntity
  8
0
  6
CENTER
100
AcDbLine
 10
26.72997001343992
 20
-82.26638865955056
 30
0.0
 11
33.52834388968995
 21
-103.1896320180453
 31
0.0
  0
LINE
  5
5880
330
1F
100
AcDbEntity
  8
0
  6
CENTER
100
AcDbLine
 10
26.72997001343856
 20
82.26638865954965
 30
0.0
 11
33.52834388968631
 21
103.1896320180426
 31
0.0
  0
LINE
  5
5881
330
1F
100
AcDbEntity
  8
0
  6
CENTER
100
AcDbLine
 10
-26.72997001343947
 20
82.26638865954829
 30
0.0
 11
-33.5283438896895
 21
103.1896320180412
 31
0.0
  0
LINE
  5
5882
330
1F
100
AcDbEntity
  8
0
  6
CENTER
100
AcDbLine
 10
-69.97997001344993
 20
50.84342432330913
 30
0.0
 11
-87.77834388969996
 21
63.77469987374183
 31
0.0
  0
LINE
  5
5883
330
1F
100
AcDbEntity
  8
0
  6
CENTER
100
AcDbLine
 10
69.97997001344856
 20
50.84342432330959
 30
0.0
 11
87.77834388969722
 21
63.77469987374547
 31
0.0
  0
LINE
  5
5884
330
1F
100
AcDbEntity
  8
0
  6
CENTER
100
AcDbLine
 10
-69.97997001344902
 20
-50.84342432331368
 30
0.0
 11
-87.77834388969768
 21
-63.77469987374775
 31
0.0
  0
LINE
  5
5885
330
1F
100
AcDbEntity
  8
0
  6
CENTER
100
AcDbLine
 10
69.97997001344993
 20
-50.84342432331141
 30
0.0
 11
87.77834388969996
 21
-63.77469987374593
 31
0.0
  0
LINE
  5
5886
330
1F
100
AcDbEntity
  8
0
  6
CENTER
100
AcDbLine
 10
-128.1457031754817
 20
0.0000000000011369
 30
0.0
 11
128.1457031754817
 21
-0.0000000000011369
 31
0.0
  0
LINE
  5
5887
330
1F
100
AcDbEntity
  8
0
  6
CENTER
100
AcDbLine
 10
-0.000000000001819
 20
-173.0
 30
0.0
 11
0.000000000001819
 21
173.0
 31
0.0
  0
ARC
  5
5888
330
1F
100
AcDbEntity
  8
0
100
AcDbCircle
 10
0.0
 20
-0.0000000000002274
 30
0.0
 40
79.00000000001615
100
AcDbArc
 50
288.2738895665734
 51
251.726110433373
  0
LINE
  5
5889
330
1F
100
AcDbEntity
  8
0
  6
CENTER
100
AcDbLine
 10
53.92571967168942
 20
-36.85000000000036
 30
0.0
 11
-53.92571967169397
 21
-36.84999999999945
 31
0.0
  0
LINE
  5
588A
330
1F
100
AcDbEntity
  8
0
100
AcDbLine
 10
124.9999999999982
 20
-145.0000000000013
 30
0.0
 11
-125.0000000000018
 21
-144.9999999999986
 31
0.0
  0
LINE
  5
588B
330
1F
100
AcDbEntity
  8
0
100
AcDbLine
 10
-125.0000000000018
 20
-164.9999999999986
 30
0.0
 11
124.9999999999982
 21
-165.0000000000013
 31
0.0
  0
LINE
  5
588C
330
1F
100
AcDbEntity
  8
0
  6
CENTER
100
AcDbLine
 10
-105.0000000000018
 20
-172.9999999999991
 30
0.0
 11
-105.0000000000013
 21
-134.9999999999991
 31
0.0
  0
LINE
  5
588D
330
1F
100
AcDbEntity
  8
0
100
AcDbLine
 10
-125.0000000000018
 20
-144.9999999999986
 30
0.0
 11
-125.0000000000018
 21
-164.9999999999986
 31
0.0
  0
LINE
  5
588E
330
1F
100
AcDbEntity
  8
0
  6
CENTER
100
AcDbLine
 10
104.9999999999982
 20
-173.0000000000009
 30
0.0
 11
104.9999999999986
 21
-135.0000000000009
 31
0.0
  0
LINE
  5
588F
330
1F
100
AcDbEntity
  8
0
100
AcDbLine
 10
124.9999999999982
 20
-165.0000000000013
 30
0.0
 11
124.9999999999982
 21
-145.0000000000013
 31
0.0
  0
LINE
  5
5890
330
1F
100
AcDbEntity
  8
0
100
AcDbLine
 10
-69.90000000000327
 20
-144.9999999999995
 30
0.0
 11
-69.90000000000055
 21
-84.93521060198464
 31
0.0
  0
LINE
  5
5891
330
1F
100
AcDbEntity
  8
0
100
AcDbLine
 10
69.89999999999781
 20
-145.0000000000004
 30
0.0
 11
69.89999999999918
 21
-84.93521060198577
 31
0.0
  0
LINE
  5
5892
330
1F
100
AcDbEntity
  8
0
100
AcDbLine
 10
125.0000000000013
 20
144.9999999999991
 30
0.0
 11
-124.9999999999986
 21
145.0000000000009
 31
0.0
  0
LINE
  5
5893
330
1F
100
AcDbEntity
  8
0
100
AcDbLine
 10
-124.9999999999982
 20
165.0000000000009
 30
0.0
 11
125.0000000000018
 21
164.9999999999991
 31
0.0
  0
LINE
  5
5894
330
1F
100
AcDbEntity
  8
0
  6
CENTER
100
AcDbLine
 10
-104.9999999999982
 20
173.0000000000009
 30
0.0
 11
-104.9999999999986
 21
135.0000000000009
 31
0.0
  0
LINE
  5
5895
330
1F
100
AcDbEntity
  8
0
100
AcDbLine
 10
-124.9999999999986
 20
145.0000000000009
 30
0.0
 11
-124.9999999999982
 21
165.0000000000009
 31
0.0
  0
LINE
  5
5896
330
1F
100
AcDbEntity
  8
0
  6
CENTER
100
AcDbLine
 10
105.0000000000018
 20
172.9999999999991
 30
0.0
 11
105.0000000000013
 21
134.9999999999991
 31
0.0
  0
LINE
  5
5897
330
1F
100
AcDbEntity
  8
0
100
AcDbLine
 10
125.0000000000018
 20
164.9999999999991
 30
0.0
 11
125.0000000000013
 21
144.9999999999991
 31
0.0
  0
LINE
  5
5898
330
1F
100
AcDbEntity
  8
0
100
AcDbLine
 10
-69.90000000000009
 20
145.0000000000009
 30
0.0
 11
-69.89999999999873
 21
84.93521060198601
 31
0.0
  0
LINE
  5
5899
330
1F
100
AcDbEntity
  8
0
100
AcDbLine
 10
69.900000000001
 20
144.9999999999991
 30
0.0
 11
69.900000000001
 21
84.93521060198441
 31
0.0
  0
CIRCLE
  5
58EE
330
1F
100
AcDbEntity
  8
0
100
AcDbCircle
 10
-30.12915695156244
 20
-92.72801033879932
 30
0.0
 40
7.0
  0
CIRCLE
  5
58EF
330
1F
100
AcDbEntity
  8
0
100
AcDbCircle
 10
30.12915695156517
 20
-92.72801033879796
 30
0.0
 40
7.0
  0
CIRCLE
  5
58F0
330
1F
100
AcDbEntity
  8
0
  6
CENTER
100
AcDbCircle
 10
0.0
 20
-0.0000000000011369
 30
0.0
 40
97.5
  0
CIRCLE
  5
58F1
330
1F
100
AcDbEntity
  8
0
100
AcDbCircle
 10
30.12915695156153
 20
92.72801033879705
 30
0.0
 40
7.0
  0
CIRCLE
  5
58F2
330
1F
100
AcDbEntity
  8
0
100
AcDbCircle
 10
-30.12915695156517
 20
92.72801033879387
 30
0.0
 40
7.0
  0
CIRCLE
  5
58F3
330
1F
100
AcDbEntity
  8
0
100
AcDbCircle
 10
-78.87915695157471
 20
57.30906209852538
 30
0.0
 40
7.0
  0
CIRCLE
  5
58F4
330
1F
100
AcDbEntity
  8
0
100
AcDbCircle
 10
78.87915695157198
 20
57.30906209852765
 30
0.0
 40
7.0
  0
CIRCLE
  5
58F5
330
1F
100
AcDbEntity
  8
0
100
AcDbCircle
 10
-97.50000000002092
 20
-0.0000000000038654
 30
0.0
 40
7.0
  0
CIRCLE
  5
58F6
330
1F
100
AcDbEntity
  8
0
100
AcDbCircle
 10
-78.87915695157335
 20
-57.30906209852992
 30
0.0
 40
7.0
  0
CIRCLE
  5
58F7
330
1F
100
AcDbEntity
  8
0
100
AcDbCircle
 10
78.87915695157471
 20
-57.30906209852765
 30
0.0
 40
7.0
  0
CIRCLE
  5
58F8
330
1F
100
AcDbEntity
  8
0
100
AcDbCircle
 10
97.50000000002001
 20
-0.0000000000002274
 30
0.0
 40
7.0
  0
CIRCLE
  5
58F9
330
1F
100
AcDbEntity
  8
0
100
AcDbCircle
 10
0.0
 20
-0.0000000000011369
 30
0.0
 40
110.0000000000152
  0
CIRCLE
  5
58FA
330
1F
100
AcDbEntity
  8
0
100
AcDbCircle
 10
-0.0000000000004547
 20
-36.84999999999991
 30
0.0
 40
45.49999999999999
  0
LINE
  5
5DB9
330
1F
100
AcDbEntity
  8
0
  6
CENTER
100
AcDbLine
 10
2266.603186516397
 20
920.4750418849581
 30
0.0
 11
2266.603186516397
 21
596.3515257258059
 31
0.0
  0
LINE
  5
5DBA
330
1F
100
AcDbEntity
  8
0
  6
CENTER
100
AcDbLine
 10
2298.557253118881
 20
681.2693428406892
 30
0.0
 11
2315.01264071058
 21
641.5425229427037
 31
0.0
  0
LINE
  5
5DBB
330
1F
100
AcDbEntity
  8
0
  6
CENTER
100
AcDbLine
 10
2298.557253118881
 20
835.5572247700747
 30
0.0
 11
2315.01264071058
 21
875.2840446680602
 31
0.0
  0
LINE
  5
5DBC
330
1F
100
AcDbEntity
  8
0
  6
CENTER
100
AcDbLine
 10
2189.459245551705
 20
790.3673504078669
 30
0.0
 11
2149.732425653718
 21
806.822737999566
 31
0.0
  0
LINE
  5
5DBD
330
1F
100
AcDbEntity
  8
0
  6
CENTER
100
AcDbLine
 10
2234.649119913911
 20
835.5572247700747
 30
0.0
 11
2218.193732322212
 21
875.2840446680602
 31
0.0
  0
LINE
  5
5DBE
330
1F
100
AcDbEntity
  8
0
  6
CENTER
100
AcDbLine
 10
2189.459245551705
 20
726.459217202897
 30
0.0
 11
2149.732425653718
 21
710.0038296111979
 31
0.0
  0
LINE
  5
5DBF
330
1F
100
AcDbEntity
  8
0
  6
CENTER
100
AcDbLine
 10
2234.649119913911
 20
681.2693428406892
 30
0.0
 11
2218.193732322212
 21
641.5425229427037
 31
0.0
  0
LINE
  5
5DC0
330
1F
100
AcDbEntity
  8
0
  6
CENTER
100
AcDbLine
 10
2343.747127481089
 20
790.3673504078669
 30
0.0
 11
2383.473947379074
 21
806.822737999566
 31
0.0
  0
LINE
  5
5DC1
330
1F
100
AcDbEntity
  8
0
  6
CENTER
100
AcDbLine
 10
2343.747127481089
 20
726.459217202897
 30
0.0
 11
2383.473947379074
 21
710.0038296111979
 31
0.0
  0
LINE
  5
5DC2
330
1F
100
AcDbEntity
  8
0
  6
CENTER
100
AcDbLine
 10
608.5572531188793
 20
681.2693428406882
 30
0.0
 11
625.0126407105783
 21
641.5425229427028
 31
0.0
  0
LINE
  5
5DC3
330
1F
100
AcDbEntity
  8
0
  6
CENTER
100
AcDbLine
 10
608.5572531188793
 20
835.5572247700738
 30
0.0
 11
625.0126407105783
 21
875.2840446680593
 31
0.0
  0
LINE
  5
5DC4
330
1F
100
AcDbEntity
  8
0
  6
CENTER
100
AcDbLine
 10
544.6491199139093
 20
835.5572247700738
 30
0.0
 11
528.1937323222102
 21
875.2840446680593
 31
0.0
  0
LINE
  5
5DC5
330
1F
100
AcDbEntity
  8
0
  6
CENTER
100
AcDbLine
 10
544.6491199139093
 20
681.2693428406882
 30
0.0
 11
528.1937323222102
 21
641.5425229427028
 31
0.0
  0
ARC
  5
5DC6
330
1F
100
AcDbEntity
  8
0
  6
CENTER
100
AcDbCircle
 10
576.6031865163951
 20
758.413283805381
 30
0.0
 40
105.0
100
AcDbArc
 50
51.87508837798094
 51
128.124911622019
  0
ARC
  5
5DC7
330
1F
100
AcDbEntity
  8
0
  6
CENTER
100
AcDbCircle
 10
576.6031865163951
 20
758.413283805381
 30
0.0
 40
105.0
100
AcDbArc
 50
231.8750883779158
 51
308.1249116220842
  0
ARC
  5
5DC8
330
1F
100
AcDbEntity
  8
0
100
AcDbCircle
 10
576.6031865163951
 20
758.413283805381
 30
0.0
 40
125.0
100
AcDbArc
 50
41.36091391044728
 51
138.6390860895527
  0
ARC
  5
5DC9
330
1F
100
AcDbEntity
  8
0
100
AcDbCircle
 10
576.6031865163951
 20
758.413283805381
 30
0.0
 40
125.0
100
AcDbArc
 50
221.3609139104375
 51
318.6390860895625
  0
LINE
  5
5DCA
330
1F
100
AcDbEntity
  8
0
  6
CENTER
100
AcDbLine
 10
576.6031865163951
 20
920.4750418849217
 30
0.0
 11
576.6031865163951
 21
596.3515257257686
 31
0.0
  0
CIRCLE
  5
5DCB
330
1F
100
AcDbEntity
  8
0
100
AcDbCircle
 10
616.7849469147297
 20
661.4059328916964
 30
0.0
 40
11.5
  0
CIRCLE
  5
5DCC
330
1F
100
AcDbEntity
  8
0
100
AcDbCircle
 10
616.7849469147297
 20
855.4206347190657
 30
0.0
 40
11.5
  0
CIRCLE
  5
5DCD
330
1F
100
AcDbEntity
  8
0
100
AcDbCircle
 10
536.4214261180607
 20
855.4206347190657
 30
0.0
 40
11.5
  0
CIRCLE
  5
5DCE
330
1F
100
AcDbEntity
  8
0
100
AcDbCircle
 10
536.4214261180607
 20
661.4059328916964
 30
0.0
 40
11.5
  0
CIRCLE
  5
5DCF
330
1F
100
AcDbEntity
  8
0
100
AcDbCircle
 10
2306.784946914731
 20
661.4059328916973
 30
0.0
 40
11.5
  0
CIRCLE
  5
5DD0
330
1F
100
AcDbEntity
  8
0
100
AcDbCircle
 10
2306.784946914731
 20
855.4206347190666
 30
0.0
 40
11.5
  0
CIRCLE
  5
5DD1
330
1F
100
AcDbEntity
  8
0
  6
CENTER
100
AcDbCircle
 10
2266.603186516397
 20
758.4132838053819
 30
0.0
 40
105.0
  0
CIRCLE
  5
5DD2
330
1F
100
AcDbEntity
  8
0
100
AcDbCircle
 10
2266.603186516397
 20
758.4132838053819
 30
0.0
 40
125.0
  0
CIRCLE
  5
5DD3
330
1F
100
AcDbEntity
  8
0
100
AcDbCircle
 10
2169.595835602711
 20
798.5950442037164
 30
0.0
 40
11.5
  0
CIRCLE
  5
5DD4
330
1F
100
AcDbEntity
  8
0
100
AcDbCircle
 10
2226.421426118062
 20
855.4206347190666
 30
0.0
 40
11.5
  0
CIRCLE
  5
5DD5
330
1F
100
AcDbEntity
  8
0
100
AcDbCircle
 10
2169.595835602711
 20
718.2315234070475
 30
0.0
 40
11.5
  0
CIRCLE
  5
5DD6
330
1F
100
AcDbEntity
  8
0
100
AcDbCircle
 10
2226.421426118062
 20
661.4059328916973
 30
0.0
 40
11.5
  0
CIRCLE
  5
5DD7
330
1F
100
AcDbEntity
  8
0
100
AcDbCircle
 10
2363.610537430082
 20
798.5950442037164
 30
0.0
 40
11.5
  0
CIRCLE
  5
5DD8
330
1F
100
AcDbEntity
  8
0
100
AcDbCircle
 10
2363.610537430082
 20
718.2315234070475
 30
0.0
 40
11.5
  0
CIRCLE
  5
5DD9
330
1F
100
AcDbEntity
  8
0
100
AcDbCircle
 10
2266.603186516397
 20
758.4132838053819
 30
0.0
 40
69.90000000000145
  0
LINE
  5
5DE4
330
1F
100
AcDbEntity
  8
0
  6
CENTER
100
AcDbLine
 10
576.6031865163951
 20
-174.9999999999841
 30
0.0
 11
576.6031865163951
 21
30.00000000001501
 31
0.0
  0
LINE
  5
5DE5
330
1F
100
AcDbEntity
  8
0
100
AcDbLine
 10
451.6031865163954
 20
-144.9999999999836
 30
0.0
 11
701.6031865163952
 21
-144.9999999999836
 31
0.0
  0
LINE
  5
5DE6
330
1F
100
AcDbEntity
  8
0
100
AcDbLine
 10
701.6031865163952
 20
-164.9999999999841
 30
0.0
 11
451.6031865163954
 21
-164.9999999999841
 31
0.0
  0
LINE
  5
5DE7
330
1F
100
AcDbEntity
  8
0
  6
CENTER
100
AcDbLine
 10
681.6031865163952
 20
-172.999999999984
 30
0.0
 11
681.6031865163952
 21
-134.9999999999836
 31
0.0
  0
LINE
  5
5DE8
330
1F
100
AcDbEntity
  8
0
100
AcDbLine
 10
701.6031865163952
 20
-144.9999999999836
 30
0.0
 11
701.6031865163952
 21
-164.9999999999841
 31
0.0
  0
LINE
  5
5DE9
330
1F
100
AcDbEntity
  8
0
  6
CENTER
100
AcDbLine
 10
471.6031865163954
 20
-172.999999999984
 30
0.0
 11
471.6031865163954
 21
-134.9999999999836
 31
0.0
  0
LINE
  5
5DEA
330
1F
100
AcDbEntity
  8
0
100
AcDbLine
 10
451.6031865163954
 20
-164.9999999999841
 30
0.0
 11
451.6031865163954
 21
-144.9999999999836
 31
0.0
  0
LINE
  5
5DEB
330
1F
100
AcDbEntity
  8
0
100
AcDbLine
 10
646.5031865163966
 20
-144.9999999999841
 30
0.0
 11
646.5031865163949
 21
-82.5999999999899
 31
0.0
  0
LINE
  5
5DEC
330
1F
100
AcDbEntity
  8
0
100
AcDbLine
 10
506.7031865163955
 20
-144.9999999999841
 30
0.0
 11
506.7031865163946
 21
-82.59999999999582
 31
0.0
  0
ARC
  5
5DED
330
1F
100
AcDbEntity
  8
0
100
AcDbCircle
 10
576.603186516397
 20
-126.6085219020224
 30
0.0
 40
82.60000000000877
100
AcDbArc
 50
32.19421408869996
 51
147.8057859113
  0
LINE
  5
5DEE
330
1F
100
AcDbEntity
  8
0
  6
CENTER
100
AcDbLine
 10
2266.604849193623
 20
174.9999999999902
 30
0.0
 11
2266.604849193623
 21
-0.0000000000102318
 31
0.0
  0
LINE
  5
5DEF
330
1F
100
AcDbEntity
  8
0
100
AcDbLine
 10
2391.604849193623
 20
144.9999999999898
 30
0.0
 11
2141.604849193623
 21
144.9999999999898
 31
0.0
  0
LINE
  5
5DF0
330
1F
100
AcDbEntity
  8
0
100
AcDbLine
 10
2141.604849193623
 20
164.9999999999902
 30
0.0
 11
2391.604849193623
 21
164.9999999999902
 31
0.0
  0
LINE
  5
5DF1
330
1F
100
AcDbEntity
  8
0
  6
CENTER
100
AcDbLine
 10
2161.604849193623
 20
172.9999999999902
 30
0.0
 11
2161.604849193623
 21
134.9999999999897
 31
0.0
  0
LINE
  5
5DF2
330
1F
100
AcDbEntity
  8
0
100
AcDbLine
 10
2141.604849193623
 20
144.9999999999898
 30
0.0
 11
2141.604849193623
 21
164.9999999999902
 31
0.0
  0
LINE
  5
5DF3
330
1F
100
AcDbEntity
  8
0
  6
CENTER
100
AcDbLine
 10
2371.604849193623
 20
172.9999999999902
 30
0.0
 11
2371.604849193623
 21
134.9999999999897
 31
0.0
  0
LINE
  5
5DF4
330
1F
100
AcDbEntity
  8
0
100
AcDbLine
 10
2391.604849193623
 20
164.9999999999902
 30
0.0
 11
2391.604849193623
 21
144.9999999999898
 31
0.0
  0
LINE
  5
5DF5
330
1F
100
AcDbEntity
  8
0
100
AcDbLine
 10
2196.704849193622
 20
144.9999999999902
 30
0.0
 11
2196.704849193624
 21
82.59999999999605
 31
0.0
  0
LINE
  5
5DF6
330
1F
100
AcDbEntity
  8
0
100
AcDbLine
 10
2336.504849193623
 20
144.9999999999902
 30
0.0
 11
2336.504849193624
 21
82.60000000000195
 31
0.0
  0
ARC
  5
5DF7
330
1F
100
AcDbEntity
  8
0
100
AcDbCircle
 10
2266.604849193621
 20
126.6085219020285
 30
0.0
 40
82.60000000000877
100
AcDbArc
 50
212.1942140887
 51
327.8057859113
  0
CIRCLE
  5
5DF8
330
1F
100
AcDbEntity
  8
0
100
AcDbCircle
 10
-0.0000000000003908
 20
-36.84999999999991
 30
0.0
 40
38.15
  0
ENDSEC
  0
SECTION
  2
OBJECTS
  0
DICTIONARY
  5
C
330
0
100
AcDbDictionary
281
     1
  3
ACAD_2007HEADERVARS_RT
350
5E4D
  3
ACAD_COLOR
350
51E
  3
ACAD_GROUP
350
D
  3
ACAD_LAYOUT
350
1A
  3
ACAD_MATERIAL
350
51D
  3
ACAD_MLEADERSTYLE
350
605
  3
ACAD_MLINESTYLE
350
17
  3
ACAD_PLOTSETTINGS
350
19
  3
ACAD_PLOTSTYLENAME
350
E
  3
ACAD_SCALELIST
350
5E3
  3
ACAD_TABLESTYLE
350
51F
  3
ACAD_VISUALSTYLE
350
5AF
  3
AcadDim
350
414
  3
ACDB_RECOMPOSE_DATA
350
5E4C
  3
ACDBHEADERROUNDTRIPXREC
350
59EE
  3
AcDbVariableDictionary
350
34
  3
AcmDictionary
350
49
  3
AMG
350
2B
  3
AMGSNAPSETTINGS
350
E5
  3
ASE_INDEX_DICTIONARY
350
2E7
  0
DICTIONARY
  5
5312
330
8
100
AcDbDictionary
280
     1
281
     1
  0
DICTIONARY
  5
D1
330
2
100
AcDbDictionary
280
     1
281
     1
  3
ACAD_LAYERFILTERS
360
7D3
  3
ACAD_LAYERSTATES
360
88B
  3
ACLYDICTIONARY
360
7D2
  3
AMLAYER_GROUPCOLORS
360
D2
  0
DICTIONARY
  5
789
330
10
100
AcDbDictionary
280
     1
281
     1
  3
ADSK_XREC_LAYER_RECONCILED
360
E7C
  0
DICTIONARY
  5
82
330
1F
100
AcDbDictionary
280
     1
281
     1
  3
ACAD_LAYOUTSELFREF
360
5A16
  3
ACAD_SORTENTS
360
D2A
  0
DICTIONARY
  5
59D6
330
1B
100
AcDbDictionary
280
     1
281
     1
  3
ACAD_LAYOUTSELFREF
360
5A15
  0
DICTIONARY
  5
59D8
330
23
100
AcDbDictionary
280
     1
281
     1
  3
ACAD_LAYOUTSELFREF
360
5A17
  0
DICTIONARY
  5
5B59
330
5A37
100
AcDbDictionary
280
     1
281
     1
  3
ACAD_SORTENTS
360
5B5A
  0
DICTIONARY
  5
5E4D
102
{ACAD_REACTORS
330
C
102
}
330
C
100
AcDbDictionary
281
     1
  3
DIMARCSYM
350
5E4E
  3
DIMLTEX1
350
5E50
  3
DIMLTEX2
350
5E51
  3
DIMLTYPE
350
5E4F
  0
DICTIONARY
  5
51E
102
{ACAD_REACTORS
330
C
102
}
330
C
100
AcDbDictionary
281
     1
  0
DICTIONARY
  5
D
102
{ACAD_REACTORS
330
C
102
}
330
C
100
AcDbDictionary
281
     1
  0
DICTIONARY
  5
1A
102
{ACAD_REACTORS
330
C
102
}
330
C
100
AcDbDictionary
281
     1
  3
Layout1
350
1E
  3
Layout2
350
26
  3
Model
350
22
  0
DICTIONARY
  5
51D
102
{ACAD_REACTORS
330
C
102
}
330
C
100
AcDbDictionary
281
     1
  3
ByBlock
350
5AD
  3
ByLayer
350
5AC
  3
Global
350
5AE
  0
DICTIONARY
  5
605
102
{ACAD_REACTORS
330
C
102
}
330
C
100
AcDbDictionary
281
     1
  3
Standard
350
606
  3
TSKE
350
719
  0
DICTIONARY
  5
17
102
{ACAD_REACTORS
330
C
102
}
330
C
100
AcDbDictionary
281
     1
  3
Standard
350
18
  0
DICTIONARY
  5
19
102
{ACAD_REACTORS
330
C
102
}
330
C
100
AcDbDictionary
281
     1
  0
ACDBDICTIONARYWDFLT
  5
E
102
{ACAD_REACTORS
330
C
102
}
330
C
100
AcDbDictionary
281
     1
  3
Normal
350
F
100
AcDbDictionaryWithDefault
340
F
  0
DICTIONARY
  5
5E3
102
{ACAD_REACTORS
330
C
102
}
330
C
100
AcDbDictionary
281
     1
  3
A0
350
5E4
  3
A1
350
5E5
  3
A2
350
5E6
  3
A3
350
5E7
  3
A4
350
5E8
  3
A5
350
5E9
  3
A6
350
5EA
  3
A7
350
5EB
  3
A8
350
5EC
  3
A9
350
5ED
  3
B0
350
5EE
  3
B1
350
5EF
  3
B2
350
5F0
  3
B3
350
5F1
  3
B4
350
5F2
  3
B5
350
5F3
  3
B6
350
5F4
  3
B7
350
5F5
  3
B8
350
5F6
  3
B9
350
5F7
  3
C0
350
5F8
  3
C1
350
5F9
  3
C2
350
5FA
  3
C3
350
5FB
  3
C4
350
5FC
  3
C5
350
5FD
  3
C6
350
5FE
  3
C7
350
5FF
  3
C8
350
600
  3
C9
350
601
  3
D0
350
602
  3
D1
350
603
  3
D2
350
604
  0
DICTIONARY
  5
51F
102
{ACAD_REACTORS
330
C
102
}
330
C
100
AcDbDictionary
281
     1
  3
Standard
350
520
  0
DICTIONARY
  5
5AF
102
{ACAD_REACTORS
330
C
102
}
330
C
100
AcDbDictionary
281
     1
  3
2dWireframe
350
5B5
  3
3D Hidden
350
5B7
  3
3dWireframe
350
5B6
  3
Basic
350
5B4
  3
Brighten
350
5BB
  3
ColorChange
350
5BF
  3
Conceptual
350
5B8
  3
Dim
350
5BA
  3
EdgeColorOff
350
5A32
  3
Facepattern
350
5BE
  3
Flat
350
5B0
  3
FlatWithEdges
350
5B1
  3
Gouraud
350
5B2
  3
GouraudWithEdges
350
5B3
  3
Hidden
350
5A2A
  3
JitterOff
350
5A30
  3
Linepattern
350
5BD
  3
OverhangOff
350
5A31
  3
Realistic
350
5B9
  3
Shaded
350
5A2F
  3
Shaded with edges
350
5A2E
  3
Shades of Gray
350
5A2B
  3
Sketchy
350
5A2C
  3
Thicken
350
5BC
  3
Wireframe
350
5A29
  3
X-Ray
350
5A2D
  0
XRECORD
  5
414
102
{ACAD_REACTORS
330
C
102
}
330
C
100
AcDbXrecord
280
     1
 90
   990106
  3

 60
     0
 61
     0
 62
     4
 63
     4
 64
     1
 65
     0
 66
     0
 67
     3
 68
     1
 69
     0
 70
     0
 71
     0
 72
     0
 40
0.0
170
     2
  0
XRECORD
  5
5E4C
102
{ACAD_REACTORS
330
C
102
}
330
C
100
AcDbXrecord
280
     1
 90
        1
330
520
  0
DICTIONARY
  5
59EE
102
{ACAD_REACTORS
330
C
102
}
330
C
100
AcDbDictionary
281
     1
  3
CEPSNTYPE
350
59F8
  3
DIMSTYLEDATA
350
59FC
  3
FINGERPRINTGUID
350
59F9
  3
HYPERLINKBASE
350
59F1
  3
INSUNITS
350
59F7
  3
LAYOUTDICT
350
59F3
  3
LWETCUNION
350
59F6
  3
PLOTSETDICT
350
59F4
  3
PLOTSTYLNAMDICT
350
59F5
  3
PSVPSCALE
350
59FB
  3
PUCSBASE
350
59FF
  3
PUCSORGBACK
350
5A05
  3
PUCSORGBOTTOM
350
5A01
  3
PUCSORGFRONT
350
5A04
  3
PUCSORGLEFT
350
5A02
  3
PUCSORGRIGHT
350
5A03
  3
PUCSORGTOP
350
5A00
  3
PUCSORTHOREF
350
59FD
  3
PUCSORTHOVIEW
350
59FE
  3
STYLESHEET
350
59F2
  3
TSTACKALIGN
350
59EF
  3
TSTACKSIZE
350
59F0
  3
UCSBASE
350
5A08
  3
UCSORGBACK
350
5A0E
  3
UCSORGBOTTOM
350
5A0A
  3
UCSORGFRONT
350
5A0D
  3
UCSORGLEFT
350
5A0B
  3
UCSORGRIGHT
350
5A0C
  3
UCSORGTOP
350
5A09
  3
UCSORTHOREF
350
5A06
  3
UCSORTHOVIEW
350
5A07
  3
VERSIONGUID
350
59FA
  0
DICTIONARY
  5
34
102
{ACAD_REACTORS
330
C
102
}
330
C
100
AcDbDictionary
281
     1
  3
CANNOSCALE
350
629
  3
CMLEADERSTYLE
350
627
  3
CTABLESTYLE
350
5AA
  3
DIMASSOC
350
AC
  3
INDEXCTL
350
35
  3
LAYEREVAL
350
6C0
  3
LAYERNOTIFY
350
6C1
  3
LIGHTINGUNITS
350
62A
  3
MSLTSCALE
350
628
  3
SORTENTS
350
5326
  3
XCLIPFRAME
350
5E4A
  0
DICTIONARY
  5
49
102
{ACAD_REACTORS
330
C
102
}
330
C
100
AcDbDictionary
281
     1
  3
AcmStdDictionary
350
4A
  3
AMDTSECTSYM_ARROWCOLOR
350
56E
  0
DICTIONARY
  5
2B
102
{ACAD_REACTORS
330
C
102
}
330
C
100
AcDbDictionary
281
     1
  0
DICTIONARY
  5
E5
102
{ACAD_REACTORS
330
C
102
}
330
C
100
AcDbDictionary
281
     1
  0
DICTIONARY
  5
2E7
102
{ACAD_REACTORS
330
C
102
}
330
C
100
AcDbDictionary
281
     1
  3
ASEBlockHierarchyIndexRecord
350
2E9
1001
DCO15
1040
1468142506.343
  0
DICTIONARY
  5
7D3
102
{ACAD_REACTORS
330
D1
102
}
330
D1
100
AcDbDictionary
281
     1
  0
DICTIONARY
  5
88B
102
{ACAD_REACTORS
330
D1
102
}
330
D1
100
AcDbDictionary
281
     1
  0
DICTIONARY
  5
7D2
102
{ACAD_REACTORS
330
D1
102
}
330
D1
100
AcDbDictionary
281
     1
1001
ACAD
1000
<All
  0
DICTIONARY
  5
D2
102
{ACAD_REACTORS
330
D1
102
}
330
D1
100
AcDbDictionary
280
     1
281
     1
  0
XRECORD
  5
E7C
102
{ACAD_REACTORS
330
789
102
}
330
789
100
AcDbXrecord
280
     1
290
     1
  0
XRECORD
  5
5A16
102
{ACAD_REACTORS
330
82
102
}
330
82
100
AcDbXrecord
280
     1
340
1F
  0
SORTENTSTABLE
  5
D2A
102
{ACAD_REACTORS
330
82
102
}
330
82
100
AcDbSortentsTable
330
1F
331
1E16
  5
1E1F
331
1F94
  5
1F98
331
1E75
  5
1E7A
331
207E
  5
2081
331
203F
  5
2042
331
1E0E
  5
1E14
331
1E71
  5
1E76
331
207A
  5
207D
331
203B
  5
203E
331
1E0A
  5
1E0B
331
2076
  5
2079
331
1F88
  5
1F91
331
2072
  5
2075
331
2037
  5
203A
331
1E69
  5
1E6E
331
2033
  5
2035
331
1F84
  5
1F8A
331
1DF2
  5
1DF3
331
202F
  5
2031
331
206E
  5
2072
331
1F80
  5
1F84
331
1E65
  5
1E6A
331
202B
  5
202C
331
1E61
  5
1E67
331
1F7C
  5
1F80
331
1F78
  5
1F7C
331
20A1
  5
20A4
331
2062
  5
2065
331
1E59
  5
1E5A
331
209D
  5
20A0
331
1FAB
  5
1FBC
331
1EA4
  5
1F77
331
2099
  5
209C
331
205A
  5
205D
331
2095
  5
2098
331
2091
  5
2094
331
1FA7
  5
1FAB
331
1E21
  5
1E23
331
1FA3
  5
1FA7
331
208D
  5
2090
331
204E
  5
2051
331
1F9B
  5
1FA1
331
204A
  5
204D
331
2085
  5
2088
331
2042
  5
2045
331
2081
  5
2084
331
1F97
  5
1F9B
331
1F93
  5
1F97
331
1E74
  5
1E79
331
1E0D
  5
1E0E
331
207D
  5
2080
331
1E09
  5
1E0A
331
1F8B
  5
1F94
331
203A
  5
203D
331
2079
  5
207C
331
2075
  5
2078
331
2071
  5
2074
331
1DF5
  5
1DF7
331
1F87
  5
1F90
331
2036
  5
2039
331
1E68
  5
1E6D
331
1DF1
  5
1DF1
331
1F83
  5
1F89
331
2032
  5
2034
331
1E64
  5
1E69
331
1F7F
  5
1F83
331
202E
  5
2030
331
1F7B
  5
1F7F
331
20A0
  5
20A3
331
1F77
  5
1F7B
331
1E5C
  5
1E5D
331
1E58
  5
1E59
331
200A
  5
200A
331
1FAE
  5
1FBF
331
205D
  5
2064
331
209C
  5
209F
331
1FAA
  5
1FAE
331
2098
  5
209B
331
2059
  5
205C
331
2094
  5
2097
331
2090
  5
2093
331
1FA6
  5
1FAA
331
1E24
  5
1E2A
331
1FA2
  5
1FA6
331
1E7F
  5
1E8C
331
1F9E
  5
1FA4
331
204D
  5
2050
331
208C
  5
208F
331
1F9A
  5
1F9E
331
2088
  5
208B
331
2049
  5
204C
331
2084
  5
2087
331
2045
  5
2048
331
20DF
  5
20E1
331
2080
  5
2083
331
2041
  5
2044
331
1E14
  5
1E16
331
1F96
  5
1F9A
331
1F92
  5
1F96
331
1E77
  5
1E7E
331
1E73
  5
1E78
331
1E0C
  5
1E0D
331
207C
  5
207F
331
1F8A
  5
1F93
331
2039
  5
203C
331
2078
  5
207B
331
20D7
  5
2038
331
2074
  5
2077
331
2070
  5
2073
331
1F86
  5
1F8F
331
2035
  5
2037
331
1E67
  5
1E6C
331
1DF0
  5
1DF0
331
2031
  5
2033
331
20AF
  5
20BB
331
1F7E
  5
1F82
331
202D
  5
202F
331
1F7A
  5
1F7E
331
2029
  5
202B
331
20A3
  5
20B0
331
1E5B
  5
1E5C
331
1F76
  5
1F7A
331
1E2F
  5
1E33
331
2009
  5
2009
331
209F
  5
20A2
331
1FAD
  5
1FBE
331
1EA6
  5
1F79
331
209B
  5
209E
331
1FA9
  5
1FAD
331
2093
  5
2096
331
2050
  5
2059
331
1FA5
  5
1FA9
331
1E23
  5
1E24
331
1E1F
  5
1E21
331
1FA1
  5
1FA5
331
208F
  5
2092
331
1E7E
  5
1E8B
331
1F9D
  5
1FA3
331
204C
  5
204F
331
208B
  5
208E
331
1F99
  5
1F9D
331
2087
  5
208A
331
2083
  5
2086
331
2040
  5
2043
331
1F95
  5
1F99
331
1F91
  5
1F95
331
207F
  5
2082
331
1E0B
  5
1E0C
331
207B
  5
207E
331
203C
  5
2041
331
1F89
  5
1F92
331
2077
  5
207A
331
2038
  5
203B
331
2073
  5
2076
331
1DF7
  5
1E09
331
1DF3
  5
1DF5
331
1F85
  5
1F8B
331
2034
  5
2036
331
1E66
  5
1E6B
331
1F81
  5
1F86
331
2030
  5
2032
331
20AE
  5
20BA
331
1E62
  5
1E68
331
1F7D
  5
1F81
331
202C
  5
202D
331
1F79
  5
1F7D
331
2028
  5
2029
331
2063
  5
2070
331
20A2
  5
20AE
331
1E5E
  5
1E5F
331
1E5A
  5
1E5B
331
2008
  5
1DF2
331
209E
  5
20A1
331
1E2A
  5
1E2F
331
1FAC
  5
1FBD
331
1EA5
  5
1F78
331
209A
  5
209D
331
205B
  5
205F
331
1FA8
  5
1FAC
331
2096
  5
2099
331
2057
  5
205B
331
2092
  5
2095
331
1FA4
  5
1FA8
331
1E99
  5
1F69
331
208E
  5
2091
331
204F
  5
2052
331
1F9C
  5
1FA2
331
208A
  5
208D
331
204B
  5
204E
331
1F98
  5
1F9C
331
2086
  5
2089
331
2043
  5
2047
331
2082
  5
2085
  0
XRECORD
  5
5A15
102
{ACAD_REACTORS
330
59D6
102
}
330
59D6
100
AcDbXrecord
280
     1
340
1B
  0
XRECORD
  5
5A17
102
{ACAD_REACTORS
330
59D8
102
}
330
59D8
100
AcDbXrecord
280
     1
340
23
  0
SORTENTSTABLE
  5
5B5A
102
{ACAD_REACTORS
330
5B59
102
}
330
5B59
100
AcDbSortentsTable
330
5A37
331
5AE7
  5
5AE9
331
5A6D
  5
5A6E
331
5B1E
  5
5B1D
331
5AE3
  5
5AE5
331
5A69
  5
5A6A
331
5B1A
  5
5ABB
331
5AA0
  5
5A3A
331
5A65
  5
5A66
331
5ADF
  5
5AE1
331
5A61
  5
5A62
331
5B16
  5
5B18
331
5A9C
  5
5A9D
331
5ADB
  5
5ADD
331
5A5D
  5
5A5E
331
5A98
  5
5A99
331
5B12
  5
5B14
331
5AD7
  5
5AD9
331
5A59
  5
5A5A
331
5A94
  5
5A95
331
5B0E
  5
5B10
331
5AD3
  5
5AD5
331
5B0A
  5
5B0C
331
5A90
  5
5A91
331
5A55
  5
5A56
331
5ACF
  5
5AD1
331
5A51
  5
5A52
331
5ACB
  5
5ACD
331
5B06
  5
5B08
331
5A8C
  5
5A8D
331
5A4D
  5
5A4E
331
5AC7
  5
5AC9
331
5A88
  5
5A89
331
5B02
  5
5B04
331
5A49
  5
5A4A
331
5A84
  5
5A85
331
5AFE
  5
5B00
331
5AC3
  5
5AC5
331
5AFA
  5
5AFC
331
5A80
  5
5A81
331
5A45
  5
5A46
331
5ABF
  5
5AC1
331
5A41
  5
5A42
331
5ABB
  5
5ABD
331
5AF6
  5
5AF8
331
5A7C
  5
5A7D
331
5A3D
  5
5A3E
331
5AB7
  5
5AB8
331
5A78
  5
5A79
331
5AF2
  5
5AF4
331
5A74
  5
5A75
331
5AEE
  5
5AF0
331
5AB3
  5
5AB4
331
5AEA
  5
5AEC
331
5A70
  5
5A71
331
5AE6
  5
5AE8
331
5A6C
  5
5A6D
331
5B1D
  5
5B1B
331
5AE2
  5
5AE4
331
5A68
  5
5A69
331
5B19
  5
5B1C
331
5A64
  5
5A65
331
5A9F
  5
5AA0
331
5ADE
  5
5AE0
331
5B15
  5
5B17
331
5A9B
  5
5A9C
331
5ADA
  5
5ADC
331
5A60
  5
5A61
331
5A5C
  5
5A5D
331
5A97
  5
5A98
331
5B11
  5
5B13
331
5AD6
  5
5AD8
331
5A58
  5
5A59
331
5AD2
  5
5AD4
331
5B0D
  5
5B0F
331
5A93
  5
5A94
331
5B09
  5
5B0B
331
5A54
  5
5A55
331
5ACE
  5
5AD0
331
5A8F
  5
5A90
331
5A50
  5
5A51
331
5ACA
  5
5ACC
331
5B05
  5
5B07
331
5A8B
  5
5A8C
331
5A4C
  5
5A4D
331
5A87
  5
5A88
331
5B01
  5
5B03
331
5AC6
  5
5AC8
331
5A48
  5
5A49
331
5A83
  5
5A84
331
5AFD
  5
5AFF
331
5AC2
  5
5AC4
331
5AF9
  5
5AFB
331
5A44
  5
5A45
331
5ABE
  5
5AC0
331
5A7F
  5
5A80
331
5A40
  5
5A41
331
5ABA
  5
5ABC
331
5AF5
  5
5AF7
331
5A7B
  5
5A7C
331
5A3C
  5
5A3D
331
5AB6
  5
5AB7
331
5A77
  5
5A78
331
5AF1
  5
5AF3
331
5A73
  5
5A74
331
5AED
  5
5AEF
331
5AB2
  5
5AB3
331
5AE9
  5
5AEB
331
5A6F
  5
5A70
331
5AE5
  5
5AE7
331
5A6B
  5
5A6C
331
5B1C
  5
5B1E
331
5AE1
  5
5AE3
331
5B18
  5
5B1A
331
5A67
  5
5A68
331
5A63
  5
5A64
331
5A9E
  5
5A9F
331
5ADD
  5
5ADF
331
5A9A
  5
5A9B
331
5B14
  5
5B16
331
5AD9
  5
5ADB
331
5A5F
  5
5A60
331
5A96
  5
5A97
331
5B10
  5
5B12
331
5AD5
  5
5AD7
331
5A5B
  5
5A5C
331
5AD1
  5
5AD3
331
5B0C
  5
5B0E
331
5A92
  5
5A93
331
5B08
  5
5B0A
331
5A57
  5
5A58
331
5ACD
  5
5ACF
331
5A8E
  5
5A8F
331
5A53
  5
5A54
331
5AC9
  5
5ACB
331
5B04
  5
5B06
331
5A8A
  5
5A8B
331
5A4F
  5
5A50
331
5A86
  5
5A87
331
5B00
  5
5B02
331
5AC5
  5
5AC7
331
5A4B
  5
5A4C
331
5AC1
  5
5AC3
331
5AFC
  5
5AFE
331
5A82
  5
5A83
331
5AF8
  5
5AFA
331
5A47
  5
5A48
331
5ABD
  5
5ABF
331
5A7E
  5
5A7F
331
5A43
  5
5A44
331
5AB9
  5
5ABA
331
5AF4
  5
5AF6
331
5A7A
  5
5A7B
331
5A3F
  5
5A40
331
5A76
  5
5A77
331
5AF0
  5
5AF2
331
5AB5
  5
5AB6
331
5A3B
  5
5A3C
331
5A72
  5
5A73
331
5AEC
  5
5AEE
331
5AB1
  5
5AB2
331
5AE8
  5
5AEA
331
5A6E
  5
5A6F
331
5AE4
  5
5AE6
331
5A6A
  5
5A6B
331
5B1B
  5
5AB1
331
5AE0
  5
5AE2
331
5A66
  5
5A67
331
5A62
  5
5A63
331
5ADC
  5
5ADE
331
5B17
  5
5B19
331
5A9D
  5
5A9E
331
5AD8
  5
5ADA
331
5A5E
  5
5A5F
331
5A99
  5
5A9A
331
5B13
  5
5B15
331
5A5A
  5
5A5B
331
5A95
  5
5A96
331
5B0F
  5
5B11
331
5AD4
  5
5AD6
331
5AD0
  5
5AD2
331
5B0B
  5
5B0D
331
5A91
  5
5A92
331
5A56
  5
5A57
331
5A52
  5
5A53
331
5ACC
  5
5ACE
331
5B07
  5
5B09
331
5A8D
  5
5A8E
331
5A4E
  5
5A4F
331
5AC8
  5
5ACA
331
5A89
  5
5A8A
331
5B03
  5
5B05
331
5A4A
  5
5A4B
331
5A85
  5
5A86
331
5AFF
  5
5B01
331
5AC4
  5
5AC6
331
5AC0
  5
5AC2
331
5AFB
  5
5AFD
331
5A81
  5
5A82
331
5A46
  5
5A47
331
5A42
  5
5A43
331
5ABC
  5
5ABE
331
5AF7
  5
5AF9
331
5A7D
  5
5A7E
331
5A3E
  5
5A3F
331
5AB8
  5
5AB9
331
5AF3
  5
5AF5
331
5A79
  5
5A7A
331
5A3A
  5
5A3B
331
5A75
  5
5A76
331
5AEF
  5
5AF1
331
5AB4
  5
5AB5
331
5AEB
  5
5AED
331
5A71
  5
5A72
  0
XRECORD
  5
5E4E
102
{ACAD_REACTORS
330
5E4D
102
}
330
5E4D
100
AcDbXrecord
280
     1
 70
     1
  0
XRECORD
  5
5E50
102
{ACAD_REACTORS
330
5E4D
102
}
330
5E4D
100
AcDbXrecord
280
     1
340
14
  0
XRECORD
  5
5E51
102
{ACAD_REACTORS
330
5E4D
102
}
330
5E4D
100
AcDbXrecord
280
     1
340
14
  0
XRECORD
  5
5E4F
102
{ACAD_REACTORS
330
5E4D
102
}
330
5E4D
100
AcDbXrecord
280
     1
340
14
  0
LAYOUT
  5
1E
102
{ACAD_REACTORS
330
1A
102
}
330
1A
100
AcDbPlotSettings
  1

  2
none_device
  4
Letter_(8.50_x_11.00_Inches)
  6

 40
6.349999904632568
 41
6.349999904632568
 42
6.350006103515625
 43
6.350006103515625
 44
215.8999938964844
 45
279.3999938964844
 46
0.0
 47
0.0
 48
0.0
 49
0.0
140
0.0
141
0.0
142
1.0
143
1.0
 70
 15024
 72
     1
 73
     1
 74
     5
  7
acad.ctb
 75
    16
147
1.0
 76
     0
 77
     2
 78
   300
148
0.0
149
0.0
100
AcDbLayout
  1
Layout1
 70
     1
 71
     1
 10
0.0
 20
0.0
 11
420.0
 21
297.0
 12
0.0
 22
0.0
 32
0.0
 14
1.000000000000000E+20
 24
1.000000000000000E+20
 34
1.000000000000000E+20
 15
-1.000000000000000E+20
 25
-1.000000000000000E+20
 35
-1.000000000000000E+20
146
0.0
 13
0.0
 23
0.0
 33
0.0
 16
1.0
 26
0.0
 36
0.0
 17
0.0
 27
1.0
 37
0.0
 76
     0
330
1B
  0
LAYOUT
  5
26
102
{ACAD_REACTORS
330
1A
102
}
330
1A
100
AcDbPlotSettings
  1

  2
none_device
  4
Letter_(8.50_x_11.00_Inches)
  6

 40
6.349999904632568
 41
6.349999904632568
 42
6.350006103515625
 43
6.350006103515625
 44
215.8999938964844
 45
279.3999938964844
 46
0.0
 47
0.0
 48
0.0
 49
0.0
140
0.0
141
0.0
142
1.0
143
1.0
 70
 15024
 72
     1
 73
     1
 74
     5
  7
acad.ctb
 75
    16
147
1.0
 76
     0
 77
     2
 78
   300
148
0.0
149
0.0
100
AcDbLayout
  1
Layout2
 70
     1
 71
     2
 10
0.0
 20
0.0
 11
12.0
 21
9.0
 12
0.0
 22
0.0
 32
0.0
 14
0.0
 24
0.0
 34
0.0
 15
0.0
 25
0.0
 35
0.0
146
0.0
 13
0.0
 23
0.0
 33
0.0
 16
1.0
 26
0.0
 36
0.0
 17
0.0
 27
1.0
 37
0.0
 76
     0
330
23
  0
LAYOUT
  5
22
102
{ACAD_XDICTIONARY
360
5DB0
102
}
102
{ACAD_REACTORS
330
1A
102
}
330
1A
100
AcDbPlotSettings
  1

  2
none_device
  4
none_user_media
  6

 40
3.174999952316284
 41
3.174999952316284
 42
3.17498779296875
 43
3.17498779296875
 44
593.97900390625
 45
840.9939575195313
 46
145.3145080804825
 47
207.3219848871231
 48
0.0
 49
0.0
140
0.0
141
0.0
142
1.0
143
1.0
 70
 11956
 72
     1
 73
     1
 74
     2
  7
monochrome.ctb
 75
    16
147
1.0
 76
     0
 77
     2
 78
   300
148
0.0
149
0.0
100
AcDbLayout
  1
Model
 70
     1
 71
     0
 10
0.0
 20
0.0
 11
12.0
 21
9.0
 12
0.0
 22
0.0
 32
0.0
 14
0.0
 24
0.0
 34
0.0
 15
0.0
 25
0.0
 35
0.0
146
0.0
 13
0.0
 23
0.0
 33
0.0
 16
1.0
 26
0.0
 36
0.0
 17
0.0
 27
1.0
 37
0.0
 76
     0
330
1F
331
59D4
1001
ACAD_PSEXT
1000
なし
1000
なし
1000
適切ではありません
1000
新しいプロッタ環境設定名を選択しない限り、レイアウトは印刷されません。
1070
     0
  0
MATERIAL
  5
5AD
102
{ACAD_XDICTIONARY
360
5E55
102
}
102
{ACAD_REACTORS
330
51D
102
}
330
51D
100
AcDbMaterial
  1
ByBlock
 73
     1
 78
     1
172
     1
176
     1
270
     1
274
     1
  0
MATERIAL
  5
5AC
102
{ACAD_XDICTIONARY
360
5E53
102
}
102
{ACAD_REACTORS
330
51D
102
}
330
51D
100
AcDbMaterial
  1
ByLayer
 73
     1
 78
     1
172
     1
176
     1
270
     1
274
     1
  0
MATERIAL
  5
5AE
102
{ACAD_XDICTIONARY
360
5E57
102
}
102
{ACAD_REACTORS
330
51D
102
}
330
51D
100
AcDbMaterial
  1
Global
 73
     1
 78
     1
172
     1
176
     1
270
     1
274
     1
  0
MLEADERSTYLE
  5
606
102
{ACAD_REACTORS
330
605
102
}
330
605
100
AcDbMLeaderStyle
170
     2
171
     1
172
     0
 90
        2
 40
0.0
 41
0.0
173
     1
 91
-1056964608
340
14
 92
       -2
290
     1
 42
2.0
291
     1
 43
0.36
  3
Standard
 44
4.0
300

342
11
174
     1
178
     6
175
     1
176
     0
 93
-1056964608
 45
4.0
292
     0
297
     0
 46
4.0
 94
-1056964608
 47
1.0
 49
1.0
140
1.0
293
     1
141
0.0
294
     1
177
     0
142
1.0
295
     0
296
     0
143
0.125
1001
ACAD_MLEADERVER
1070
     2
  0
MLEADERSTYLE
  5
719
102
{ACAD_REACTORS
330
605
102
}
330
605
100
AcDbMLeaderStyle
170
     2
171
     1
172
     0
 90
        2
 40
0.0
 41
0.0
173
     1
 91
-1056964608
340
14
 92
        9
290
     1
 42
2.0
291
     1
 43
-5.0
  3
Standard
341
159
 44
3.5
300

342
146
174
     5
178
     5
175
     1
176
     0
 93
-1023410174
 45
3.5
292
     0
297
     0
 46
4.0
 94
-1056964608
 47
1.0
 49
1.0
140
1.0
293
     1
141
0.0
294
     1
177
     0
142
1.0
295
     0
296
     0
143
0.0
1001
ACAD_MLEADERVER
1070
     2
  0
MLINESTYLE
  5
18
102
{ACAD_REACTORS
330
17
102
}
330
17
100
AcDbMlineStyle
  2
STANDARD
 70
     0
  3

 62
   256
 51
90.0
 52
90.0
 71
     2
 49
0.5
 62
   256
  6
BYLAYER
 49
-0.5
 62
   256
  6
BYLAYER
  0
ACDBPLACEHOLDER
  5
F
102
{ACAD_REACTORS
330
E
102
}
330
E
  0
SCALE
  5
5E4
102
{ACAD_REACTORS
330
5E3
102
}
330
5E3
100
AcDbScale
 70
     0
300
1:1
140
1.0
141
1.0
290
     1
  0
SCALE
  5
5E5
102
{ACAD_REACTORS
330
5E3
102
}
330
5E3
100
AcDbScale
 70
     0
300
1:2
140
1.0
141
2.0
290
     0
  0
SCALE
  5
5E6
102
{ACAD_REACTORS
330
5E3
102
}
330
5E3
100
AcDbScale
 70
     0
300
1:4
140
1.0
141
4.0
290
     0
  0
SCALE
  5
5E7
102
{ACAD_REACTORS
330
5E3
102
}
330
5E3
100
AcDbScale
 70
     0
300
1:5
140
1.0
141
5.0
290
     0
  0
SCALE
  5
5E8
102
{ACAD_REACTORS
330
5E3
102
}
330
5E3
100
AcDbScale
 70
     0
300
1:8
140
1.0
141
8.0
290
     0
  0
SCALE
  5
5E9
102
{ACAD_REACTORS
330
5E3
102
}
330
5E3
100
AcDbScale
 70
     0
300
1:10
140
1.0
141
10.0
290
     0
  0
SCALE
  5
5EA
102
{ACAD_REACTORS
330
5E3
102
}
330
5E3
100
AcDbScale
 70
     0
300
1:16
140
1.0
141
16.0
290
     0
  0
SCALE
  5
5EB
102
{ACAD_REACTORS
330
5E3
102
}
330
5E3
100
AcDbScale
 70
     0
300
1:20
140
1.0
141
20.0
290
     0
  0
SCALE
  5
5EC
102
{ACAD_REACTORS
330
5E3
102
}
330
5E3
100
AcDbScale
 70
     0
300
1:30
140
1.0
141
30.0
290
     0
  0
SCALE
  5
5ED
102
{ACAD_REACTORS
330
5E3
102
}
330
5E3
100
AcDbScale
 70
     0
300
1:40
140
1.0
141
40.0
290
     0
  0
SCALE
  5
5EE
102
{ACAD_REACTORS
330
5E3
102
}
330
5E3
100
AcDbScale
 70
     0
300
1:50
140
1.0
141
50.0
290
     0
  0
SCALE
  5
5EF
102
{ACAD_REACTORS
330
5E3
102
}
330
5E3
100
AcDbScale
 70
     0
300
1:100
140
1.0
141
100.0
290
     0
  0
SCALE
  5
5F0
102
{ACAD_REACTORS
330
5E3
102
}
330
5E3
100
AcDbScale
 70
     0
300
2:1
140
2.0
141
1.0
290
     0
  0
SCALE
  5
5F1
102
{ACAD_REACTORS
330
5E3
102
}
330
5E3
100
AcDbScale
 70
     0
300
4:1
140
4.0
141
1.0
290
     0
  0
SCALE
  5
5F2
102
{ACAD_REACTORS
330
5E3
102
}
330
5E3
100
AcDbScale
 70
     0
300
8:1
140
8.0
141
1.0
290
     0
  0
SCALE
  5
5F3
102
{ACAD_REACTORS
330
5E3
102
}
330
5E3
100
AcDbScale
 70
     0
300
10:1
140
10.0
141
1.0
290
     0
  0
SCALE
  5
5F4
102
{ACAD_REACTORS
330
5E3
102
}
330
5E3
100
AcDbScale
 70
     0
300
100:1
140
100.0
141
1.0
290
     0
  0
SCALE
  5
5F5
102
{ACAD_REACTORS
330
5E3
102
}
330
5E3
100
AcDbScale
 70
     0
300
1/128" = 1'-0"
140
0.0078125
141
12.0
290
     0
  0
SCALE
  5
5F6
102
{ACAD_REACTORS
330
5E3
102
}
330
5E3
100
AcDbScale
 70
     0
300
1/64" = 1'-0"
140
0.015625
141
12.0
290
     0
  0
SCALE
  5
5F7
102
{ACAD_REACTORS
330
5E3
102
}
330
5E3
100
AcDbScale
 70
     0
300
1/32" = 1'-0"
140
0.03125
141
12.0
290
     0
  0
SCALE
  5
5F8
102
{ACAD_REACTORS
330
5E3
102
}
330
5E3
100
AcDbScale
 70
     0
300
1/16" = 1'-0"
140
0.0625
141
12.0
290
     0
  0
SCALE
  5
5F9
102
{ACAD_REACTORS
330
5E3
102
}
330
5E3
100
AcDbScale
 70
     0
300
3/32" = 1'-0"
140
0.09375
141
12.0
290
     0
  0
SCALE
  5
5FA
102
{ACAD_REACTORS
330
5E3
102
}
330
5E3
100
AcDbScale
 70
     0
300
1/8" = 1'-0"
140
0.125
141
12.0
290
     0
  0
SCALE
  5
5FB
102
{ACAD_REACTORS
330
5E3
102
}
330
5E3
100
AcDbScale
 70
     0
300
3/16" = 1'-0"
140
0.1875
141
12.0
290
     0
  0
SCALE
  5
5FC
102
{ACAD_REACTORS
330
5E3
102
}
330
5E3
100
AcDbScale
 70
     0
300
1/4" = 1'-0"
140
0.25
141
12.0
290
     0
  0
SCALE
  5
5FD
102
{ACAD_REACTORS
330
5E3
102
}
330
5E3
100
AcDbScale
 70
     0
300
3/8" = 1'-0"
140
0.375
141
12.0
290
     0
  0
SCALE
  5
5FE
102
{ACAD_REACTORS
330
5E3
102
}
330
5E3
100
AcDbScale
 70
     0
300
1/2" = 1'-0"
140
0.5
141
12.0
290
     0
  0
SCALE
  5
5FF
102
{ACAD_REACTORS
330
5E3
102
}
330
5E3
100
AcDbScale
 70
     0
300
3/4" = 1'-0"
140
0.75
141
12.0
290
     0
  0
SCALE
  5
600
102
{ACAD_REACTORS
330
5E3
102
}
330
5E3
100
AcDbScale
 70
     0
300
1" = 1'-0"
140
1.0
141
12.0
290
     0
  0
SCALE
  5
601
102
{ACAD_REACTORS
330
5E3
102
}
330
5E3
100
AcDbScale
 70
     0
300
1-1/2" = 1'-0"
140
1.5
141
12.0
290
     0
  0
SCALE
  5
602
102
{ACAD_REACTORS
330
5E3
102
}
330
5E3
100
AcDbScale
 70
     0
300
3" = 1'-0"
140
3.0
141
12.0
290
     0
  0
SCALE
  5
603
102
{ACAD_REACTORS
330
5E3
102
}
330
5E3
100
AcDbScale
 70
     0
300
6" = 1'-0"
140
6.0
141
12.0
290
     0
  0
SCALE
  5
604
102
{ACAD_REACTORS
330
5E3
102
}
330
5E3
100
AcDbScale
 70
     0
300
1'-0" = 1'-0"
140
12.0
141
12.0
290
     0
  0
TABLESTYLE
  5
520
102
{ACAD_XDICTIONARY
360
624
102
}
102
{ACAD_REACTORS
330
51F
102
}
330
51F
100
AcDbTableStyle
  3
Standard
 70
     0
 71
     0
 40
1.5
 41
1.5
280
     0
281
     0
  7
STANDARD
140
4.5
170
     2
 62
     0
 63
     7
283
     0
274
    -2
284
     1
 64
     0
275
    -2
285
     1
 65
     0
276
    -2
286
     1
 66
     0
277
    -2
287
     1
 67
     0
278
    -2
288
     1
 68
     0
279
    -2
289
     1
 69
     0
  7
STANDARD
140
6.0
170
     5
 62
     0
 63
     7
283
     0
274
    -2
284
     1
 64
     0
275
    -2
285
     1
 65
     0
276
    -2
286
     1
 66
     0
277
    -2
287
     1
 67
     0
278
    -2
288
     1
 68
     0
279
    -2
289
     1
 69
     0
  7
STANDARD
140
4.5
170
     5
 62
     0
 63
     7
283
     0
274
    -2
284
     1
 64
     0
275
    -2
285
     1
 65
     0
276
    -2
286
     1
 66
     0
277
    -2
287
     1
 67
     0
278
    -2
288
     1
 68
     0
279
    -2
289
     1
 69
     0
  0
VISUALSTYLE
  5
5B5
102
{ACAD_XDICTIONARY
360
5E63
102
}
102
{ACAD_REACTORS
330
5AF
102
}
330
5AF
100
AcDbVisualStyle
  2
2dWireframe
 70
     4
 71
     0
 72
     2
 73
     0
 90
        0
 40
-0.6
 41
-30.0
 62
     5
 63
     7
 74
     1
 91
        4
 64
     7
 65
   257
 75
     1
175
     1
 42
1.0
 92
        0
 66
   257
 43
1.0
 76
     1
 77
     6
 78
     2
 67
     7
 79
     5
170
     0
171
     0
290
     0
174
     0
 93
        1
 44
0.0
173
     0
291
     0
 45
0.0
1001
ACAD
1000
AcDbSavedByObjectVersion
1070
     0
  0
VISUALSTYLE
  5
5B7
102
{ACAD_XDICTIONARY
360
5E67
102
}
102
{ACAD_REACTORS
330
5AF
102
}
330
5AF
100
AcDbVisualStyle
  2
3D Hidden
 70
     6
 71
     1
 72
     2
 73
     2
 90
        0
 40
-0.6
 41
-30.0
 62
     5
 63
     7
 74
     2
 91
        2
 64
     7
 65
   257
 75
     2
175
     1
 42
40.0
 92
        0
 66
   257
 43
1.0
 76
     1
 77
     6
 78
     2
 67
     7
 79
     3
170
     0
171
     0
290
     0
174
     0
 93
        1
 44
0.0
173
     0
291
     0
 45
0.0
1001
ACAD
1000
AcDbSavedByObjectVersion
1070
     0
  0
VISUALSTYLE
  5
5B6
102
{ACAD_XDICTIONARY
360
5E65
102
}
102
{ACAD_REACTORS
330
5AF
102
}
330
5AF
100
AcDbVisualStyle
  2
3dWireframe
 70
     5
 71
     0
 72
     2
 73
     0
 90
        0
 40
-0.6
 41
-30.0
 62
     5
 63
     7
 74
     1
 91
        4
 64
     7
 65
   257
 75
     1
175
     1
 42
1.0
 92
        0
 66
   257
 43
1.0
 76
     1
 77
     6
 78
     2
 67
     7
 79
     5
170
     0
171
     0
290
     0
174
     0
 93
        1
 44
0.0
173
     0
291
     0
 45
0.0
1001
ACAD
1000
AcDbSavedByObjectVersion
1070
     0
  0
VISUALSTYLE
  5
5B4
102
{ACAD_XDICTIONARY
360
5E61
102
}
102
{ACAD_REACTORS
330
5AF
102
}
330
5AF
100
AcDbVisualStyle
  2
Basic
 70
     7
 71
     1
 72
     0
 73
     1
 90
        0
 40
-0.6
 41
-30.0
 62
     5
 63
     7
 74
     0
 91
        4
 64
     7
 65
   257
 75
     1
175
     1
 42
1.0
 92
        8
 66
     7
 43
1.0
 76
     1
 77
     6
 78
     2
 67
     7
 79
     5
170
     0
171
     0
290
     0
174
     0
 93
        1
 44
0.0
173
     0
291
     1
 45
0.0
1001
ACAD
1000
AcDbSavedByObjectVersion
1070
     0
  0
VISUALSTYLE
  5
5BB
102
{ACAD_XDICTIONARY
360
5E6F
102
}
102
{ACAD_REACTORS
330
5AF
102
}
330
5AF
100
AcDbVisualStyle
  2
Brighten
 70
    12
 71
     2
 72
     2
 73
     0
 90
        0
 40
-0.6
 41
-30.0
 62
     5
 63
     7
 74
     1
 91
        4
 64
     7
 65
   257
 75
     1
175
     1
 42
1.0
 92
        8
 66
     7
 43
1.0
 76
     1
 77
     6
 78
     2
 67
     7
 79
     5
170
     0
171
     0
290
     0
174
     0
 93
        1
 44
50.0
173
     0
291
     1
 45
0.0
1001
ACAD
1000
AcDbSavedByObjectVersion
1070
     0
  0
VISUALSTYLE
  5
5BF
102
{ACAD_XDICTIONARY
360
5E77
102
}
102
{ACAD_REACTORS
330
5AF
102
}
330
5AF
100
AcDbVisualStyle
  2
ColorChange
 70
    16
 71
     2
 72
     2
 73
     3
 90
        0
 40
-0.6
 41
-30.0
 62
     5
 63
     8
 74
     1
 91
        4
 64
     7
 65
   257
 75
     1
175
     1
 42
1.0
 92
        8
 66
     8
 43
1.0
 76
     1
 77
     6
 78
     2
 67
     7
 79
     5
170
     0
171
     0
290
     0
174
     0
 93
        1
 44
0.0
173
     0
291
     1
 45
0.0
1001
ACAD
1000
AcDbSavedByObjectVersion
1070
     0
  0
VISUALSTYLE
  5
5B8
102
{ACAD_XDICTIONARY
360
5E69
102
}
102
{ACAD_REACTORS
330
5AF
102
}
330
5AF
100
AcDbVisualStyle
  2
Conceptual
 70
     9
 71
     3
 72
     2
 73
     0
 90
        0
 40
-0.6
 41
-30.0
 62
     5
 63
     7
 74
     2
 91
        2
 64
     7
 65
   257
 75
     1
175
     1
 42
40.0
 92
        8
 66
     7
 43
1.0
 76
     1
 77
     6
 78
     2
 67
     7
 79
     3
170
     0
171
     0
290
     0
174
     0
 93
        1
 44
0.0
173
     0
291
     0
 45
0.0
1001
ACAD
1000
AcDbSavedByObjectVersion
1070
     0
  0
VISUALSTYLE
  5
5BA
102
{ACAD_XDICTIONARY
360
5E6D
102
}
102
{ACAD_REACTORS
330
5AF
102
}
330
5AF
100
AcDbVisualStyle
  2
Dim
 70
    11
 71
     2
 72
     2
 73
     0
 90
        0
 40
-0.6
 41
-30.0
 62
     5
 63
     7
 74
     1
 91
        4
 64
     7
 65
   257
 75
     1
175
     1
 42
1.0
 92
        8
 66
     7
 43
1.0
 76
     1
 77
     6
 78
     2
 67
     7
 79
     5
170
     0
171
     0
290
     0
174
     0
 93
        1
 44
-50.0
173
     0
291
     1
 45
0.0
1001
ACAD
1000
AcDbSavedByObjectVersion
1070
     0
  0
VISUALSTYLE
  5
5A32
102
{ACAD_XDICTIONARY
360
5E8B
102
}
102
{ACAD_REACTORS
330
5AF
102
}
330
5AF
100
AcDbVisualStyle
  2
EdgeColorOff
 70
    22
 71
     2
 72
     2
 73
     0
 90
        0
 40
-0.6
 41
-30.0
 62
     5
 63
     7
421
 16777215
 74
     1
 91
        4
 64
     7
 65
   257
 75
     1
175
     1
 42
1.0
 92
        8
 66
     7
 43
1.0
 76
     1
 77
     6
 78
     2
 67
     7
 79
     5
170
     0
171
     0
290
     0
174
     0
 93
        1
 44
0.0
173
     0
291
     1
 45
0.0
1001
ACAD
1000
AcDbSavedByObjectVersion
1070
     0
  0
VISUALSTYLE
  5
5BE
102
{ACAD_XDICTIONARY
360
5E75
102
}
102
{ACAD_REACTORS
330
5AF
102
}
330
5AF
100
AcDbVisualStyle
  2
Facepattern
 70
    15
 71
     2
 72
     2
 73
     0
 90
        0
 40
-0.6
 41
-30.0
 62
     5
 63
     7
 74
     1
 91
        4
 64
     7
 65
   257
 75
     1
175
     1
 42
1.0
 92
        8
 66
     7
 43
1.0
 76
     1
 77
     6
 78
     2
 67
     7
 79
     5
170
     0
171
     0
290
     0
174
     0
 93
        1
 44
0.0
173
     0
291
     1
 45
0.0
1001
ACAD
1000
AcDbSavedByObjectVersion
1070
     0
  0
VISUALSTYLE
  5
5B0
102
{ACAD_XDICTIONARY
360
5E59
102
}
102
{ACAD_REACTORS
330
5AF
102
}
330
5AF
100
AcDbVisualStyle
  2
Flat
 70
     0
 71
     2
 72
     1
 73
     1
 90
        2
 40
-0.6
 41
30.0
 62
     5
 63
     7
 74
     0
 91
        4
 64
     7
 65
   257
 75
     1
175
     1
 42
1.0
 92
        8
 66
     7
 43
1.0
 76
     1
 77
     6
 78
     2
 67
     7
 79
     5
170
     0
171
     0
290
     0
174
     0
 93
       13
 44
0.0
173
     0
291
     1
 45
0.0
1001
ACAD
1000
AcDbSavedByObjectVersion
1070
     0
  0
VISUALSTYLE
  5
5B1
102
{ACAD_XDICTIONARY
360
5E5B
102
}
102
{ACAD_REACTORS
330
5AF
102
}
330
5AF
100
AcDbVisualStyle
  2
FlatWithEdges
 70
     1
 71
     2
 72
     1
 73
     1
 90
        2
 40
-0.6
 41
30.0
 62
     5
 63
     7
 74
     1
 91
        4
 64
     7
 65
   257
 75
     1
175
     1
 42
1.0
 92
        0
 66
   257
 43
1.0
 76
     1
 77
     6
 78
     2
 67
     7
 79
     5
170
     0
171
     0
290
     0
174
     0
 93
       13
 44
0.0
173
     0
291
     1
 45
0.0
1001
ACAD
1000
AcDbSavedByObjectVersion
1070
     0
  0
VISUALSTYLE
  5
5B2
102
{ACAD_XDICTIONARY
360
5E5D
102
}
102
{ACAD_REACTORS
330
5AF
102
}
330
5AF
100
AcDbVisualStyle
  2
Gouraud
 70
     2
 71
     2
 72
     2
 73
     1
 90
        2
 40
-0.6
 41
30.0
 62
     5
 63
     7
 74
     0
 91
        4
 64
     7
 65
   257
 75
     1
175
     1
 42
1.0
 92
        0
 66
     7
 43
1.0
 76
     1
 77
     6
 78
     2
 67
     7
 79
     5
170
     0
171
     0
290
     0
174
     0
 93
       13
 44
0.0
173
     0
291
     1
 45
0.0
1001
ACAD
1000
AcDbSavedByObjectVersion
1070
     0
  0
VISUALSTYLE
  5
5B3
102
{ACAD_XDICTIONARY
360
5E5F
102
}
102
{ACAD_REACTORS
330
5AF
102
}
330
5AF
100
AcDbVisualStyle
  2
GouraudWithEdges
 70
     3
 71
     2
 72
     2
 73
     1
 90
        2
 40
-0.6
 41
30.0
 62
     5
 63
     7
 74
     1
 91
        4
 64
     7
 65
   257
 75
     1
175
     1
 42
1.0
 92
        0
 66
   257
 43
1.0
 76
     1
 77
     6
 78
     2
 67
     7
 79
     5
170
     0
171
     0
290
     0
174
     0
 93
       13
 44
0.0
173
     0
291
     1
 45
0.0
1001
ACAD
1000
AcDbSavedByObjectVersion
1070
     0
  0
VISUALSTYLE
  5
5A2A
102
{ACAD_XDICTIONARY
360
5E7B
102
}
102
{ACAD_REACTORS
330
5AF
102
}
330
5AF
100
AcDbVisualStyle
  2
Hidden
 70
     6
 71
     1
 72
     2
 73
     2
 90
        0
 40
-0.6
 41
-30.0
 62
     5
 63
     7
421
 16777215
 74
     2
 91
        2
 64
     7
 65
   257
 75
     2
175
     1
 42
40.0
 92
        0
 66
   257
 43
1.0
 76
     1
 77
     6
 78
     2
 67
     7
 79
     3
170
     0
171
     0
290
     0
174
     0
 93
        1
 44
0.0
173
     0
291
     0
 45
0.0
1001
ACAD
1000
AcDbSavedByObjectVersion
1070
     0
  0
VISUALSTYLE
  5
5A30
102
{ACAD_XDICTIONARY
360
5E87
102
}
102
{ACAD_REACTORS
330
5AF
102
}
330
5AF
100
AcDbVisualStyle
  2
JitterOff
 70
    20
 71
     2
 72
     2
 73
     0
 90
        0
 40
-0.6
 41
-30.0
 62
     5
 63
     7
421
 16777215
 74
     1
 91
        4
 64
     7
 65
   257
 75
     1
175
     1
 42
1.0
 92
       10
 66
     7
 43
1.0
 76
     1
 77
     6
 78
     2
 67
     7
 79
     5
170
     0
171
     0
290
     0
174
     0
 93
        1
 44
0.0
173
     0
291
     1
 45
0.0
1001
ACAD
1000
AcDbSavedByObjectVersion
1070
     0
  0
VISUALSTYLE
  5
5BD
102
{ACAD_XDICTIONARY
360
5E73
102
}
102
{ACAD_REACTORS
330
5AF
102
}
330
5AF
100
AcDbVisualStyle
  2
Linepattern
 70
    14
 71
     2
 72
     2
 73
     0
 90
        0
 40
-0.6
 41
-30.0
 62
     5
 63
     7
 74
     1
 91
        4
 64
     7
 65
   257
 75
     7
175
     7
 42
1.0
 92
        8
 66
     7
 43
1.0
 76
     1
 77
     6
 78
     2
 67
     7
 79
     5
170
     0
171
     0
290
     0
174
     0
 93
        1
 44
0.0
173
     0
291
     1
 45
0.0
1001
ACAD
1000
AcDbSavedByObjectVersion
1070
     0
  0
VISUALSTYLE
  5
5A31
102
{ACAD_XDICTIONARY
360
5E89
102
}
102
{ACAD_REACTORS
330
5AF
102
}
330
5AF
100
AcDbVisualStyle
  2
OverhangOff
 70
    21
 71
     2
 72
     2
 73
     0
 90
        0
 40
-0.6
 41
-30.0
 62
     5
 63
     7
421
 16777215
 74
     1
 91
        4
 64
     7
 65
   257
 75
     1
175
     1
 42
1.0
 92
        9
 66
     7
 43
1.0
 76
     1
 77
     6
 78
     2
 67
     7
 79
     5
170
     0
171
     0
290
     0
174
     0
 93
        1
 44
0.0
173
     0
291
     1
 45
0.0
1001
ACAD
1000
AcDbSavedByObjectVersion
1070
     0
  0
VISUALSTYLE
  5
5B9
102
{ACAD_XDICTIONARY
360
5E6B
102
}
102
{ACAD_REACTORS
330
5AF
102
}
330
5AF
100
AcDbVisualStyle
  2
Realistic
 70
     8
 71
     2
 72
     2
 73
     0
 90
        0
 40
-0.6
 41
-30.0
 62
     5
 63
     7
 74
     1
 91
        0
 64
     7
 65
   257
 75
     1
175
     1
 42
1.0
 92
        8
 66
     8
 43
1.0
 76
     1
 77
     6
 78
     2
 67
     7
 79
     5
170
     0
171
     0
290
     0
174
     0
 93
       13
 44
0.0
173
     0
291
     0
 45
0.0
1001
ACAD
1000
AcDbSavedByObjectVersion
1070
     0
  0
VISUALSTYLE
  5
5A2F
102
{ACAD_XDICTIONARY
360
5E85
102
}
102
{ACAD_REACTORS
330
5AF
102
}
330
5AF
100
AcDbVisualStyle
  2
Shaded
 70
    27
 71
     2
 72
     2
 73
     1
 90
        2
 40
-0.6
 41
30.0
 62
     5
 63
     7
421
 16777215
 74
     0
 91
        4
 64
     7
 65
   257
 75
     1
175
     1
 42
1.0
 92
        8
 66
   257
 43
1.0
 76
     1
 77
     6
 78
     2
 67
     8
425
  7895160
 79
     3
170
     0
171
     0
290
     0
174
     0
 93
        5
 44
0.0
173
     0
291
     0
 45
0.0
1001
ACAD
1000
AcDbSavedByObjectVersion
1070
     0
  0
VISUALSTYLE
  5
5A2E
102
{ACAD_XDICTIONARY
360
5E83
102
}
102
{ACAD_REACTORS
330
5AF
102
}
330
5AF
100
AcDbVisualStyle
  2
Shaded with edges
 70
    26
 71
     2
 72
     2
 73
     1
 90
        2
 40
-0.6
 41
30.0
 62
     5
 63
     7
421
 16777215
 74
     1
 91
       10
 64
     7
 65
   257
 75
     2
175
     1
 42
1.0
 92
        8
 66
   257
 43
1.0
 76
     1
 77
     6
 78
     2
 67
     7
 79
     3
170
     0
171
     0
290
     0
174
     0
 93
        5
 44
0.0
173
     0
291
     0
 45
0.0
1001
ACAD
1000
AcDbSavedByObjectVersion
1070
     0
  0
VISUALSTYLE
  5
5A2B
102
{ACAD_XDICTIONARY
360
5E7D
102
}
102
{ACAD_REACTORS
330
5AF
102
}
330
5AF
100
AcDbVisualStyle
  2
Shades of Gray
 70
    23
 71
     2
 72
     2
 73
     3
 90
        0
 40
-0.6
 41
-30.0
 62
     5
 63
     7
421
 16777215
 74
     2
 91
        2
 64
     7
 65
     7
 75
     1
175
     1
 42
40.0
 92
        8
 66
     7
 43
1.0
 76
     1
 77
     6
 78
     2
 67
     7
 79
     3
170
     0
171
     0
290
     0
174
     0
 93
        1
 44
0.0
173
     0
291
     0
 45
0.0
1001
ACAD
1000
AcDbSavedByObjectVersion
1070
     0
  0
VISUALSTYLE
  5
5A2C
102
{ACAD_XDICTIONARY
360
5E7F
102
}
102
{ACAD_REACTORS
330
5AF
102
}
330
5AF
100
AcDbVisualStyle
  2
Sketchy
 70
    24
 71
     1
 72
     2
 73
     2
 90
        0
 40
-0.6
 41
-30.0
 62
     5
 63
     7
421
 16777215
 74
     2
 91
        2
 64
     7
 65
     7
 75
     1
175
     1
 42
40.0
 92
       11
 66
     7
 43
1.0
 76
     1
 77
     6
 78
     2
 67
     7
 79
     6
170
     0
171
     0
290
     0
174
     0
 93
        1
 44
0.0
173
     0
291
     0
 45
0.0
1001
ACAD
1000
AcDbSavedByObjectVersion
1070
     0
  0
VISUALSTYLE
  5
5BC
102
{ACAD_XDICTIONARY
360
5E71
102
}
102
{ACAD_REACTORS
330
5AF
102
}
330
5AF
100
AcDbVisualStyle
  2
Thicken
 70
    13
 71
     2
 72
     2
 73
     0
 90
        0
 40
-0.6
 41
-30.0
 62
     5
 63
     7
 74
     1
 91
        4
 64
     7
 65
   257
 75
     1
175
     1
 42
1.0
 92
       12
 66
     7
 43
1.0
 76
     1
 77
     6
 78
     2
 67
     7
 79
     5
170
     0
171
     0
290
     0
174
     0
 93
        1
 44
0.0
173
     0
291
     1
 45
0.0
1001
ACAD
1000
AcDbSavedByObjectVersion
1070
     0
  0
VISUALSTYLE
  5
5A29
102
{ACAD_XDICTIONARY
360
5E79
102
}
102
{ACAD_REACTORS
330
5AF
102
}
330
5AF
100
AcDbVisualStyle
  2
Wireframe
 70
     5
 71
     0
 72
     2
 73
     0
 90
        0
 40
-0.6
 41
-30.0
 62
     5
 63
     7
421
 16777215
 74
     1
 91
        4
 64
     7
 65
   257
 75
     1
175
     1
 42
1.0
 92
        0
 66
   257
 43
1.0
 76
     1
 77
     6
 78
     2
 67
     7
 79
     3
170
     0
171
     0
290
     0
174
     0
 93
        1
 44
0.0
173
     0
291
     0
 45
0.0
1001
ACAD
1000
AcDbSavedByObjectVersion
1070
     0
  0
VISUALSTYLE
  5
5A2D
102
{ACAD_XDICTIONARY
360
5E81
102
}
102
{ACAD_REACTORS
330
5AF
102
}
330
5AF
100
AcDbVisualStyle
  2
X-Ray
 70
    25
 71
     2
 72
     2
 73
     1
 90
        1
 40
0.5
 41
-30.0
 62
     5
 63
     7
421
 16777215
 74
     1
 91
        0
 64
     7
 65
   257
 75
     1
175
     1
 42
1.0
 92
        8
 66
     7
 43
1.0
 76
     1
 77
     6
 78
     2
 67
     7
 79
     3
170
     0
171
     0
290
     0
174
     0
 93
       13
 44
0.0
173
     0
291
     0
 45
0.0
1001
ACAD
1000
AcDbSavedByObjectVersion
1070
     0
  0
XRECORD
  5
59F8
102
{ACAD_REACTORS
330
59EE
102
}
330
59EE
100
AcDbXrecord
280
     1
 90
        0
  0
XRECORD
  5
59FC
102
{ACAD_REACTORS
330
59EE
102
}
330
59EE
100
AcDbXrecord
280
     1
1000
DSTYLE
1002
{
1070
    79
 70
     2
1070
   341
340
159
1070
   342
340
159
1070
   371
 70
     9
1070
   372
 70
     9
1002
}
  0
XRECORD
  5
59F9
102
{ACAD_REACTORS
330
59EE
102
}
330
59EE
100
AcDbXrecord
280
     1
  1
{E2EE2984-40DB-4795-A236-B944694F9C34}
  0
XRECORD
  5
59F1
102
{ACAD_REACTORS
330
59EE
102
}
330
59EE
100
AcDbXrecord
280
     1
  1

  0
XRECORD
  5
59F7
102
{ACAD_REACTORS
330
59EE
102
}
330
59EE
100
AcDbXrecord
280
     1
 90
        4
  0
XRECORD
  5
59F3
102
{ACAD_REACTORS
330
59EE
102
}
330
59EE
100
AcDbXrecord
280
     1
340
1A
  0
XRECORD
  5
59F6
102
{ACAD_REACTORS
330
59EE
102
}
330
59EE
100
AcDbXrecord
280
     1
 90
    10781
  0
XRECORD
  5
59F4
102
{ACAD_REACTORS
330
59EE
102
}
330
59EE
100
AcDbXrecord
280
     1
340
19
  0
XRECORD
  5
59F5
102
{ACAD_REACTORS
330
59EE
102
}
330
59EE
100
AcDbXrecord
280
     1
340
E
  0
XRECORD
  5
59FB
102
{ACAD_REACTORS
330
59EE
102
}
330
59EE
100
AcDbXrecord
280
     1
 40
0.0
  0
XRECORD
  5
59FF
102
{ACAD_REACTORS
330
59EE
102
}
330
59EE
100
AcDbXrecord
280
     1
340
0
  0
XRECORD
  5
5A05
102
{ACAD_REACTORS
330
59EE
102
}
330
59EE
100
AcDbXrecord
280
     1
 10
0.0
 20
0.0
 30
0.0
  0
XRECORD
  5
5A01
102
{ACAD_REACTORS
330
59EE
102
}
330
59EE
100
AcDbXrecord
280
     1
 10
0.0
 20
0.0
 30
0.0
  0
XRECORD
  5
5A04
102
{ACAD_REACTORS
330
59EE
102
}
330
59EE
100
AcDbXrecord
280
     1
 10
0.0
 20
0.0
 30
0.0
  0
XRECORD
  5
5A02
102
{ACAD_REACTORS
330
59EE
102
}
330
59EE
100
AcDbXrecord
280
     1
 10
0.0
 20
0.0
 30
0.0
  0
XRECORD
  5
5A03
102
{ACAD_REACTORS
330
59EE
102
}
330
59EE
100
AcDbXrecord
280
     1
 10
0.0
 20
0.0
 30
0.0
  0
XRECORD
  5
5A00
102
{ACAD_REACTORS
330
59EE
102
}
330
59EE
100
AcDbXrecord
280
     1
 10
0.0
 20
0.0
 30
0.0
  0
XRECORD
  5
59FD
102
{ACAD_REACTORS
330
59EE
102
}
330
59EE
100
AcDbXrecord
280
     1
340
0
  0
XRECORD
  5
59FE
102
{ACAD_REACTORS
330
59EE
102
}
330
59EE
100
AcDbXrecord
280
     1
 70
     0
  0
XRECORD
  5
59F2
102
{ACAD_REACTORS
330
59EE
102
}
330
59EE
100
AcDbXrecord
280
     1
  1
MPP.ctb
  0
XRECORD
  5
59EF
102
{ACAD_REACTORS
330
59EE
102
}
330
59EE
100
AcDbXrecord
280
     1
 90
        1
  0
XRECORD
  5
59F0
102
{ACAD_REACTORS
330
59EE
102
}
330
59EE
100
AcDbXrecord
280
     1
 90
       70
  0
XRECORD
  5
5A08
102
{ACAD_REACTORS
330
59EE
102
}
330
59EE
100
AcDbXrecord
280
     1
340
0
  0
XRECORD
  5
5A0E
102
{ACAD_REACTORS
330
59EE
102
}
330
59EE
100
AcDbXrecord
280
     1
 10
0.0
 20
0.0
 30
0.0
  0
XRECORD
  5
5A0A
102
{ACAD_REACTORS
330
59EE
102
}
330
59EE
100
AcDbXrecord
280
     1
 10
0.0
 20
0.0
 30
0.0
  0
XRECORD
  5
5A0D
102
{ACAD_REACTORS
330
59EE
102
}
330
59EE
100
AcDbXrecord
280
     1
 10
0.0
 20
0.0
 30
0.0
  0
XRECORD
  5
5A0B
102
{ACAD_REACTORS
330
59EE
102
}
330
59EE
100
AcDbXrecord
280
     1
 10
0.0
 20
0.0
 30
0.0
  0
XRECORD
  5
5A0C
102
{ACAD_REACTORS
330
59EE
102
}
330
59EE
100
AcDbXrecord
280
     1
 10
0.0
 20
0.0
 30
0.0
  0
XRECORD
  5
5A09
102
{ACAD_REACTORS
330
59EE
102
}
330
59EE
100
AcDbXrecord
280
     1
 10
0.0
 20
0.0
 30
0.0
  0
XRECORD
  5
5A06
102
{ACAD_REACTORS
330
59EE
102
}
330
59EE
100
AcDbXrecord
280
     1
340
0
  0
XRECORD
  5
5A07
102
{ACAD_REACTORS
330
59EE
102
}
330
59EE
100
AcDbXrecord
280
     1
 70
     0
  0
XRECORD
  5
59FA
102
{ACAD_REACTORS
330
59EE
102
}
330
59EE
100
AcDbXrecord
280
     1
  1
{9100644A-16E8-4D07-8059-299256816CEA}
  0
DICTIONARYVAR
  5
629
102
{ACAD_REACTORS
330
34
102
}
330
34
100
DictionaryVariables
280
     0
  1
1:1
  0
DICTIONARYVAR
  5
627
102
{ACAD_REACTORS
330
34
102
}
330
34
100
DictionaryVariables
280
     0
  1
TSKE
  0
DICTIONARYVAR
  5
5AA
102
{ACAD_REACTORS
330
34
102
}
330
34
100
DictionaryVariables
280
     0
  1
STANDARD
  0
DICTIONARYVAR
  5
AC
102
{ACAD_REACTORS
330
34
102
}
330
34
100
DictionaryVariables
280
     0
  1
2
  0
DICTIONARYVAR
  5
35
102
{ACAD_REACTORS
330
34
102
}
330
34
100
DictionaryVariables
280
     0
  1
0
  0
DICTIONARYVAR
  5
6C0
102
{ACAD_REACTORS
330
34
102
}
330
34
100
DictionaryVariables
280
     0
  1
1
  0
DICTIONARYVAR
  5
6C1
102
{ACAD_REACTORS
330
34
102
}
330
34
100
DictionaryVariables
280
     0
  1
15
  0
DICTIONARYVAR
  5
62A
102
{ACAD_REACTORS
330
34
102
}
330
34
100
DictionaryVariables
280
     0
  1
0
  0
DICTIONARYVAR
  5
628
102
{ACAD_REACTORS
330
34
102
}
330
34
100
DictionaryVariables
280
     0
  1
0
  0
DICTIONARYVAR
  5
5326
102
{ACAD_REACTORS
330
34
102
}
330
34
100
DictionaryVariables
280
     0
  1
127
  0
DICTIONARYVAR
  5
5E4A
102
{ACAD_REACTORS
330
34
102
}
330
34
100
DictionaryVariables
280
     0
  1
2
  0
DICTIONARY
  5
4A
102
{ACAD_REACTORS
330
49
102
}
330
49
100
AcDbDictionary
281
     1
  0
XRECORD
  5
56E
102
{ACAD_REACTORS
330
49
102
}
330
49
100
AcDbXrecord
280
     1
 90
-1023410169
  0
XRECORD
  5
2E9
102
{ACAD_REACTORS
330
2E7
102
}
330
2E7
100
AcDbXrecord
280
     1
330
0
330
0
330
0
330
0
  0
DICTIONARY
  5
5DB0
330
22
100
AcDbDictionary
280
     1
281
     1
  3
ADSK_XREC_LAYOUTTHUMBNAIL
360
5DB1
  0
DICTIONARY
  5
5E55
330
5AD
100
AcDbDictionary
280
     1
281
     1
  3
ACAD_XREC_ROUNDTRIP
360
5E56
  0
DICTIONARY
  5
5E53
330
5AC
100
AcDbDictionary
280
     1
281
     1
  3
ACAD_XREC_ROUNDTRIP
360
5E54
  0
DICTIONARY
  5
5E57
330
5AE
100
AcDbDictionary
280
     1
281
     1
  3
ACAD_XREC_ROUNDTRIP
360
5E58
  0
DICTIONARY
  5
624
330
520
100
AcDbDictionary
280
     1
281
     1
  3
ACAD_ROUNDTRIP_2008_TABLESTYLE_CELLSTYLEMAP
360
5E4B
  3
ACAD_XREC_ROUNDTRIP
360
5E52
  0
DICTIONARY
  5
5E63
330
5B5
100
AcDbDictionary
280
     1
281
     1
  3
ACAD_XREC_ROUNDTRIP
360
5E64
  0
DICTIONARY
  5
5E67
330
5B7
100
AcDbDictionary
280
     1
281
     1
  3
ACAD_XREC_ROUNDTRIP
360
5E68
  0
DICTIONARY
  5
5E65
330
5B6
100
AcDbDictionary
280
     1
281
     1
  3
ACAD_XREC_ROUNDTRIP
360
5E66
  0
DICTIONARY
  5
5E61
330
5B4
100
AcDbDictionary
280
     1
281
     1
  3
ACAD_XREC_ROUNDTRIP
360
5E62
  0
DICTIONARY
  5
5E6F
330
5BB
100
AcDbDictionary
280
     1
281
     1
  3
ACAD_XREC_ROUNDTRIP
360
5E70
  0
DICTIONARY
  5
5E77
330
5BF
100
AcDbDictionary
280
     1
281
     1
  3
ACAD_XREC_ROUNDTRIP
360
5E78
  0
DICTIONARY
  5
5E69
330
5B8
100
AcDbDictionary
280
     1
281
     1
  3
ACAD_XREC_ROUNDTRIP
360
5E6A
  0
DICTIONARY
  5
5E6D
330
5BA
100
AcDbDictionary
280
     1
281
     1
  3
ACAD_XREC_ROUNDTRIP
360
5E6E
  0
DICTIONARY
  5
5E8B
330
5A32
100
AcDbDictionary
280
     1
281
     1
  3
ACAD_XREC_ROUNDTRIP
360
5E8C
  0
DICTIONARY
  5
5E75
330
5BE
100
AcDbDictionary
280
     1
281
     1
  3
ACAD_XREC_ROUNDTRIP
360
5E76
  0
DICTIONARY
  5
5E59
330
5B0
100
AcDbDictionary
280
     1
281
     1
  3
ACAD_XREC_ROUNDTRIP
360
5E5A
  0
DICTIONARY
  5
5E5B
330
5B1
100
AcDbDictionary
280
     1
281
     1
  3
ACAD_XREC_ROUNDTRIP
360
5E5C
  0
DICTIONARY
  5
5E5D
330
5B2
100
AcDbDictionary
280
     1
281
     1
  3
ACAD_XREC_ROUNDTRIP
360
5E5E
  0
DICTIONARY
  5
5E5F
330
5B3
100
AcDbDictionary
280
     1
281
     1
  3
ACAD_XREC_ROUNDTRIP
360
5E60
  0
DICTIONARY
  5
5E7B
330
5A2A
100
AcDbDictionary
280
     1
281
     1
  3
ACAD_XREC_ROUNDTRIP
360
5E7C
  0
DICTIONARY
  5
5E87
330
5A30
100
AcDbDictionary
280
     1
281
     1
  3
ACAD_XREC_ROUNDTRIP
360
5E88
  0
DICTIONARY
  5
5E73
330
5BD
100
AcDbDictionary
280
     1
281
     1
  3
ACAD_XREC_ROUNDTRIP
360
5E74
  0
DICTIONARY
  5
5E89
330
5A31
100
AcDbDictionary
280
     1
281
     1
  3
ACAD_XREC_ROUNDTRIP
360
5E8A
  0
DICTIONARY
  5
5E6B
330
5B9
100
AcDbDictionary
280
     1
281
     1
  3
ACAD_XREC_ROUNDTRIP
360
5E6C
  0
DICTIONARY
  5
5E85
330
5A2F
100
AcDbDictionary
280
     1
281
     1
  3
ACAD_XREC_ROUNDTRIP
360
5E86
  0
DICTIONARY
  5
5E83
330
5A2E
100
AcDbDictionary
280
     1
281
     1
  3
ACAD_XREC_ROUNDTRIP
360
5E84
  0
DICTIONARY
  5
5E7D
330
5A2B
100
AcDbDictionary
280
     1
281
     1
  3
ACAD_XREC_ROUNDTRIP
360
5E7E
  0
DICTIONARY
  5
5E7F
330
5A2C
100
AcDbDictionary
280
     1
281
     1
  3
ACAD_XREC_ROUNDTRIP
360
5E80
  0
DICTIONARY
  5
5E71
330
5BC
100
AcDbDictionary
280
     1
281
     1
  3
ACAD_XREC_ROUNDTRIP
360
5E72
  0
DICTIONARY
  5
5E79
330
5A29
100
AcDbDictionary
280
     1
281
     1
  3
ACAD_XREC_ROUNDTRIP
360
5E7A
  0
DICTIONARY
  5
5E81
330
5A2D
100
AcDbDictionary
280
     1
281
     1
  3
ACAD_XREC_ROUNDTRIP
360
5E82
  0
XRECORD
  5
5DB1
102
{ACAD_REACTORS
330
5DB0
102
}
330
5DB0
100
AcDbXrecord
280
     1
310
280000000001000071000000010008000000000000710000000000000000000000010000000000003028210000000000FFFFFF000000000000000000000000000000000000000000000000000000000000000000330000006600000099000000CC000000FF00000000330000333300006633000099330000CC330000FF3300
310
0000660000336600006666000099660000CC660000FF66000000990000339900006699000099990000CC990000FF99000000CC000033CC000066CC000099CC0000CCCC0000FFCC000000FF000033FF000066FF000099FF0000CCFF0000FFFF000000003300330033006600330099003300CC003300FF003300003333003333
310
33006633330099333300CC333300FF33330000663300336633006666330099663300CC663300FF66330000993300339933006699330099993300CC993300FF99330000CC330033CC330066CC330099CC3300CCCC3300FFCC330000FF330033FF330066FF330099FF3300CCFF3300FFFF330000006600330066006600660099
310
006600CC006600FF00660000336600333366006633660099336600CC336600FF33660000666600336666006666660099666600CC666600FF66660000996600339966006699660099996600CC996600FF99660000CC660033CC660066CC660099CC6600CCCC6600FFCC660000FF660033FF660066FF660099FF6600CCFF6600
310
FFFF660000009900330099006600990099009900CC009900FF00990000339900333399006633990099339900CC339900FF33990000669900336699006666990099669900CC669900FF66990000999900339999006699990099999900CC999900FF99990000CC990033CC990066CC990099CC9900CCCC9900FFCC990000FF99
310
0033FF990066FF990099FF9900CCFF9900FFFF99000000CC003300CC006600CC009900CC00CC00CC00FF00CC000033CC003333CC006633CC009933CC00CC33CC00FF33CC000066CC003366CC006666CC009966CC00CC66CC00FF66CC000099CC003399CC006699CC009999CC00CC99CC00FF99CC0000CCCC0033CCCC0066CC
310
CC0099CCCC00CCCCCC00FFCCCC0000FFCC0033FFCC0066FFCC0099FFCC00CCFFCC00FFFFCC000000FF003300FF006600FF009900FF00CC00FF00FF00FF000033FF003333FF006633FF009933FF00CC33FF00FF33FF000066FF003366FF006666FF009966FF00CC66FF00FF66FF000099FF003399FF006699FF009999FF00CC
310
99FF00FF99FF0000CCFF0033CCFF0066CCFF0099CCFF00CCCCFF00FFCCFF0000FFFF0033FFFF0066FFFF0099FFFF00CCFFFF00FFFFFF00000000000D0D0D001A1A1A00282828003535350043434300505050005D5D5D006B6B6B00787878008686860093939300A1A1A100AEAEAE00BBBBBB00C9C9C900D6D6D600E4E4E400
310
F1F1F100FFFFFF000000000000000000000000000000000000000000000000000000000000000000000000000000000000000000000000000000000000000000000000000000000000000000000000000000000000000000000000000000000000000000000000000000000000000000000000000000000000000000000000
310
00000000000000000000000000000000000000000000000000000000000000000000000000000000000000000000000000000000000000000000000000000000000000000000000000000000000000000000000000000000000000000000000000000000000000000000000000000000000000000000000000000000000000
310
00000000000000000000000000000000000000000000000000000000000000000000000000000000000000000000000000000000000000000000000000000000000000000000000000000000000000000000000000000000000000000000000000000000000000000000000000000000000000000000000000000000000000
310
00000000000000000000000000000000000000000000000000000000000000000000000000000000000000000000000000000000000000000000000000000000000000000000000000000000000000000000000000000000000000000000000000000000000000000000000000000000000000000000000000000000000000
310
00000000000000000000000000000000000000000000000000000000000000000000000000000000000000000000000000000000000000000000000000000000000000000000000000000000000000000000000000000000000000000000000000000000000000000000000000000000000000000000000000000000000000
310
00000000000000000000000000000000000000000000000000000000000000000000000000000000000000000000000000000000000000000000000000000000000000000000000000000000000000000000000000000000000000000000000000000000000000000000000000000000000000000000000000000000000000
310
00000000000000000000000000000000000000000000000000000000000000000000000000000000000000000000000000000000000000000000000000000000000000000000000000000000000000000000000000000000000000000000000000000000000000000000000000000000000000000000000000000000000000
310
00000000000000000000000000000000000000000000000000000000000000000000000000000000000000000000000000000000000000000000000000000000000000000000000000000000000000000000000000000000000000000000000000000000000000000000000000000000000000000000000000000000000000
310
00000000000000000000000000000000000000000000000000000000000000000000000000000000000000000000000000000000000000000000000000000000000000000000000000000000000000000000000000000000000000000000000000000000000000000000000000000000000000000000000000000000000000
310
00000000000000000000000000000000000000000000000000000000000000000000000000000000000000000000000000000000000000000000000000000000000000000000000000000000000000000000000000000000000000000000000000000000000000000000000000000000000000000000000000000000000000
310
00000000000000000000000000000000000000000000000000000000000000000000000000000000000000000000000000000000000000000000000000000000000000000000000000000000000000000000000000000000000000000000000000000000000000000000000000000000000000000000000000000000000000
310
00000000000000000000000000000000000000000000000000000000000000000000000000000000000000000000000000000000000000000000000000000000000000000000000000000000000000000000000000000000000000000000000000000000000000000000000000000000000000000000000000000000000000
310
00000000000000000000000000000000000000000000000000000000000000000000000000000000000000000000000000000000000000000000000000000000000000000000000000000000000000000000000000000000000000000000000000000000000000000000000000000000000000000000000000000000000000
310
00000000000000000000000000000000000000000000000000000000000000000000000000000000000000000000000000000000000000000000000000000000000000000000000000000000000000000000000000000000000000000000000000000000000000000000000000000000000000000000000000000000000000
310
00000000000000000000000000000000000000000000000000000000000000000000000000000000000000000000000000000000000000000000000000000000000000000000000000000000000000000000000000000000000000000000000000000000000000000000000000000000000000000000000000000000000000
310
00000000000000000000000000000000000000000000000000000000000000000000000000000000000000000000000000000000000000000000000000000000000000000000000000000000000000000000000000000000000000000000000000000000000000000000000000000000000000000000000000000000000000
310
00000000000000000000000000000000000000000000000000000000000000000000000000000000000000000000000000000000000000000000000000000000000000000000000000000000000000000000000000000000000000000000000000000000000000000000000000000000000000000000000000000000000000
310
00000000000000000000000000000000000000000000000000000000000000000000000000000000000000000000000000000000000000000000000000000000000000000000000000000000000000000000000000000000000000000000000000000000000000000000000000000000000000000000000000000000000000
310
00000000000000000000000000000000000000000000000000000000000000000000000000000000000000000000000000000000000000000000000000000000000000000000000000000000000000000000000000000000000000000000000000000000000000000000000000000000000000000000000000000000000000
310
00000000000000000000000000000000000000000000000000000000000000000000000000000000000000000000000000000000000000000000000000000000000000000000000000000000000000000000000000000000000000000000000000000000000000000000000000000000000000000000000000000000000000
310
00000000000000000000000000000000000000000000000000000000000000000000000000000000000000000000000000000000000000000000000000000000000000000000000000000000000000000000000000000000000000000000000000000000000000000000000000000000000000000000000000000000000000
310
00000000000000000000000000000000000000000000000000000000000000000000000000000000000000000000000000000000000000000000000000000000000000000000000000000000000000000000000000000000000000000000000000000000000000000000000000000000000000000000000000000000000000
310
00000000000000000000000000000000000000000000000000000000000000000000000000000000000000000000000000000000000000000000000000000000000000000000000000000000000000000000000000000000000000000000000000000000000000000000000000000000000000000000000000000000000000
310
00000000000000000000000000000000000000000000000000000000000000000000000000000000000000000000000000000000000000000000000000000000000000000000000000000000000000000000000000000000000000000000000000000000000000000000000000000000000000000000000000000000000000
310
00000000000000000000000000000000000000000000000000000000000000000000000000000000000000000000000000000000000000000000000000000000000000000000000000000000000000000000000000000000000000000000000000000000000000000000000000000000000000000000000000000000000000
310
00000000000000000000000000000000000000000000000000000000000000000000000000000000000000000000000000000000000000000000000000000000000000000000000000000000000000000000000000000000000000000000000000000000000000000000000000000000000000000000000000000000000000
310
00000000000000000000000000000000000000000000000000000000000000000000000000000000000000000000000000000000000000000000000000000000000000000000000000000000000000000000000000000000000000000000000000000000000000000000000000000000000000000000000000000000000000
310
00000000000000000000000000000000000000000000000000000000000000000000000000000000000000000000000000000000000000000000000000000000000000000000000000000000000000000000000000000000000000000000000000000000000000000000000000000000000000000000000000000000000000
310
00000000000000000000000000000000000000000000000000000000000000000000000000000000000000000000000000000000000000000000000000000000000000000000000000000000000000000000000000000000000000000000000000000000000000000000000000000000000000000000000000000000000000
310
00000000000000000000000000000000000000000000000000000000000000000000000000000000000000000000000000000000000000000000000000000000000000000000000000000000000000000000000000000000000000000000000000000000000000000000000000000000000000000000000000000000000000
310
00000000000000000000000000000000000000000000000000000000000000000000000000000000000000000000000000000000000000000000000000000000000000000000000000000000000000000000000000000000000000000000000000000000000000000000000000000000000000000000000000000000000000
310
00000000000000000000000000000000000000000000000000000000000000000000000000000000000000000000000000000000000000000000000000000000000000000000000000000000000000000000000000000000000000000000000000000000000000000000000000000000000000000000000000000000000000
310
00000000000000000000000000000000000000000000000000000000000000000000000000000000000000000000000000000000000000000000000000000000000000000000000000000000000000000000000000000000000000000000000000000000000000000000000000000000000000000000000000000000000000
310
00000000000000000000000000000000000000000000000000000000000000000000000000000000000000000000000000000000000000000000000000000000000000000000000000000000000000000000000000000000000000000000000000000000000000000000000000000000000000000000000000000000000000
310
00000000000000000000000000000000000000000000000000000000000000000000000000000000000000000000000000000000000000000000000000000000000000000000000000000000000000000000000000000000000000000000000000000000000000000000000000000000000000000000000000000000000000
310
00000000000000000000000000000000000000000000000000000000000000000000000000000000000000000000000000000000000000000000000000000000000000000000000000000000000000000000000000000000000000000000000000000000000000000000000000000000000000000000000000000000000000
310
00000000000000000000000000000000000000000000000000000000000000000000000000000000000000000000000000000000000000000000000000000000000000000000000000000000000000000000000000000000000000000000000000000000000000000000000000000000000000000000000000000000000000
310
00000000000000000000000000000000000000000000000000000000000000000000000000000000000000000000000000000000000000000000000000000000000000000000000000000000000000000000000000000000000000000000000000000000000000000000000000000000000000000000000000000000000000
310
0000000000000000000000000000000000000000000000000000000000000000000000000000000000000000000000000000000000000000000000000000000000000000000000000000000000000000000000000000000000000000000000000000000000000000000000000000000000000000000000000000F5F5F5F5F5
310
F5F5F5F5F5F5F5F5F5F500000000000000000000000000000000F5F5F5F5F5F5F5F5F5F5F5F5F5F5F50000000000000000000000000000000000000000000000000000000000000000000000000000000000000000000000000000000000000000000000000000000000000000000000000000000000000000000000000000
310
00000000000000000000000000000000000000000000000000000000000000000000000000000000000000000000000000000000000000000000000000000000000000000000000000000000000000000000000000000000000000000000000000000000000000000000000000000000000000000000000000000000F5F5F5
310
F5F5F5F5F5F5F5F5F5F5F5F500000000000000000000000000000000F5F5F5F5F5F5F5F5F5F5F5F5F5F5F5000000000000000000000000000000000000000000000000000000000000000000000000000000000000000000000000000000000000000000000000000000000000000000000000000000000000000000000000
310
00000000000000000000000000000000000000000000000000000000000000000000000000000000000000000000000000000000000000000000000000000000000000000000000000000000000000000000000000000000000000000000000000000000000000000000000000000000000000000000000000000000000000
310
F500F5000000F5000000F500F500000000000000000000000000000000000000F5F5000000F5000000F500F50000000000000000000000000000000000000000000000000000000000000000000000000000000000000000000000000000000000000000000000000000000000000000000000000000000000000000000000
310
00000000000000000000000000000000000000000000000000000000000000000000000000000000000000000000000000000000000000000000000000000000000000000000000000000000000000000000000000000000000000000000000000000000000000000000000000000000000000000000000000000000000000
310
00000000F500F5F5F5F5F500F500000000000000000000000000000000F5F5F5F50000F5000000F5000000F50000000000000000000000000000000000000000000000000000000000000000000000000000000000000000000000000000000000000000000000000000000000000000000000000000000000000000000000
310
0000000000000000000000F5F5F5F500000000000000000000000000000000000000000000000000000000000000000000000000000000000000000000000000000000000000000000000000000000000000000000000000000000000000000000000000000000000000000000000000000000000000000000000000000000
310
000000000000F5F5F5F5F5F5F5F5F500000000000000000000000000000000F5F5F5F50000F5000000F5000000F5000000000000000000000000000000000000000000000000000000000000000000000000000000F5F5F5F5F500000000000000000000000000000000000000000000000000000000000000000000000000
310
00000000000000000000000000F5F5F5F50000000000000000000000000000000000000000000000000000000000000000000000000000000000000000000000000000000000000000000000000000000000000000000000000000000000000000000000000000000000000000000000000000000000000000000000000000
310
0000000000000000F5F5F5F5F5F5F5F5F5000000000000000000000000000000F5F5F5F5F5F5F5F5F50000F50000F5F5F5F5F5F5F5F5F5F5F5F5F5F5F5F5F5F5F5F5F5F5F5F5F5F5F5F5F5F5F5F5F5F5F5F5F5F5F5F5F5F5F5F5F5F5F5F5F5F5F5F5F5F5F5F5F5F5F5F5F5F5F5F5F5F5F5F5F5F5F5F5F5F5F5F5F5F5F5F5F5
310
F5F5F5F5F5F5F5F5F5F5F5F5F5F5F5F5F5F5F5000000000000000000000000000000000000000000000000000000000000000000000000000000000000000000000000000000000000000000000000000000000000000000000000000000000000000000000000000000000000000000000000000000000000000000000000
310
000000000000000000F5F5F5F5F5F5F5F500F5F50000000000000000000000000000F5F5F5F5F5000000F5F500F500F5F500000000000000000000000000000000000000000000000000000000000000000000000000000000F5F5F5F5F5000000000000000000000000000000000000000000000000000000000000000000
310
0000000000000000000000000000000000F5F5F5F500000000000000000000000000000000000000000000000000000000000000000000000000000000000000000000000000000000000000000000000000000000000000000000000000000000000000000000000000000000000000000000000000000000000000000000
310
0000000000000000000000F5F5F5F5F5F5F5F5F500F5F500000000000000000000000000F5F5F5F5F50000000000F5F5F5F50000000000000000000000000000000000000000000000000000000000000000000000000000000000F5F5F5F5F500000000000000000000000000000000000000000000000000000000000000
310
00000000000000000000000000000000000000F5F5F5F50000000000000000000000000000000000000000000000000000000000000000000000000000000000000000000000000000000000000000000000000000000000000000000000000000000000000000000000000000000000000000000000000000000000000000
310
000000000000000000000000F5F5F500F500F5F5F500F5F5F500000000000000000000000000F5F5F5F5F5000000000000F500000000000000000000000000000000000000000000000000000000000000000000000000000000000000F5F5F5F5F50000000000000000000000000000000000000000000000000000000000
310
000000000000000000000000000000000000000000F5F5F5F5000000000000000000000000000000000000000000000000000000000000000000000000000000000000000000000000000000000000000000000000000000000000000000000000000000000000000000000000000000000000000000000000000000000000
310
00000000000000000000000000F5F5F5F5F5F5F5F5F5F5F5F5F5F5F5000000000000000000000000F5F5F5F5F5F5F5F5F5F5F5F5F5F5F5F5F5F5F5F5F5F5F5F5F5F5F5F5F5F5F5F5F5F5F5F5F5F5F5F5F5F5F5F5F5F5F5F5F5F5F5F5F5F5F5F5F5F5F5F5F5F5F5F5F5F5F5F5F5F5F5F5F5F5F5F5F5F5F5F5F5F5F5F5F5F5F5
310
F5F5F5F5F5F5F5F5F5F5F5F5F5F5F5F5F5F5F5F5F5F5F5F5F5F5F5F5000000000000000000000000000000000000000000000000000000000000000000000000000000000000000000000000000000000000000000000000000000000000000000000000000000000000000000000000000000000000000000000000000000
310
00000000000000000000000000000000F5F5F5000000F5000000F5F5F500000000000000000000000000F5F5F5F5F5000000000000F500000000000000000000000000000000000000000000000000000000000000000000000000000000000000F5F5F5F5F500000000000000000000000000000000000000000000000000
310
000000000000000000000000000000000000F5000000000000F5F5F5F5F500000000000000000000000000000000000000000000000000000000000000000000000000000000000000000000000000000000000000000000000000000000000000000000000000000000000000000000000000000000000000000000000000
310
000000000000000000000000000000000000F5F500F50000F5000000F5F5F50000000000000000000000000000F5F5F5F5000000000000F500000000000000000000000000000000000000000000000000000000000000000000000000000000000000F5F5F5F5F50000000000000000000000000000000000000000000000
310
00000000000000000000000000000000000000F5F5000000000000F5F5F5F5F50000000000000000000000000000000000000000000000000000000000000000000000000000000000000000000000000000000000000000000000000000000000000000000000000000000000000000000000000000000000000000000000
310
000000000000000000000000000000000000000000F5F5F50000F50000F5F5F5000000000000000000000000000000F5F5F5F50000000000000000000000000000000000000000000000000000000000000000000000000000000000000000000000000000F5F5F5F5F5000000000000000000000000000000000000000000
310
00000000000000000000000000000000000000F5F5F5F5F5F500000000F5F5F5F5F5000000000000000000000000000000000000000000000000000000000000000000000000000000000000000000000000000000000000000000000000000000000000000000000000000000000000000000000000000000000000000000
310
0000000000000000000000000000000000000000000000F5F5F5F5F5F5F5F5F5F5F5000000000000000000000000000000F5F5F5F50000000000000000000000000000000000000000000000000000000000000000000000000000000000000000000000000000F5F5F5F5F500000000000000000000000000000000000000
310
0000000000000000000000000000000000000000F5F50000F50000F5000000F5F5F5F5F500000000000000000000000000000000000000000000000000000000000000000000000000000000000000000000000000000000000000000000000000000000000000000000000000000000000000000000000000000000000000
310
0000000000000000000000000000000000000000000000000000F5F5F5F5F5F5F5F5F500000000000000000000000000000000F5F5F5F5F5F5F5F5F5F5F5F5F5F5F5F5F5F5F5F5F5F5F5F5F5F5F5F5F5F5F5F5F5F5F5F5F5F5F5F5F5F5F5F5F5F5F5F5F5F5F5F5F5F5F5F5F5F5F5F5F5F5F5F5F5F5F5F5F5F5F5F5F5F5F5F5
310
F5F5F5F5F5F5F5F5F5F5F5F5F5F5F5F5F5F5F5F5F5F5F5000000F5000000F5F5F5F5F5F5F5F50000000000000000000000000000000000000000000000000000000000000000000000000000000000000000000000000000000000000000000000000000000000000000000000000000000000000000000000000000000000
310
00000000000000000000000000000000000000000000000000000000F500F5F5F5F5F500F500000000000000000000000000000000F5F5F5F500000000000000000000000000000000000000000000000000000000000000000000000000000000000000000000000000000000000000000000000000000000000000000000
310
000000000000000000000000000000000000000000000000F5000000F5000000F50000F5F5F5F500000000000000000000000000000000000000000000000000000000000000000000000000000000000000000000000000000000000000000000000000000000000000000000000000000000000000000000000000000000
310
00000000000000000000000000000000000000000000000000000000F500F5000000F5000000F500F50000000000000000000000000000000000000000000000000000000000000000000000000000000000000000000000000000000000000000000000000000000000000000000000000000000000000000000000000000
310
000000000000000000000000000000000000000000000000F500F5000000F5000000F5F500000000000000000000000000000000000000000000000000000000000000000000000000000000000000000000000000000000000000000000000000000000000000000000000000000000000000000000000000000000000000
310
0000000000000000000000000000000000000000000000000000000000F5F5F5F5F5F5F5F5F5F5F5F5F5F5F50000000000000000000000000000000000000000000000000000000000000000000000000000000000000000000000000000000000000000000000000000000000000000000000000000000000000000000000
310
00000000000000000000000000000000000000000000000000F5F5F5F5F5F5F5F5F5F5F5F5F5F5F5000000000000000000000000000000000000000000000000000000000000000000000000000000000000000000000000000000000000000000000000000000000000000000000000000000000000000000000000000000
310
00000000000000000000000000000000000000000000000000000000000000F5F5F5F5F5F5F5F5F5F5F5F5F5F5F5000000000000000000000000000000000000000000000000000000000000000000000000000000000000000000000000000000000000000000000000000000000000000000000000000000000000000000
310
000000000000000000000000000000000000000000000000000000F5F5F5F5F5F5F5F5F5F5F5F5F5F5F500000000000000000000000000000000000000000000000000000000000000000000000000000000000000000000000000000000000000000000000000000000000000000000000000000000000000000000000000
310
00000000000000000000000000000000000000000000000000000000000000000000000000000000000000000000000000000000000000000000000000000000000000000000000000000000000000000000000000000000000000000000000000000000000000000000000000000000000000000000000000000000000000
310
00000000000000000000000000000000000000000000000000000000000000000000000000000000000000000000000000000000000000000000000000000000000000000000000000000000000000000000000000000000000000000000000000000000000000000000000000000000000000000000000000000000000000
310
00000000000000000000000000000000000000000000000000000000000000000000000000000000000000000000000000000000000000000000000000000000000000000000000000000000000000000000000000000000000000000000000000000000000000000000000000000000000000000000000000000000000000
310
00000000000000000000000000000000000000000000000000000000000000000000000000000000000000000000000000000000000000000000000000000000000000000000000000000000000000000000000000000000000000000000000000000000000000000000000000000000000000000000000000000000000000
310
00000000000000000000000000000000000000000000000000000000000000000000000000000000000000000000000000000000000000000000000000000000000000000000000000000000000000000000000000000000000000000000000000000000000000000000000000000000000000000000000000000000000000
310
00000000000000000000000000000000000000000000000000000000000000000000000000000000000000000000000000000000000000000000000000000000000000000000000000000000000000000000000000000000000000000000000000000000000000000000000000000000000000000000000000000000000000
310
00000000000000000000000000000000000000000000000000000000000000000000000000000000000000000000000000000000000000000000000000000000000000000000000000000000000000000000000000000000000000000000000000000000000000000000000000000000000000000000000000000000000000
310
00000000000000000000000000000000000000000000000000000000000000000000000000000000000000000000000000000000000000000000000000000000000000000000000000000000000000000000000000000000000000000000000000000000000000000000000000000000000000000000000000000000000000
310
00000000000000000000000000000000000000000000000000000000000000000000000000000000000000000000000000000000000000000000000000000000000000000000000000000000000000000000000000000000000000000000000000000000000000000000000000000000000000000000000000000000000000
310
00000000000000000000000000000000000000000000000000000000000000000000000000000000000000000000000000000000000000000000000000000000000000000000000000000000000000000000000000000000000000000000000000000000000000000000000000000000000000000000000000000000000000
310
00000000000000000000000000000000000000000000000000000000000000000000000000000000000000000000000000000000000000000000000000000000000000000000000000000000000000000000000000000000000000000000000000000000000000000000000000000000000000000000000000000000000000
310
00000000000000000000000000000000000000000000000000000000000000000000000000000000000000000000000000000000000000000000000000000000000000000000000000000000000000000000000000000000000000000000000000000000000000000000000000000000000000000000000000000000000000
310
00000000000000000000000000000000000000000000000000000000000000000000000000000000000000000000000000000000000000000000000000000000000000000000000000000000000000000000000000000000000000000000000000000000000000000000000000000000000000000000000000000000000000
310
00000000000000000000000000000000000000000000000000000000000000000000000000000000000000000000000000000000000000000000000000000000000000000000000000000000000000000000000000000000000000000000000000000000000000000000000000000000000000000000000000000000000000
310
00000000000000000000000000000000000000000000000000000000000000000000000000000000000000000000000000000000000000000000000000000000000000000000000000000000000000000000000000000000000000000000000000000000000000000000000000000000000000000000000000000000000000
310
00000000000000000000000000000000000000000000000000000000000000000000000000000000000000000000000000000000000000000000000000000000000000000000000000000000000000000000000000000000000000000000000000000000000000000000000000000000000000000000000000000000000000
310
00000000000000000000000000000000000000000000000000000000000000000000000000000000000000000000000000000000000000000000000000000000000000000000000000000000000000000000000000000000000000000000000000000000000000000000000000000000000000000000000000000000000000
310
00000000000000000000000000000000000000000000000000000000000000000000000000000000000000000000000000000000000000000000000000000000000000000000000000000000000000000000000000000000000000000000000000000000000000000000000000000000000000000000000000000000000000
310
00000000000000000000000000000000000000000000000000000000000000000000000000000000000000000000000000000000000000000000000000000000000000000000000000000000000000000000000000000000000000000000000000000000000000000000000000000000000000000000000000000000000000
310
00000000000000000000000000000000000000000000000000000000000000000000000000000000000000000000000000000000000000000000000000000000000000000000000000000000000000000000000000000000000000000000000000000000000000000000000000000000000000000000000000000000000000
310
00000000000000000000000000000000000000000000000000000000000000000000000000000000000000000000000000000000000000000000000000000000000000000000000000000000000000000000000000000000000000000000000000000000000000000000000000000000000000000000000000000000000000
310
00000000000000000000000000000000000000000000000000000000000000000000000000000000000000000000000000000000000000000000000000000000000000000000000000000000000000000000000000000000000000000000000000000000000000000000000000000000000000000000000000000000000000
310
00000000000000000000000000000000000000000000000000000000000000000000000000000000000000000000000000000000000000000000000000000000000000000000000000000000000000000000000000000000000000000000000000000000000000000000000000000000000000000000000000000000000000
310
00000000000000000000000000000000000000000000000000000000000000000000000000000000000000000000000000000000000000000000000000000000000000000000000000000000000000000000000000000000000000000000000000000000000000000000000000000000000000000000000000000000000000
310
00000000000000000000000000000000000000000000000000000000000000000000000000000000000000000000000000000000000000000000000000000000000000000000000000000000000000000000000000000000000000000000000000000000000000000000000000000000000000000000000000000000000000
310
00000000000000000000000000000000000000000000000000000000000000000000000000000000000000000000000000000000000000000000000000000000000000000000000000000000000000000000000000000000000000000000000000000000000000000000000000000000000000000000000000000000000000
310
00000000000000000000000000000000000000000000000000000000000000000000000000000000000000000000000000000000000000000000000000000000000000000000000000000000000000000000000000000000000000000000000000000000000000000000000000000000000000000000000000000000000000
310
00000000000000000000000000000000000000000000000000000000000000000000000000000000000000000000000000000000000000000000000000000000000000000000000000000000000000000000000000000000000000000000000000000000000000000000000000000000000000000000000000000000000000
310
00000000000000000000000000000000000000000000000000000000000000000000000000000000000000000000000000000000000000000000000000000000000000000000000000000000000000000000000000000000000000000000000000000000000000000000000000000000000000000000000000000000000000
310
00000000000000000000000000000000000000000000000000000000000000000000000000000000000000000000000000000000000000000000000000000000000000000000000000000000000000000000000000000000000000000000000000000000000000000000000000000000000000000000000000000000000000
310
00000000000000000000000000000000000000000000000000000000000000000000000000000000000000000000000000000000000000000000000000000000000000000000000000000000000000000000000000000000000000000000000000000000000000000000000000000000000000000000000000000000000000
310
00000000000000000000000000000000000000000000000000000000000000000000000000000000000000000000000000000000000000000000000000000000000000000000000000000000000000000000000000000000000000000000000000000000000000000000000000000000000000000000000000000000000000
310
00000000000000000000000000000000000000000000000000000000000000000000000000000000000000000000000000000000000000000000000000000000000000000000000000000000000000000000000000000000000000000000000000000000000000000000000000000000000000000000000000000000000000
310
00000000000000000000000000000000000000000000000000000000000000000000000000000000000000000000000000000000000000000000000000000000000000000000000000000000000000000000000000000000000000000000000000000000000000000000000000000000000000000000000000000000000000
310
00000000000000000000000000000000000000000000000000000000000000000000000000000000000000000000000000000000000000000000000000000000000000000000000000000000000000000000000000000000000000000000000000000000000000000000000000000000000000000000000000000000000000
310
00000000000000000000000000000000000000000000000000000000000000000000000000000000000000000000000000000000000000000000000000000000000000000000000000000000000000000000000000000000000000000000000000000000000000000000000000000000000000000000000000000000000000
310
00000000000000000000000000000000000000000000000000000000000000000000000000000000000000000000000000000000000000000000000000000000000000000000000000000000000000000000000000000000000000000000000000000000000000000000000000000000000000000000000000000000000000
310
00000000000000000000000000000000000000000000000000000000000000000000000000000000000000000000000000000000000000000000000000000000000000000000000000000000000000000000000000000000000000000000000000000000000000000000000000000000000000000000000000000000000000
310
00000000000000000000000000000000000000000000000000000000000000000000000000000000000000000000000000000000000000000000000000000000000000000000000000000000000000000000000000000000000000000000000000000000000000000000000000000000000000000000000000000000000000
310
00000000000000000000000000000000000000000000000000000000000000000000000000000000000000000000000000000000000000000000000000000000000000000000000000000000000000000000000000000000000000000000000000000000000000000000000000000000000000000000000000000000000000
310
00000000000000000000000000000000000000000000000000000000000000000000000000000000000000000000000000000000000000000000000000000000000000000000000000000000000000000000000000000000000000000000000000000000000000000000000000000000000000000000000000000000000000
310
00000000000000000000000000000000000000000000000000000000000000000000000000000000000000000000000000000000000000000000000000000000000000000000000000000000000000000000000000000000000000000000000000000000000000000000000000000000000000000000000000000000000000
310
00000000000000000000000000000000000000000000000000000000000000000000000000000000000000000000000000000000000000000000000000000000000000000000000000000000000000000000000000000000000000000000000000000000000000000000000000000000000000000000000000000000000000
310
00000000000000000000000000000000000000000000000000000000000000000000000000000000000000000000000000000000000000000000000000000000000000000000000000000000000000000000000000000000000000000000000000000000000000000000000000000000000000000000000000000000000000
310
00000000000000000000000000000000000000000000000000000000000000000000000000000000000000000000000000000000000000000000000000000000000000000000000000000000000000000000000000000000000000000000000000000000000000000000000000000000000000F50000000000000000000000
310
0000000000000000000000000000000000000000000000000000000000000000000000000000000000000000000000000000000000000000000000000000000000000000000000000000000000000000F500000000000000000000000000000000000000000000000000000000000000000000000000000000000000000000
310
000000000000000000000000000000000000000000000000000000000000000000000000000000000000000000000000000000000000000000000000000000000000000000000000000000000000000000000000000000000000000000000000000000000000000000000000000000000000000000F5000000000000000000
310
00000000000000000000000000000000000000000000000000000000000000000000000000000000000000000000000000000000000000000000000000000000000000000000000000000000000000000000F50000000000000000000000000000000000000000000000000000000000000000000000000000000000000000
310
000000000000000000000000000000000000000000000000000000000000000000000000000000000000000000000000000000000000000000000000000000000000000000000000000000000000000000000000000000000000000000000000000000000000000000000000000000000000000000F5F5F5F5F50000000000
310
00000000000000000000000000000000000000000000000000000000000000000000000000000000000000000000000000000000000000000000000000000000000000000000000000000000000000000000F5F5F5F5F500000000000000000000000000000000000000000000000000000000000000000000000000000000
310
000000000000000000000000000000000000000000000000000000000000000000000000000000000000000000000000000000000000000000000000000000000000000000000000000000000000000000000000000000000000000000000000000000000000000000000000000000F5F5F5F50000F5F5F5F5F5F5F5F5F500
310
00000000000000000000000000000000000000000000000000000000000000000000000000000000000000000000000000000000000000000000000000000000000000000000000000000000000000000000F5F5F5F5F5F5F5F5F50000F5F5F5F5000000000000000000000000000000000000000000000000000000000000
310
0000000000000000000000000000000000000000000000000000000000000000000000000000000000000000000000000000000000000000000000000000000000000000000000000000000000000000000000000000000000000000000000000000000000000000000000000000000000F5F5F5F5F5F5F5F5F5F5F5F5F5F5
310
F5F5F5F5F5F5F5F5F5F5F5F5F5F5F5F5F5F5F5F5F5F5F5F5F5F5F5F5F5F5F5F5F5F5F5F5F5F5F5F5F5F5F5F5F5F5F5F5F5F5F5F5F5F5F5F5F5F5F5F5F5F5F5F5F5F5F5F5F5F5F5F5F5F5F5F5F5F5F5F5F5F5F5F5F5F5F500F5F5F5F5F5F5F5F5F5F5F500000000000000000000000000000000000000000000000000000000
310
00000000000000000000000000000000000000000000000000000000000000000000000000000000000000000000000000000000000000000000000000000000000000000000000000000000000000000000000000000000000000000000000000000000000000000000000000000000000000F5F5F5F500000000F500F500
310
F50000000000000000000000000000000000000000000000000000000000000000000000000000000000F5F5F5F5F500000000000000000000000000000000000000000000000000000000000000000000000000F5F5F500F5F5F5F5F500F5F5F5F5F5F5F50000000000000000000000000000000000000000000000000000
310
0000000000000000000000000000000000000000000000000000000000000000000000000000000000000000000000000000000000000000000000000000000000000000000000000000000000000000000000000000000000000000000000000000000000000000000000000000000000000000F5F5F5F5F5000000000000
310
F500000000000000000000000000000000000000000000000000000000000000000000000000000000000000F5F5F5F5F5000000000000000000000000000000000000000000000000000000000000000000000000F5F5F500F5F500F500F5F5F5F5F5F5F5F5F5F50000000000000000000000000000000000000000000000
310
00000000000000000000000000000000000000000000000000000000000000000000000000000000000000000000000000000000000000000000000000000000000000000000000000000000000000000000000000000000000000000000000000000000000000000000000000000000000000000000F5F5F5F5F500000000
310
0000F500000000000000000000000000000000000000000000000000000000000000000000000000000000000000F5F5F5F5F5000000000000000000000000000000000000000000000000000000000000000000000000F5F5F5F5F50000F50000F5F5F5F5F5F5F5F5F5000000000000000000000000000000000000000000
310
000000000000000000000000000000000000000000000000000000000000000000000000000000000000000000000000000000000000000000000000000000000000000000000000000000000000000000000000000000000000000000000000000000000000000000000000000000000000000000000000F5F5F5F5F50000
310
00000000F500000000000000000000000000000000000000000000000000000000000000000000000000000000000000F5F5F5F5F5000000000000000000000000000000000000000000000000000000000000000000000000F5F500F5000000F50000F5F5F500F5F5F5F5F500000000000000000000000000000000000000
310
0000000000000000000000000000000000000000000000000000000000000000000000000000000000000000000000000000000000000000000000000000000000000000000000000000000000000000000000000000000000000000000000000000000000000000000000000000000000000000000000000000F5F5F5F5F5
310
F5F5F5F5F5F5F5F5F5F5F5F5F5F5F5F5F5F5F5F5F5F5F5F5F5F5F5F5F5F5F5F5F5F5F5F5F5F5F5F5F5F5F5F5F5F5F5F5F5F5F5F5F5F5F5F5F5F5F5F5F5F5F5F5F5F5F5F5F5F5F5F5F5F5F5F5F5F5F5F5F5F5F5F5F5F5F5F5F5F5F5F5F5F5F5F5F5F5F5F5F5F5F5F5F5F5F5F5F5F50000000000000000000000000000000000
310
00000000000000000000000000000000000000000000000000000000000000000000000000000000000000000000000000000000000000000000000000000000000000000000000000000000000000000000000000000000000000000000000000000000000000000000000000000000000000000000000000000000F5F5F5
310
F5F5000000000000F500000000000000000000000000000000000000000000000000000000000000000000000000000000000000F5F5F5F5F5000000000000000000000000000000000000000000000000000000000000000000000000F5F5F5F5000000F50000F500F5F5F5F5F5F5F5000000000000000000000000000000
310
000000000000000000000000000000000000000000000000000000000000000000000000000000000000000000000000000000000000000000000000000000000000000000000000000000000000000000000000000000000000000000000000000000000000000000000000000000000000000000000000000000000000F5
310
F5F5F5F5000000000000F500000000000000000000000000000000000000000000000000000000000000000000000000000000000000F5F5F5F5F5000000000000000000000000000000000000000000000000000000000000000000000000F5F5F5F5F50000F50000F5F5F5F5F5F5F5F5F500000000000000000000000000
310
00000000000000000000000000000000000000000000000000000000000000000000000000000000000000000000000000000000000000000000000000000000000000000000000000000000000000000000000000000000000000000000000000000000000000000000000000000000000000000000000000000000000000
310
0000F5F5F5F5000000000000F500000000000000000000000000000000000000000000000000000000000000000000000000000000000000F5F5F5F5F500000000000000000000000000000000000000000000000000000000000000000000000000F5F500F5F5F5F5F5F500F5F5F5F5F5F5F5000000000000000000000000
310
00000000000000000000000000000000000000000000000000000000000000000000000000000000000000000000000000000000000000000000000000000000000000000000000000000000000000000000000000000000000000000000000000000000000000000000000000000000000000000000000000000000000000
310
00000000F5F5F5F5F5F5F5F5F5F5F5F5F5F5F5F5F5F5F5F5F5F5F5F5F5F5F5F5F5F5F5F5F5F5F5F5F5F5F5F5F5F5F5F5F5F5F5F5F5F5F5F5F5F5F5F5F5F5F5F5F5F5F5F5F5F5F5F5F5F5F5F5F5F5F5F5F5F5F5F5F5F5F5F5F5F5F5F5F5F5F5F5F5F5F5F5F5F5F5F5F5F5F500F5F5F5F5F5F5F5F5F500000000000000000000
310
00000000000000000000000000000000000000000000000000000000000000000000000000000000000000000000000000000000000000000000000000000000000000000000000000000000000000000000000000000000000000000000000000000000000000000000000000000000000000000000000000000000000000
310
000000000000F5F5F5F50000F5F5F5F5F5F5F5F5F5F50000000000000000000000000000000000000000000000000000000000000000000000000000F5F5F5F5F50000000000000000000000000000000000000000000000000000000000000000000000000000F5F5F5F5F5F5F5F5F5F50000F5F5F5F50000000000000000
310
00000000000000000000000000000000000000000000000000000000000000000000000000000000000000000000000000000000000000000000000000000000000000000000000000000000000000000000000000000000000000000000000000000000000000000000000000000000000000000000000000000000000000
310
0000000000000000F5F5F5F5000000F5F5F5F5F5F5F5F50000000000000000000000000000000000000000000000000000000000000000000000000000000000000000000000000000000000000000000000000000000000000000000000000000000000000000000000F5F5F5F5F5F5F5F5000000F5F5F5F5000000000000
310
00000000000000000000000000000000000000000000000000000000000000000000000000000000000000000000000000000000000000000000000000000000000000000000000000000000000000000000000000000000000000000000000000000000000000000000000000000000000000000000000000000000000000
310
0000000000000000000000000000000000000000F500000000000000000000000000000000000000000000000000000000000000000000000000000000000000000000000000000000000000000000000000000000000000000000000000000000000000000000000000000000000000F50000000000000000000000000000
310
00000000000000000000000000000000000000000000000000000000000000000000000000000000000000000000000000000000000000000000000000000000000000000000000000000000000000000000000000000000000000000000000000000000000000000000000000000000000000000000000000000000000000
310
00000000000000000000000000000000000000000000F500000000000000000000000000000000000000000000000000000000000000000000000000000000000000000000000000000000000000000000000000000000000000000000000000000000000000000000000000000000000000F5000000000000000000000000
310
00000000000000000000000000000000000000000000000000000000000000000000000000000000000000000000000000000000000000000000000000000000000000000000000000000000000000000000000000000000000000000000000000000000000000000000000000000000000000000000000000000000000000
310
00000000000000000000000000000000000000000000000000000000000000000000000000000000000000000000000000000000000000000000000000000000000000000000000000000000000000000000000000000000000000000000000000000000000000000000000000000000000000000000000000000000000000
310
00000000000000000000000000000000000000000000000000000000000000000000000000000000000000000000000000000000000000000000000000000000000000000000000000000000000000000000000000000000000000000000000000000000000000000000000000000000000000000000000000000000000000
310
0000000000000000000000000000000000000000000000000000000000000000000000000000000000000000000000000000F500F5F5F5F5F5F500F500F5F5F5F5F5F5F5F5F5F5F5F5F5F500000000F5F5F5F5F5F5F500F5F5F5F5F5F5F5F5F500000000000000000000000000000000000000000000000000000000000000
310
00000000000000000000000000000000000000000000000000000000000000000000000000000000000000000000000000000000000000000000000000000000000000000000000000000000000000000000000000000000000000000000000000000000000000000000000000000000000000000000000000000000000000
310
00000000000000000000000000000000000000000000000000000000000000000000000000000000000000000000000000000000F500F5F5F500F5F5F5F5F50000F5F500F5F500F500F5F500F5F5F5F500F500F5F5F5F5F5F5F500F500F5F5F5F5000000000000000000000000000000000000000000000000000000000000
310
00000000000000000000000000000000000000000000000000000000000000000000000000000000000000000000000000000000000000000000000000000000000000000000000000000000000000000000000000000000000000000000000000000000000000000000000000000000000000000000000000000000000000
310
0000000000000000000000000000000000000000000000000000000000000000000000000000000000000000000000000000000000F5F500F5F5F5F5F500F5F500F5F5F5F5F5F5F5F5F5F5F5F50000000000F5F5F5F5F5F5F500F500F5F5F5F5F5F5F5F5000000000000000000000000000000000000000000000000000000
310
00000000000000000000000000000000000000000000000000000000000000000000000000000000000000000000000000000000000000000000000000000000000000000000000000000000000000000000000000000000000000000000000000000000000000000000000000000000000000000000000000000000000000
310
00000000000000000000000000000000000000000000000000000000000000000000000000000000000000000000000000000000000000000000000000000000000000000000000000000000000000000000000000000000000000000000000000000000000000000000000000000000000000000000000000000000000000
310
00000000000000000000000000000000000000000000000000000000000000000000000000000000000000000000000000000000000000000000000000000000000000000000000000000000000000000000000000000000000000000000000000000000000000000000000000000000000000000000000000000000000000
310
00000000000000000000000000000000000000000000000000000000000000000000000000000000000000000000000000000000000000000000000000000000000000000000000000000000000000000000000000000000000000000000000000000000000000000000000000000000000000000000000000000000000000
310
00000000000000000000000000000000000000000000000000000000000000000000000000000000000000000000000000000000000000000000000000000000000000000000000000000000000000000000000000000000000000000000000000000000000000000000000000000000000000000000000000000000000000
310
00000000000000000000000000000000000000000000000000000000000000000000000000000000000000000000000000000000000000000000000000000000000000000000000000000000000000000000000000000000000000000000000000000000000000000000000000000000000000000000000000000000000000
310
00000000000000000000000000000000000000000000000000000000000000000000000000000000000000000000000000000000000000000000000000000000000000000000000000000000000000000000000000000000000000000000000000000000000000000000000000000000000000000000000000000000000000
310
00000000000000000000000000000000000000000000000000000000000000000000000000000000000000000000000000000000000000000000000000000000000000000000000000000000000000000000000000000000000000000000000000000000000000000000000000000000000000000000000000000000000000
310
00000000000000000000000000000000000000000000000000000000000000000000000000000000000000000000000000000000000000000000000000000000000000000000000000000000000000000000000000000000000000000000000000000000000000000000000000000000000000000000000000000000000000
310
00000000000000000000000000000000000000000000000000000000000000000000000000000000000000000000000000000000000000000000000000000000000000000000000000000000000000000000000000000000000000000000000000000000000000000000000000000000000000000000000000000000000000
310
00000000000000000000000000000000000000000000000000000000000000000000000000000000000000000000000000000000000000000000000000000000000000000000000000000000000000000000000000000000000000000000000000000000000000000000000000000000000000000000000000000000000000
310
00000000000000000000000000000000000000000000000000000000000000000000000000000000000000000000000000000000000000000000000000000000000000000000000000000000000000000000000000000000000000000000000000000000000000000000000000000000000000000000000000000000000000
310
00000000000000000000000000000000000000000000000000000000000000000000000000000000000000000000000000000000000000000000000000000000000000000000000000000000000000000000000000000000000000000000000000000000000000000000000000000000000000000000000000000000000000
310
00000000000000000000000000000000000000000000000000000000000000000000000000000000000000000000000000000000000000000000000000000000000000000000000000000000000000000000000000000000000000000000000000000000000000000000000000000000000000000000000000000000000000
310
00000000000000000000000000000000000000000000000000000000000000000000000000000000000000000000000000000000000000000000000000000000000000000000000000000000000000000000000000000000000000000000000000000000000000000000000000000000000000000000000000000000000000
310
00000000000000000000000000000000000000000000000000000000000000000000000000000000000000000000000000000000000000000000000000000000000000000000000000000000000000000000000000000000000000000000000000000000000000000000000000000000000000000000000000000000000000
310
00000000000000000000000000000000000000000000000000000000000000000000000000000000000000000000000000000000000000000000000000000000000000000000000000000000000000000000000000000000000000000000000000000000000000000000000000000000000000000000000000000000000000
310
00000000000000000000000000000000000000000000000000000000000000000000000000000000000000000000000000000000000000000000000000000000000000000000000000000000000000000000000000000000000000000000000000000000000000000000000000000000000000000000000000000000000000
310
00000000000000000000000000000000000000000000000000000000000000000000000000000000000000000000000000000000000000000000000000000000000000000000000000000000000000000000000000000000000000000000000000000000000000000000000000000000000000000000000000000000000000
310
00000000000000000000000000000000000000000000000000000000000000000000000000000000000000000000000000000000000000000000000000000000000000000000000000000000000000000000000000000000000000000000000000000000000000000000000000000000000000000000000000000000000000
310
00000000000000000000000000000000000000000000000000000000000000000000000000000000000000000000000000000000000000000000000000000000000000000000000000000000000000000000000000000000000000000000000000000000000000000000000000000000000000000000000000000000000000
310
00000000000000000000000000000000000000000000000000000000000000000000000000000000000000000000000000000000000000000000000000000000000000000000000000000000000000000000000000000000000000000000000000000000000000000000000000000000000000000000000000000000000000
310
00000000000000000000000000000000000000000000000000000000000000000000000000000000000000000000000000000000000000000000000000000000000000000000000000000000000000000000000000000000000000000000000000000000000000000000000000000000000000000000000000000000000000
310
00000000000000000000000000000000000000000000000000000000000000000000000000000000000000000000000000000000000000000000000000000000000000000000000000000000000000000000000000000000000000000000000000000000000000000000000000000000000000000000000000000000000000
310
00000000000000000000000000000000000000000000000000000000000000000000000000000000000000000000000000000000000000000000000000000000000000000000000000000000000000000000000000000000000000000000000000000000000000000000000000000000000000000000000000000000000000
310
00000000000000000000000000000000000000000000000000000000000000000000000000000000000000000000000000000000000000000000000000000000000000000000000000000000000000000000000000000000000000000000000000000000000000000000000000000000000000000000000000000000000000
310
00000000000000000000000000000000000000000000000000000000000000000000000000000000000000000000000000000000000000000000000000000000000000000000000000000000000000000000000000000000000000000000000000000000000000000000000000000000000000000000000000000000000000
310
00000000000000000000000000000000000000000000000000000000000000000000000000000000000000000000000000000000000000000000000000000000000000000000000000000000000000000000000000000000000000000000000000000000000000000000000000000000000000000000000000000000000000
310
00000000000000000000000000000000000000000000000000000000000000000000000000000000000000000000000000000000000000000000000000000000000000000000000000000000000000000000000000000000000000000000000000000000000000000000000000000000000000000000000000000000000000
310
00000000000000000000000000000000000000000000000000000000000000000000000000000000000000000000000000000000000000000000000000000000000000000000000000000000000000000000000000000000000000000000000000000000000000000000000000000000000000000000000000000000000000
310
00000000000000000000000000000000000000000000000000000000000000000000000000000000000000000000000000000000000000000000000000000000000000000000000000000000000000000000000000000000000000000000000000000000000000000000000000000000000000000000000000000000000000
310
00000000000000000000000000000000000000000000000000000000000000000000000000000000000000000000000000000000000000000000000000000000000000000000000000000000000000000000000000000000000000000000000000000000000000000000000000000000000000000000000000000000000000
310
00000000000000000000000000000000000000000000000000000000000000000000000000000000000000000000000000000000000000000000000000000000000000000000000000000000000000000000000000000000000000000000000000000000000000000000000000000000000000000000000000000000000000
310
00000000000000000000000000000000000000000000000000000000000000000000000000000000000000000000000000000000000000000000000000000000000000000000000000000000000000000000000000000000000000000000000000000000000000000000000000000000000000000000000000000000000000
310
00000000000000000000000000000000000000000000000000000000000000000000000000000000000000000000000000000000000000000000000000000000000000000000000000000000000000000000000000000000000000000000000000000000000000000000000000000000000000000000000000000000000000
310
00000000000000000000000000000000000000000000000000000000000000000000000000000000000000000000000000000000000000000000000000000000000000000000000000000000000000000000000000000000000000000000000000000000000000000000000000000000000000000000000000000000000000
310
00000000000000000000000000000000000000000000000000000000000000000000000000000000000000000000000000000000000000000000000000000000000000000000000000000000000000000000000000000000000000000000000000000000000000000000000000000000000000000000000000000000000000
310
00000000000000000000000000000000000000000000000000000000000000000000000000000000000000000000000000000000000000000000000000000000000000000000000000000000000000000000000000000000000000000000000000000000000000000000000000000000000000000000000000000000000000
310
00000000000000000000000000000000000000000000000000000000000000000000000000000000000000000000000000000000000000000000000000000000000000000000000000000000000000000000000000000000000000000000000000000000000000000000000000000000000000000000000000000000000000
310
00000000000000000000000000000000000000000000000000000000000000000000000000000000000000000000000000000000000000000000000000000000000000000000000000000000000000000000000000000000000000000000000000000000000000000000000000000000000000000000000000000000000000
310
00000000000000000000000000000000000000000000000000000000000000000000000000000000000000000000000000000000000000000000000000000000000000000000000000000000000000000000000000000000000000000000000000000000000000000000000000000000000000000000000000000000000000
310
00000000000000000000000000000000000000000000000000000000000000000000000000000000000000000000000000000000000000000000000000000000000000000000000000000000000000000000000000000000000000000000000000000000000000000000000000000000000000000000000000000000000000
310
00000000000000000000000000000000000000000000000000000000000000000000000000000000000000000000000000000000000000000000000000000000000000000000000000000000000000000000000000000000000000000000000000000000000000000000000000000000000000000000000000000000000000
310
00000000000000000000000000000000000000000000000000000000000000000000000000000000000000000000000000000000000000000000000000000000000000000000000000000000000000000000000000000000000000000000000000000000000000000000000000000000000000000000000000000000000000
310
00000000000000000000000000000000000000000000000000000000000000000000000000000000000000000000000000000000000000000000000000000000000000000000000000000000000000000000000000000000000000000000000000000000000000000000000000000000000000000000000000000000000000
310
00000000000000000000000000000000000000000000000000000000000000000000000000000000000000000000000000000000000000000000000000000000000000000000000000000000000000000000000000000000000000000000000000000000000000000000000000000000000000000000000000000000000000
310
00000000000000000000000000000000000000000000000000000000000000000000000000000000000000000000000000000000000000000000000000000000000000000000000000000000000000000000000000000000000000000000000000000000000000000000000000000000000000000000000000000000000000
310
00000000000000000000000000000000000000000000000000000000000000000000000000000000000000000000000000000000000000000000000000000000000000000000000000000000000000000000000000000000000000000000000000000000000000000000000000000000000000000000000000000000000000
310
00000000000000000000000000000000000000000000000000000000000000000000000000000000000000000000000000000000000000000000000000000000000000000000000000000000000000000000000000000000000000000000000000000000000000000000000000000000000000000000000000000000000000
310
00000000000000000000000000000000000000000000000000000000000000000000000000000000000000000000000000000000000000000000000000000000000000000000000000000000000000000000000000000000000000000000000000000000000000000000000000000000000000000000000000000000000000
310
00000000000000000000000000000000000000000000000000000000000000000000000000000000000000000000000000000000000000000000000000000000000000000000000000000000000000000000000000000000000000000000000000000000000000000000000000000000000000000000000000000000000000
310
00000000000000000000000000000000000000000000000000000000000000000000000000000000000000000000000000000000000000000000000000000000000000000000000000000000000000000000000000000000000000000000000000000000000000000000000000000000000000000000000000000000000000
310
00000000000000000000000000000000000000000000000000000000000000000000000000000000000000000000000000000000000000000000000000000000000000000000000000000000000000000000000000000000000000000000000000000000000000000000000000000000000000000000000000000000000000
310
00000000000000000000000000000000000000000000000000000000000000000000000000000000000000000000000000000000000000000000000000000000000000000000000000000000000000000000000000000000000000000000000000000000000000000000000000000000000000000000000000000000000000
310
00000000000000000000000000000000000000000000000000000000000000000000000000000000000000000000000000000000000000000000000000000000000000000000000000000000000000000000000000000000000000000000000000000000000000000000000000000000000000000000000000000000000000
310
00000000000000000000000000000000000000000000000000000000000000000000000000000000000000000000000000000000000000000000000000000000000000000000000000000000000000000000000000000000000000000000000000000000000000000000000000000000000000000000000000000000000000
310
00000000000000000000000000000000000000000000000000000000000000000000000000000000000000000000000000000000000000000000000000000000000000000000000000000000000000000000000000000000000000000000000000000000000000000000000000000000000000000000000000000000000000
310
00000000000000000000000000000000000000000000000000000000000000000000000000000000000000000000000000000000000000000000000000000000000000000000000000000000000000000000000000000000000000000000000000000000000000000000000000000000000000000000000000000000000000
310
00000000000000000000000000000000000000000000000000000000000000000000000000000000000000000000000000000000000000000000000000000000000000000000000000000000000000000000000000000000000000000000000000000000000000000000000000000000000000000000000000000000000000
310
00000000000000000000000000000000000000000000000000000000000000000000000000000000000000000000000000000000000000000000000000000000000000000000000000000000000000000000000000000000000000000000000000000000000000000000000000000000000000000000000000000000000000
310
00000000000000000000000000000000000000000000000000000000000000000000000000000000000000000000000000000000000000000000000000000000000000000000000000000000000000000000000000000000000000000000000000000000000000000000000000000000000000000000000000000000000000
310
00000000000000000000000000000000000000000000000000000000000000000000000000000000000000000000000000000000000000000000000000000000000000000000000000000000000000000000000000000000000000000000000000000000000000000000000000000000000000000000000000000000000000
310
00000000000000000000000000000000000000000000000000000000000000000000000000000000000000000000000000000000000000000000000000000000000000000000000000000000000000000000000000000000000000000000000000000000000000000000000000000000000000000000000000000000000000
310
0000000000000000000000000000000000000000
  0
XRECORD
  5
5E56
102
{ACAD_REACTORS
330
5E55
102
}
330
5E55
100
AcDbXrecord
280
     1
102
MATERIAL
148
0.0
149
0.0
149
0.0
 93
        0
 94
       63
282
     0
 72
     1
 77
     1
171
     1
175
     1
179
     1
273
     0
  0
XRECORD
  5
5E54
102
{ACAD_REACTORS
330
5E53
102
}
330
5E53
100
AcDbXrecord
280
     1
102
MATERIAL
148
0.0
149
0.0
149
0.0
 93
        0
 94
       63
282
     0
 72
     1
 77
     1
171
     1
175
     1
179
     1
273
     0
  0
XRECORD
  5
5E58
102
{ACAD_REACTORS
330
5E57
102
}
330
5E57
100
AcDbXrecord
280
     1
102
MATERIAL
148
0.0
149
0.0
149
0.0
 93
        0
 94
       63
282
     0
 72
     1
 77
     1
171
     1
175
     1
179
     1
273
     0
  0
CELLSTYLEMAP
  5
5E4B
102
{ACAD_REACTORS
330
624
102
}
330
624
100
AcDbCellStyleMap
 90
        3
300
CELLSTYLE
  1
TABLEFORMAT_BEGIN
 90
        5
170
     1
 91
        0
 92
    32768
 62
   257
 93
        1
300
CONTENTFORMAT
  1
CONTENTFORMAT_BEGIN
 90
        0
 91
        0
 92
        4
 93
        0
300

 40
0.0
140
1.0
 94
        5
 62
     0
340
11
144
6.0
309
CONTENTFORMAT_END
171
     1
301
MARGIN
  1
CELLMARGIN_BEGIN
 40
1.5
 40
1.5
 40
1.5
 40
1.5
 40
0.18
 40
0.18
309
CELLMARGIN_END
 94
        6
 95
        1
302
GRIDFORMAT
  1
GRIDFORMAT_BEGIN
 90
        0
 91
        1
 62
     0
 92
       -2
340
0
 93
        0
 40
0.045
309
GRIDFORMAT_END
 95
        2
302
GRIDFORMAT
  1
GRIDFORMAT_BEGIN
 90
        0
 91
        1
 62
     0
 92
       -2
340
0
 93
        0
 40
0.045
309
GRIDFORMAT_END
 95
        4
302
GRIDFORMAT
  1
GRIDFORMAT_BEGIN
 90
        0
 91
        1
 62
     0
 92
       -2
340
0
 93
        0
 40
0.045
309
GRIDFORMAT_END
 95
        8
302
GRIDFORMAT
  1
GRIDFORMAT_BEGIN
 90
        0
 91
        1
 62
     0
 92
       -2
340
0
 93
        0
 40
0.045
309
GRIDFORMAT_END
 95
       16
302
GRIDFORMAT
  1
GRIDFORMAT_BEGIN
 90
        0
 91
        1
 62
     0
 92
       -2
340
0
 93
        0
 40
0.045
309
GRIDFORMAT_END
 95
       32
302
GRIDFORMAT
  1
GRIDFORMAT_BEGIN
 90
        0
 91
        1
 62
     0
 92
       -2
340
0
 93
        0
 40
0.045
309
GRIDFORMAT_END
309
TABLEFORMAT_END
  1
CELLSTYLE_BEGIN
 90
        1
 91
        1
300
_TITLE
309
CELLSTYLE_END
300
CELLSTYLE
  1
TABLEFORMAT_BEGIN
 90
        5
170
     1
 91
        0
 92
        0
 62
   257
 93
        1
300
CONTENTFORMAT
  1
CONTENTFORMAT_BEGIN
 90
        0
 91
        0
 92
        4
 93
        0
300

 40
0.0
140
1.0
 94
        5
 62
     0
340
11
144
4.5
309
CONTENTFORMAT_END
171
     1
301
MARGIN
  1
CELLMARGIN_BEGIN
 40
1.5
 40
1.5
 40
1.5
 40
1.5
 40
0.18
 40
0.18
309
CELLMARGIN_END
 94
        6
 95
        1
302
GRIDFORMAT
  1
GRIDFORMAT_BEGIN
 90
        0
 91
        1
 62
     0
 92
       -2
340
0
 93
        0
 40
0.045
309
GRIDFORMAT_END
 95
        2
302
GRIDFORMAT
  1
GRIDFORMAT_BEGIN
 90
        0
 91
        1
 62
     0
 92
       -2
340
0
 93
        0
 40
0.045
309
GRIDFORMAT_END
 95
        4
302
GRIDFORMAT
  1
GRIDFORMAT_BEGIN
 90
        0
 91
        1
 62
     0
 92
       -2
340
0
 93
        0
 40
0.045
309
GRIDFORMAT_END
 95
        8
302
GRIDFORMAT
  1
GRIDFORMAT_BEGIN
 90
        0
 91
        1
 62
     0
 92
       -2
340
0
 93
        0
 40
0.045
309
GRIDFORMAT_END
 95
       16
302
GRIDFORMAT
  1
GRIDFORMAT_BEGIN
 90
        0
 91
        1
 62
     0
 92
       -2
340
0
 93
        0
 40
0.045
309
GRIDFORMAT_END
 95
       32
302
GRIDFORMAT
  1
GRIDFORMAT_BEGIN
 90
        0
 91
        1
 62
     0
 92
       -2
340
0
 93
        0
 40
0.045
309
GRIDFORMAT_END
309
TABLEFORMAT_END
  1
CELLSTYLE_BEGIN
 90
        2
 91
        1
300
_HEADER
309
CELLSTYLE_END
300
CELLSTYLE
  1
TABLEFORMAT_BEGIN
 90
        5
170
     1
 91
        0
 92
        0
 62
   257
 93
        1
300
CONTENTFORMAT
  1
CONTENTFORMAT_BEGIN
 90
        0
 91
        0
 92
        4
 93
        0
300

 40
0.0
140
1.0
 94
        2
 62
     0
340
11
144
4.5
309
CONTENTFORMAT_END
171
     1
301
MARGIN
  1
CELLMARGIN_BEGIN
 40
1.5
 40
1.5
 40
1.5
 40
1.5
 40
0.18
 40
0.18
309
CELLMARGIN_END
 94
        6
 95
        1
302
GRIDFORMAT
  1
GRIDFORMAT_BEGIN
 90
        0
 91
        1
 62
     0
 92
       -2
340
0
 93
        0
 40
0.045
309
GRIDFORMAT_END
 95
        2
302
GRIDFORMAT
  1
GRIDFORMAT_BEGIN
 90
        0
 91
        1
 62
     0
 92
       -2
340
0
 93
        0
 40
0.045
309
GRIDFORMAT_END
 95
        4
302
GRIDFORMAT
  1
GRIDFORMAT_BEGIN
 90
        0
 91
        1
 62
     0
 92
       -2
340
0
 93
        0
 40
0.045
309
GRIDFORMAT_END
 95
        8
302
GRIDFORMAT
  1
GRIDFORMAT_BEGIN
 90
        0
 91
        1
 62
     0
 92
       -2
340
0
 93
        0
 40
0.045
309
GRIDFORMAT_END
 95
       16
302
GRIDFORMAT
  1
GRIDFORMAT_BEGIN
 90
        0
 91
        1
 62
     0
 92
       -2
340
0
 93
        0
 40
0.045
309
GRIDFORMAT_END
 95
       32
302
GRIDFORMAT
  1
GRIDFORMAT_BEGIN
 90
        0
 91
        1
 62
     0
 92
       -2
340
0
 93
        0
 40
0.045
309
GRIDFORMAT_END
309
TABLEFORMAT_END
  1
CELLSTYLE_BEGIN
 90
        3
 91
        2
300
_DATA
309
CELLSTYLE_END
  0
XRECORD
  5
5E52
102
{ACAD_REACTORS
330
624
102
}
330
624
100
AcDbXrecord
280
     1
102
ACAD_ROUNDTRIP_PRE2007_TABLESTYLE
 90
        4
 91
        0
  1

 92
        4
 93
        0
  2

 94
        4
 95
        0
  3

  0
XRECORD
  5
5E64
102
{ACAD_REACTORS
330
5E63
102
}
330
5E63
100
AcDbXrecord
280
     1
102
RTVSPropertyOp0
 70
     1
102
RTVSPropertyOp1
 70
     1
102
RTVSPropertyOp2
 70
     1
102
RTVSPropertyOp3
 70
     1
102
RTVSPropertyOp4
 70
     1
102
RTVSPropertyOp5
 70
     1
102
RTVSPropertyOp6
 70
     1
102
RTVSPropertyOp7
 70
     1
102
RTVSPropertyOp8
 70
     1
102
RTVSPropertyOp9
 70
     1
102
RTVSPropertyOp10
 70
     1
102
RTVSPropertyOp11
 70
     1
102
RTVSPropertyOp12
 70
     1
102
RTVSPropertyOp13
 70
     1
102
RTVSPropertyOp14
 70
     1
102
RTVSPropertyOp15
 70
     1
102
RTVSPropertyOp16
 70
     1
102
RTVSPropertyOp17
 70
     1
102
RTVSPropertyOp18
 70
     1
102
RTVSPropertyOp19
 70
     1
102
RTVSPropertyOp20
 70
     1
102
RTVSPropertyOp21
 70
     1
102
RTVSPropertyOp22
 70
     1
102
RTVSPropertyOp23
 70
     1
102
RTVSPropertyOp24
 70
     1
102
RTVSPropertyOp25
 70
     1
102
RTVSPropertyOp26
 70
     1
102
RTVSPropertyOp27
 70
     1
102
RTVSPropertyOp28
 70
     1
102
RTVSPropertyOp29
 70
     1
102
RTVSPropertyOp30
 70
     1
102
RTVSPropertyOp31
 70
     1
102
RTVSPropertyOp32
 70
     1
  0
XRECORD
  5
5E68
102
{ACAD_REACTORS
330
5E67
102
}
330
5E67
100
AcDbXrecord
280
     1
102
RTVSPropertyOp0
 70
     1
102
RTVSPropertyOp1
 70
     1
102
RTVSPropertyOp2
 70
     1
102
RTVSPropertyOp3
 70
     1
102
RTVSPropertyOp4
 70
     1
102
RTVSPropertyOp5
 70
     1
102
RTVSPropertyOp6
 70
     1
102
RTVSPropertyOp7
 70
     1
102
RTVSPropertyOp8
 70
     1
102
RTVSPropertyOp9
 70
     1
102
RTVSPropertyOp10
 70
     1
102
RTVSPropertyOp11
 70
     1
102
RTVSPropertyOp12
 70
     1
102
RTVSPropertyOp13
 70
     1
102
RTVSPropertyOp14
 70
     1
102
RTVSPropertyOp15
 70
     1
102
RTVSPropertyOp16
 70
     1
102
RTVSPropertyOp17
 70
     1
102
RTVSPropertyOp18
 70
     1
102
RTVSPropertyOp19
 70
     1
102
RTVSPropertyOp20
 70
     1
102
RTVSPropertyOp21
 70
     1
102
RTVSPropertyOp22
 70
     1
102
RTVSPropertyOp23
 70
     1
102
RTVSPropertyOp24
 70
     1
102
RTVSPropertyOp25
 70
     1
102
RTVSPropertyOp26
 70
     1
102
RTVSPropertyOp27
 70
     1
102
RTVSPropertyOp28
 70
     1
102
RTVSPropertyOp29
 70
     1
102
RTVSPropertyOp30
 70
     1
102
RTVSPropertyOp31
 70
     1
102
RTVSPropertyOp32
 70
     1
  0
XRECORD
  5
5E66
102
{ACAD_REACTORS
330
5E65
102
}
330
5E65
100
AcDbXrecord
280
     1
102
RTVSPropertyOp0
 70
     1
102
RTVSPropertyOp1
 70
     1
102
RTVSPropertyOp2
 70
     1
102
RTVSPropertyOp3
 70
     1
102
RTVSPropertyOp4
 70
     1
102
RTVSPropertyOp5
 70
     1
102
RTVSPropertyOp6
 70
     1
102
RTVSPropertyOp7
 70
     1
102
RTVSPropertyOp8
 70
     1
102
RTVSPropertyOp9
 70
     1
102
RTVSPropertyOp10
 70
     1
102
RTVSPropertyOp11
 70
     1
102
RTVSPropertyOp12
 70
     1
102
RTVSPropertyOp13
 70
     1
102
RTVSPropertyOp14
 70
     1
102
RTVSPropertyOp15
 70
     1
102
RTVSPropertyOp16
 70
     1
102
RTVSPropertyOp17
 70
     1
102
RTVSPropertyOp18
 70
     1
102
RTVSPropertyOp19
 70
     1
102
RTVSPropertyOp20
 70
     1
102
RTVSPropertyOp21
 70
     1
102
RTVSPropertyOp22
 70
     1
102
RTVSPropertyOp23
 70
     1
102
RTVSPropertyOp24
 70
     1
102
RTVSPropertyOp25
 70
     1
102
RTVSPropertyOp26
 70
     1
102
RTVSPropertyOp27
 70
     1
102
RTVSPropertyOp28
 70
     1
102
RTVSPropertyOp29
 70
     1
102
RTVSPropertyOp30
 70
     1
102
RTVSPropertyOp31
 70
     1
102
RTVSPropertyOp32
 70
     1
  0
XRECORD
  5
5E62
102
{ACAD_REACTORS
330
5E61
102
}
330
5E61
100
AcDbXrecord
280
     1
102
RTVSPropertyOp0
 70
     1
102
RTVSPropertyOp1
 70
     1
102
RTVSPropertyOp2
 70
     1
102
RTVSPropertyOp3
 70
     1
102
RTVSPropertyOp4
 70
     1
102
RTVSPropertyOp5
 70
     1
102
RTVSPropertyOp6
 70
     1
102
RTVSPropertyOp7
 70
     1
102
RTVSPropertyOp8
 70
     1
102
RTVSPropertyOp9
 70
     1
102
RTVSPropertyOp10
 70
     1
102
RTVSPropertyOp11
 70
     1
102
RTVSPropertyOp12
 70
     1
102
RTVSPropertyOp13
 70
     1
102
RTVSPropertyOp14
 70
     1
102
RTVSPropertyOp15
 70
     1
102
RTVSPropertyOp16
 70
     1
102
RTVSPropertyOp17
 70
     1
102
RTVSPropertyOp18
 70
     1
102
RTVSPropertyOp19
 70
     1
102
RTVSPropertyOp20
 70
     1
102
RTVSPropertyOp21
 70
     1
102
RTVSPropertyOp22
 70
     1
102
RTVSPropertyOp23
 70
     1
102
RTVSPropertyOp24
 70
     1
102
RTVSPropertyOp25
 70
     1
102
RTVSPropertyOp26
 70
     1
102
RTVSPropertyOp27
 70
     1
102
RTVSPropertyOp28
 70
     1
102
RTVSPropertyOp29
 70
     1
102
RTVSPropertyOp30
 70
     1
102
RTVSPropertyOp31
 70
     1
102
RTVSPropertyOp32
 70
     1
  0
XRECORD
  5
5E70
102
{ACAD_REACTORS
330
5E6F
102
}
330
5E6F
100
AcDbXrecord
280
     1
102
RTVSPropertyOp0
 70
     1
102
RTVSPropertyOp1
 70
     1
102
RTVSPropertyOp2
 70
     1
102
RTVSPropertyOp3
 70
     1
102
RTVSPropertyOp4
 70
     1
102
RTVSPropertyOp5
 70
     1
102
RTVSPropertyOp6
 70
     1
102
RTVSPropertyOp7
 70
     1
102
RTVSPropertyOp8
 70
     1
102
RTVSPropertyOp9
 70
     1
102
RTVSPropertyOp10
 70
     1
102
RTVSPropertyOp11
 70
     1
102
RTVSPropertyOp12
 70
     1
102
RTVSPropertyOp13
 70
     1
102
RTVSPropertyOp14
 70
     1
102
RTVSPropertyOp15
 70
     1
102
RTVSPropertyOp16
 70
     1
102
RTVSPropertyOp17
 70
     1
102
RTVSPropertyOp18
 70
     1
102
RTVSPropertyOp19
 70
     1
102
RTVSPropertyOp20
 70
     1
102
RTVSPropertyOp21
 70
     1
102
RTVSPropertyOp22
 70
     1
102
RTVSPropertyOp23
 70
     1
102
RTVSPropertyOp24
 70
     1
102
RTVSPropertyOp25
 70
     1
102
RTVSPropertyOp26
 70
     1
102
RTVSPropertyOp27
 70
     1
102
RTVSPropertyOp28
 70
     1
102
RTVSPropertyOp29
 70
     1
102
RTVSPropertyOp30
 70
     1
102
RTVSPropertyOp31
 70
     1
102
RTVSPropertyOp32
 70
     1
  0
XRECORD
  5
5E78
102
{ACAD_REACTORS
330
5E77
102
}
330
5E77
100
AcDbXrecord
280
     1
102
RTVSPropertyOp0
 70
     1
102
RTVSPropertyOp1
 70
     1
102
RTVSPropertyOp2
 70
     1
102
RTVSPropertyOp3
 70
     1
102
RTVSPropertyOp4
 70
     1
102
RTVSPropertyOp5
 70
     1
102
RTVSPropertyOp6
 70
     1
102
RTVSPropertyOp7
 70
     1
102
RTVSPropertyOp8
 70
     1
102
RTVSPropertyOp9
 70
     1
102
RTVSPropertyOp10
 70
     1
102
RTVSPropertyOp11
 70
     1
102
RTVSPropertyOp12
 70
     1
102
RTVSPropertyOp13
 70
     1
102
RTVSPropertyOp14
 70
     1
102
RTVSPropertyOp15
 70
     1
102
RTVSPropertyOp16
 70
     1
102
RTVSPropertyOp17
 70
     1
102
RTVSPropertyOp18
 70
     1
102
RTVSPropertyOp19
 70
     1
102
RTVSPropertyOp20
 70
     1
102
RTVSPropertyOp21
 70
     1
102
RTVSPropertyOp22
 70
     1
102
RTVSPropertyOp23
 70
     1
102
RTVSPropertyOp24
 70
     1
102
RTVSPropertyOp25
 70
     1
102
RTVSPropertyOp26
 70
     1
102
RTVSPropertyOp27
 70
     1
102
RTVSPropertyOp28
 70
     1
102
RTVSPropertyOp29
 70
     1
102
RTVSPropertyOp30
 70
     1
102
RTVSPropertyOp31
 70
     1
102
RTVSPropertyOp32
 70
     1
  0
XRECORD
  5
5E6A
102
{ACAD_REACTORS
330
5E69
102
}
330
5E69
100
AcDbXrecord
280
     1
102
RTVSPropertyOp0
 70
     1
102
RTVSPropertyOp1
 70
     1
102
RTVSPropertyOp2
 70
     1
102
RTVSPropertyOp3
 70
     1
102
RTVSPropertyOp4
 70
     1
102
RTVSPropertyOp5
 70
     1
102
RTVSPropertyOp6
 70
     1
102
RTVSPropertyOp7
 70
     1
102
RTVSPropertyOp8
 70
     1
102
RTVSPropertyOp9
 70
     1
102
RTVSPropertyOp10
 70
     1
102
RTVSPropertyOp11
 70
     1
102
RTVSPropertyOp12
 70
     1
102
RTVSPropertyOp13
 70
     1
102
RTVSPropertyOp14
 70
     1
102
RTVSPropertyOp15
 70
     1
102
RTVSPropertyOp16
 70
     1
102
RTVSPropertyOp17
 70
     1
102
RTVSPropertyOp18
 70
     1
102
RTVSPropertyOp19
 70
     1
102
RTVSPropertyOp20
 70
     1
102
RTVSPropertyOp21
 70
     1
102
RTVSPropertyOp22
 70
     1
102
RTVSPropertyOp23
 70
     1
102
RTVSPropertyOp24
 70
     1
102
RTVSPropertyOp25
 70
     1
102
RTVSPropertyOp26
 70
     1
102
RTVSPropertyOp27
 70
     1
102
RTVSPropertyOp28
 70
     1
102
RTVSPropertyOp29
 70
     1
102
RTVSPropertyOp30
 70
     1
102
RTVSPropertyOp31
 70
     1
102
RTVSPropertyOp32
 70
     1
  0
XRECORD
  5
5E6E
102
{ACAD_REACTORS
330
5E6D
102
}
330
5E6D
100
AcDbXrecord
280
     1
102
RTVSPropertyOp0
 70
     1
102
RTVSPropertyOp1
 70
     1
102
RTVSPropertyOp2
 70
     1
102
RTVSPropertyOp3
 70
     1
102
RTVSPropertyOp4
 70
     1
102
RTVSPropertyOp5
 70
     1
102
RTVSPropertyOp6
 70
     1
102
RTVSPropertyOp7
 70
     1
102
RTVSPropertyOp8
 70
     1
102
RTVSPropertyOp9
 70
     1
102
RTVSPropertyOp10
 70
     1
102
RTVSPropertyOp11
 70
     1
102
RTVSPropertyOp12
 70
     1
102
RTVSPropertyOp13
 70
     1
102
RTVSPropertyOp14
 70
     1
102
RTVSPropertyOp15
 70
     1
102
RTVSPropertyOp16
 70
     1
102
RTVSPropertyOp17
 70
     1
102
RTVSPropertyOp18
 70
     1
102
RTVSPropertyOp19
 70
     1
102
RTVSPropertyOp20
 70
     1
102
RTVSPropertyOp21
 70
     1
102
RTVSPropertyOp22
 70
     1
102
RTVSPropertyOp23
 70
     1
102
RTVSPropertyOp24
 70
     1
102
RTVSPropertyOp25
 70
     1
102
RTVSPropertyOp26
 70
     1
102
RTVSPropertyOp27
 70
     1
102
RTVSPropertyOp28
 70
     1
102
RTVSPropertyOp29
 70
     1
102
RTVSPropertyOp30
 70
     1
102
RTVSPropertyOp31
 70
     1
102
RTVSPropertyOp32
 70
     1
  0
XRECORD
  5
5E8C
102
{ACAD_REACTORS
330
5E8B
102
}
330
5E8B
100
AcDbXrecord
280
     1
102
RTVSPropertyOp0
 70
     0
102
RTVSPropertyOp1
 70
     0
102
RTVSPropertyOp2
 70
     0
102
RTVSPropertyOp3
 70
     0
102
RTVSPropertyOp4
 70
     0
102
RTVSPropertyOp5
 70
     0
102
RTVSPropertyOp6
 70
     0
102
RTVSPropertyOp7
 70
     0
102
RTVSPropertyOp8
 70
     0
102
RTVSPropertyOp9
 70
     0
102
RTVSPropertyOp10
 70
     0
102
RTVSPropertyOp11
 70
     0
102
RTVSPropertyOp12
 70
     0
102
RTVSPropertyOp13
 70
     0
102
RTVSPropertyOp14
 70
     2
102
RTVSPropertyOp15
 70
     0
102
RTVSPropertyOp16
 70
     0
102
RTVSPropertyOp17
 70
     0
102
RTVSPropertyOp18
 70
     0
102
RTVSPropertyOp19
 70
     0
102
RTVSPropertyOp20
 70
     0
102
RTVSPropertyOp21
 70
     0
102
RTVSPropertyOp22
 70
     0
102
RTVSPropertyOp23
 70
     0
102
RTVSPropertyOp24
 70
     0
102
RTVSPropertyOp25
 70
     0
102
RTVSPropertyOp26
 70
     0
102
RTVSPropertyOp27
 70
     0
102
RTVSPropertyOp28
 70
     1
102
RTVSPropertyOp29
 70
     1
102
RTVSPropertyOp30
 70
     1
102
RTVSPropertyOp31
 70
     1
102
RTVSPropertyOp32
 70
     1
  0
XRECORD
  5
5E76
102
{ACAD_REACTORS
330
5E75
102
}
330
5E75
100
AcDbXrecord
280
     1
102
RTVSPropertyOp0
 70
     1
102
RTVSPropertyOp1
 70
     1
102
RTVSPropertyOp2
 70
     1
102
RTVSPropertyOp3
 70
     1
102
RTVSPropertyOp4
 70
     1
102
RTVSPropertyOp5
 70
     1
102
RTVSPropertyOp6
 70
     1
102
RTVSPropertyOp7
 70
     1
102
RTVSPropertyOp8
 70
     1
102
RTVSPropertyOp9
 70
     1
102
RTVSPropertyOp10
 70
     1
102
RTVSPropertyOp11
 70
     1
102
RTVSPropertyOp12
 70
     1
102
RTVSPropertyOp13
 70
     1
102
RTVSPropertyOp14
 70
     1
102
RTVSPropertyOp15
 70
     1
102
RTVSPropertyOp16
 70
     1
102
RTVSPropertyOp17
 70
     1
102
RTVSPropertyOp18
 70
     1
102
RTVSPropertyOp19
 70
     1
102
RTVSPropertyOp20
 70
     1
102
RTVSPropertyOp21
 70
     1
102
RTVSPropertyOp22
 70
     1
102
RTVSPropertyOp23
 70
     1
102
RTVSPropertyOp24
 70
     1
102
RTVSPropertyOp25
 70
     1
102
RTVSPropertyOp26
 70
     1
102
RTVSPropertyOp27
 70
     1
102
RTVSPropertyOp28
 70
     1
102
RTVSPropertyOp29
 70
     1
102
RTVSPropertyOp30
 70
     1
102
RTVSPropertyOp31
 70
     1
102
RTVSPropertyOp32
 70
     1
  0
XRECORD
  5
5E5A
102
{ACAD_REACTORS
330
5E59
102
}
330
5E59
100
AcDbXrecord
280
     1
102
RTVSPropertyOp0
 70
     1
102
RTVSPropertyOp1
 70
     1
102
RTVSPropertyOp2
 70
     1
102
RTVSPropertyOp3
 70
     1
102
RTVSPropertyOp4
 70
     1
102
RTVSPropertyOp5
 70
     1
102
RTVSPropertyOp6
 70
     1
102
RTVSPropertyOp7
 70
     1
102
RTVSPropertyOp8
 70
     1
102
RTVSPropertyOp9
 70
     1
102
RTVSPropertyOp10
 70
     1
102
RTVSPropertyOp11
 70
     1
102
RTVSPropertyOp12
 70
     1
102
RTVSPropertyOp13
 70
     1
102
RTVSPropertyOp14
 70
     1
102
RTVSPropertyOp15
 70
     1
102
RTVSPropertyOp16
 70
     1
102
RTVSPropertyOp17
 70
     1
102
RTVSPropertyOp18
 70
     1
102
RTVSPropertyOp19
 70
     1
102
RTVSPropertyOp20
 70
     1
102
RTVSPropertyOp21
 70
     1
102
RTVSPropertyOp22
 70
     1
102
RTVSPropertyOp23
 70
     1
102
RTVSPropertyOp24
 70
     1
102
RTVSPropertyOp25
 70
     1
102
RTVSPropertyOp26
 70
     1
102
RTVSPropertyOp27
 70
     1
102
RTVSPropertyOp28
 70
     1
102
RTVSPropertyOp29
 70
     1
102
RTVSPropertyOp30
 70
     1
102
RTVSPropertyOp31
 70
     1
102
RTVSPropertyOp32
 70
     1
  0
XRECORD
  5
5E5C
102
{ACAD_REACTORS
330
5E5B
102
}
330
5E5B
100
AcDbXrecord
280
     1
102
RTVSPropertyOp0
 70
     1
102
RTVSPropertyOp1
 70
     1
102
RTVSPropertyOp2
 70
     1
102
RTVSPropertyOp3
 70
     1
102
RTVSPropertyOp4
 70
     1
102
RTVSPropertyOp5
 70
     1
102
RTVSPropertyOp6
 70
     1
102
RTVSPropertyOp7
 70
     1
102
RTVSPropertyOp8
 70
     1
102
RTVSPropertyOp9
 70
     1
102
RTVSPropertyOp10
 70
     1
102
RTVSPropertyOp11
 70
     1
102
RTVSPropertyOp12
 70
     1
102
RTVSPropertyOp13
 70
     1
102
RTVSPropertyOp14
 70
     1
102
RTVSPropertyOp15
 70
     1
102
RTVSPropertyOp16
 70
     1
102
RTVSPropertyOp17
 70
     1
102
RTVSPropertyOp18
 70
     1
102
RTVSPropertyOp19
 70
     1
102
RTVSPropertyOp20
 70
     1
102
RTVSPropertyOp21
 70
     1
102
RTVSPropertyOp22
 70
     1
102
RTVSPropertyOp23
 70
     1
102
RTVSPropertyOp24
 70
     1
102
RTVSPropertyOp25
 70
     1
102
RTVSPropertyOp26
 70
     1
102
RTVSPropertyOp27
 70
     1
102
RTVSPropertyOp28
 70
     1
102
RTVSPropertyOp29
 70
     1
102
RTVSPropertyOp30
 70
     1
102
RTVSPropertyOp31
 70
     1
102
RTVSPropertyOp32
 70
     1
  0
XRECORD
  5
5E5E
102
{ACAD_REACTORS
330
5E5D
102
}
330
5E5D
100
AcDbXrecord
280
     1
102
RTVSPropertyOp0
 70
     1
102
RTVSPropertyOp1
 70
     1
102
RTVSPropertyOp2
 70
     1
102
RTVSPropertyOp3
 70
     1
102
RTVSPropertyOp4
 70
     1
102
RTVSPropertyOp5
 70
     1
102
RTVSPropertyOp6
 70
     1
102
RTVSPropertyOp7
 70
     1
102
RTVSPropertyOp8
 70
     1
102
RTVSPropertyOp9
 70
     1
102
RTVSPropertyOp10
 70
     1
102
RTVSPropertyOp11
 70
     1
102
RTVSPropertyOp12
 70
     1
102
RTVSPropertyOp13
 70
     1
102
RTVSPropertyOp14
 70
     1
102
RTVSPropertyOp15
 70
     1
102
RTVSPropertyOp16
 70
     1
102
RTVSPropertyOp17
 70
     1
102
RTVSPropertyOp18
 70
     1
102
RTVSPropertyOp19
 70
     1
102
RTVSPropertyOp20
 70
     1
102
RTVSPropertyOp21
 70
     1
102
RTVSPropertyOp22
 70
     1
102
RTVSPropertyOp23
 70
     1
102
RTVSPropertyOp24
 70
     1
102
RTVSPropertyOp25
 70
     1
102
RTVSPropertyOp26
 70
     1
102
RTVSPropertyOp27
 70
     1
102
RTVSPropertyOp28
 70
     1
102
RTVSPropertyOp29
 70
     1
102
RTVSPropertyOp30
 70
     1
102
RTVSPropertyOp31
 70
     1
102
RTVSPropertyOp32
 70
     1
  0
XRECORD
  5
5E60
102
{ACAD_REACTORS
330
5E5F
102
}
330
5E5F
100
AcDbXrecord
280
     1
102
RTVSPropertyOp0
 70
     1
102
RTVSPropertyOp1
 70
     1
102
RTVSPropertyOp2
 70
     1
102
RTVSPropertyOp3
 70
     1
102
RTVSPropertyOp4
 70
     1
102
RTVSPropertyOp5
 70
     1
102
RTVSPropertyOp6
 70
     1
102
RTVSPropertyOp7
 70
     1
102
RTVSPropertyOp8
 70
     1
102
RTVSPropertyOp9
 70
     1
102
RTVSPropertyOp10
 70
     1
102
RTVSPropertyOp11
 70
     1
102
RTVSPropertyOp12
 70
     1
102
RTVSPropertyOp13
 70
     1
102
RTVSPropertyOp14
 70
     1
102
RTVSPropertyOp15
 70
     1
102
RTVSPropertyOp16
 70
     1
102
RTVSPropertyOp17
 70
     1
102
RTVSPropertyOp18
 70
     1
102
RTVSPropertyOp19
 70
     1
102
RTVSPropertyOp20
 70
     1
102
RTVSPropertyOp21
 70
     1
102
RTVSPropertyOp22
 70
     1
102
RTVSPropertyOp23
 70
     1
102
RTVSPropertyOp24
 70
     1
102
RTVSPropertyOp25
 70
     1
102
RTVSPropertyOp26
 70
     1
102
RTVSPropertyOp27
 70
     1
102
RTVSPropertyOp28
 70
     1
102
RTVSPropertyOp29
 70
     1
102
RTVSPropertyOp30
 70
     1
102
RTVSPropertyOp31
 70
     1
102
RTVSPropertyOp32
 70
     1
  0
XRECORD
  5
5E7C
102
{ACAD_REACTORS
330
5E7B
102
}
330
5E7B
100
AcDbXrecord
280
     1
102
RTVSPropertyOp0
 70
     1
102
RTVSPropertyOp1
 70
     1
102
RTVSPropertyOp2
 70
     1
102
RTVSPropertyOp3
 70
     1
102
RTVSPropertyOp4
 70
     1
102
RTVSPropertyOp5
 70
     1
102
RTVSPropertyOp6
 70
     1
102
RTVSPropertyOp7
 70
     1
102
RTVSPropertyOp8
 70
     1
102
RTVSPropertyOp9
 70
     1
102
RTVSPropertyOp10
 70
     1
102
RTVSPropertyOp11
 70
     1
102
RTVSPropertyOp12
 70
     1
102
RTVSPropertyOp13
 70
     1
102
RTVSPropertyOp14
 70
     1
102
RTVSPropertyOp15
 70
     1
102
RTVSPropertyOp16
 70
     1
102
RTVSPropertyOp17
 70
     1
102
RTVSPropertyOp18
 70
     1
102
RTVSPropertyOp19
 70
     1
102
RTVSPropertyOp20
 70
     1
102
RTVSPropertyOp21
 70
     1
102
RTVSPropertyOp22
 70
     1
102
RTVSPropertyOp23
 70
     1
102
RTVSPropertyOp24
 70
     1
102
RTVSPropertyOp25
 70
     1
102
RTVSPropertyOp26
 70
     1
102
RTVSPropertyOp27
 70
     1
102
RTVSPropertyOp28
 70
     1
102
RTVSPropertyOp29
 70
     1
102
RTVSPropertyOp30
 70
     1
102
RTVSPropertyOp31
 70
     1
102
RTVSPropertyOp32
 70
     1
  0
XRECORD
  5
5E88
102
{ACAD_REACTORS
330
5E87
102
}
330
5E87
100
AcDbXrecord
280
     1
102
RTVSPropertyOp0
 70
     0
102
RTVSPropertyOp1
 70
     0
102
RTVSPropertyOp2
 70
     0
102
RTVSPropertyOp3
 70
     0
102
RTVSPropertyOp4
 70
     0
102
RTVSPropertyOp5
 70
     0
102
RTVSPropertyOp6
 70
     0
102
RTVSPropertyOp7
 70
     0
102
RTVSPropertyOp8
 70
     0
102
RTVSPropertyOp9
 70
     0
102
RTVSPropertyOp10
 70
     0
102
RTVSPropertyOp11
 70
     0
102
RTVSPropertyOp12
 70
     0
102
RTVSPropertyOp13
 70
     0
102
RTVSPropertyOp14
 70
     2
102
RTVSPropertyOp15
 70
     0
102
RTVSPropertyOp16
 70
     0
102
RTVSPropertyOp17
 70
     0
102
RTVSPropertyOp18
 70
     0
102
RTVSPropertyOp19
 70
     0
102
RTVSPropertyOp20
 70
     0
102
RTVSPropertyOp21
 70
     0
102
RTVSPropertyOp22
 70
     0
102
RTVSPropertyOp23
 70
     0
102
RTVSPropertyOp24
 70
     0
102
RTVSPropertyOp25
 70
     0
102
RTVSPropertyOp26
 70
     0
102
RTVSPropertyOp27
 70
     0
102
RTVSPropertyOp28
 70
     1
102
RTVSPropertyOp29
 70
     1
102
RTVSPropertyOp30
 70
     1
102
RTVSPropertyOp31
 70
     1
102
RTVSPropertyOp32
 70
     1
  0
XRECORD
  5
5E74
102
{ACAD_REACTORS
330
5E73
102
}
330
5E73
100
AcDbXrecord
280
     1
102
RTVSPropertyOp0
 70
     1
102
RTVSPropertyOp1
 70
     1
102
RTVSPropertyOp2
 70
     1
102
RTVSPropertyOp3
 70
     1
102
RTVSPropertyOp4
 70
     1
102
RTVSPropertyOp5
 70
     1
102
RTVSPropertyOp6
 70
     1
102
RTVSPropertyOp7
 70
     1
102
RTVSPropertyOp8
 70
     1
102
RTVSPropertyOp9
 70
     1
102
RTVSPropertyOp10
 70
     1
102
RTVSPropertyOp11
 70
     1
102
RTVSPropertyOp12
 70
     1
102
RTVSPropertyOp13
 70
     1
102
RTVSPropertyOp14
 70
     1
102
RTVSPropertyOp15
 70
     1
102
RTVSPropertyOp16
 70
     1
102
RTVSPropertyOp17
 70
     1
102
RTVSPropertyOp18
 70
     1
102
RTVSPropertyOp19
 70
     1
102
RTVSPropertyOp20
 70
     1
102
RTVSPropertyOp21
 70
     1
102
RTVSPropertyOp22
 70
     1
102
RTVSPropertyOp23
 70
     1
102
RTVSPropertyOp24
 70
     1
102
RTVSPropertyOp25
 70
     1
102
RTVSPropertyOp26
 70
     1
102
RTVSPropertyOp27
 70
     1
102
RTVSPropertyOp28
 70
     1
102
RTVSPropertyOp29
 70
     1
102
RTVSPropertyOp30
 70
     1
102
RTVSPropertyOp31
 70
     1
102
RTVSPropertyOp32
 70
     1
  0
XRECORD
  5
5E8A
102
{ACAD_REACTORS
330
5E89
102
}
330
5E89
100
AcDbXrecord
280
     1
102
RTVSPropertyOp0
 70
     0
102
RTVSPropertyOp1
 70
     0
102
RTVSPropertyOp2
 70
     0
102
RTVSPropertyOp3
 70
     0
102
RTVSPropertyOp4
 70
     0
102
RTVSPropertyOp5
 70
     0
102
RTVSPropertyOp6
 70
     0
102
RTVSPropertyOp7
 70
     0
102
RTVSPropertyOp8
 70
     0
102
RTVSPropertyOp9
 70
     0
102
RTVSPropertyOp10
 70
     0
102
RTVSPropertyOp11
 70
     0
102
RTVSPropertyOp12
 70
     0
102
RTVSPropertyOp13
 70
     0
102
RTVSPropertyOp14
 70
     2
102
RTVSPropertyOp15
 70
     0
102
RTVSPropertyOp16
 70
     0
102
RTVSPropertyOp17
 70
     0
102
RTVSPropertyOp18
 70
     0
102
RTVSPropertyOp19
 70
     0
102
RTVSPropertyOp20
 70
     0
102
RTVSPropertyOp21
 70
     0
102
RTVSPropertyOp22
 70
     0
102
RTVSPropertyOp23
 70
     0
102
RTVSPropertyOp24
 70
     0
102
RTVSPropertyOp25
 70
     0
102
RTVSPropertyOp26
 70
     0
102
RTVSPropertyOp27
 70
     0
102
RTVSPropertyOp28
 70
     1
102
RTVSPropertyOp29
 70
     1
102
RTVSPropertyOp30
 70
     1
102
RTVSPropertyOp31
 70
     1
102
RTVSPropertyOp32
 70
     1
  0
XRECORD
  5
5E6C
102
{ACAD_REACTORS
330
5E6B
102
}
330
5E6B
100
AcDbXrecord
280
     1
102
RTVSPropertyOp0
 70
     1
102
RTVSPropertyOp1
 70
     1
102
RTVSPropertyOp2
 70
     1
102
RTVSPropertyOp3
 70
     1
102
RTVSPropertyOp4
 70
     1
102
RTVSPropertyOp5
 70
     1
102
RTVSPropertyOp6
 70
     1
102
RTVSPropertyOp7
 70
     1
102
RTVSPropertyOp8
 70
     1
102
RTVSPropertyOp9
 70
     1
102
RTVSPropertyOp10
 70
     1
102
RTVSPropertyOp11
 70
     1
102
RTVSPropertyOp12
 70
     1
102
RTVSPropertyOp13
 70
     1
102
RTVSPropertyOp14
 70
     1
102
RTVSPropertyOp15
 70
     1
102
RTVSPropertyOp16
 70
     1
102
RTVSPropertyOp17
 70
     1
102
RTVSPropertyOp18
 70
     1
102
RTVSPropertyOp19
 70
     1
102
RTVSPropertyOp20
 70
     1
102
RTVSPropertyOp21
 70
     1
102
RTVSPropertyOp22
 70
     1
102
RTVSPropertyOp23
 70
     1
102
RTVSPropertyOp24
 70
     1
102
RTVSPropertyOp25
 70
     1
102
RTVSPropertyOp26
 70
     1
102
RTVSPropertyOp27
 70
     1
102
RTVSPropertyOp28
 70
     1
102
RTVSPropertyOp29
 70
     1
102
RTVSPropertyOp30
 70
     1
102
RTVSPropertyOp31
 70
     1
102
RTVSPropertyOp32
 70
     1
  0
XRECORD
  5
5E86
102
{ACAD_REACTORS
330
5E85
102
}
330
5E85
100
AcDbXrecord
280
     1
102
RTVSPropertyOp0
 70
     1
102
RTVSPropertyOp1
 70
     1
102
RTVSPropertyOp2
 70
     1
102
RTVSPropertyOp3
 70
     1
102
RTVSPropertyOp4
 70
     1
102
RTVSPropertyOp5
 70
     1
102
RTVSPropertyOp6
 70
     1
102
RTVSPropertyOp7
 70
     1
102
RTVSPropertyOp8
 70
     1
102
RTVSPropertyOp9
 70
     1
102
RTVSPropertyOp10
 70
     1
102
RTVSPropertyOp11
 70
     1
102
RTVSPropertyOp12
 70
     1
102
RTVSPropertyOp13
 70
     1
102
RTVSPropertyOp14
 70
     1
102
RTVSPropertyOp15
 70
     1
102
RTVSPropertyOp16
 70
     1
102
RTVSPropertyOp17
 70
     1
102
RTVSPropertyOp18
 70
     1
102
RTVSPropertyOp19
 70
     1
102
RTVSPropertyOp20
 70
     1
102
RTVSPropertyOp21
 70
     1
102
RTVSPropertyOp22
 70
     1
102
RTVSPropertyOp23
 70
     1
102
RTVSPropertyOp24
 70
     1
102
RTVSPropertyOp25
 70
     1
102
RTVSPropertyOp26
 70
     1
102
RTVSPropertyOp27
 70
     1
102
RTVSPropertyOp28
 70
     1
102
RTVSPropertyOp29
 70
     1
102
RTVSPropertyOp30
 70
     1
102
RTVSPropertyOp31
 70
     1
102
RTVSPropertyOp32
 70
     1
  0
XRECORD
  5
5E84
102
{ACAD_REACTORS
330
5E83
102
}
330
5E83
100
AcDbXrecord
280
     1
102
RTVSPropertyOp0
 70
     1
102
RTVSPropertyOp1
 70
     1
102
RTVSPropertyOp2
 70
     1
102
RTVSPropertyOp3
 70
     1
102
RTVSPropertyOp4
 70
     1
102
RTVSPropertyOp5
 70
     1
102
RTVSPropertyOp6
 70
     1
102
RTVSPropertyOp7
 70
     1
102
RTVSPropertyOp8
 70
     1
102
RTVSPropertyOp9
 70
     1
102
RTVSPropertyOp10
 70
     1
102
RTVSPropertyOp11
 70
     1
102
RTVSPropertyOp12
 70
     1
102
RTVSPropertyOp13
 70
     1
102
RTVSPropertyOp14
 70
     1
102
RTVSPropertyOp15
 70
     1
102
RTVSPropertyOp16
 70
     1
102
RTVSPropertyOp17
 70
     1
102
RTVSPropertyOp18
 70
     1
102
RTVSPropertyOp19
 70
     1
102
RTVSPropertyOp20
 70
     1
102
RTVSPropertyOp21
 70
     1
102
RTVSPropertyOp22
 70
     1
102
RTVSPropertyOp23
 70
     1
102
RTVSPropertyOp24
 70
     1
102
RTVSPropertyOp25
 70
     1
102
RTVSPropertyOp26
 70
     1
102
RTVSPropertyOp27
 70
     1
102
RTVSPropertyOp28
 70
     1
102
RTVSPropertyOp29
 70
     1
102
RTVSPropertyOp30
 70
     1
102
RTVSPropertyOp31
 70
     1
102
RTVSPropertyOp32
 70
     1
  0
XRECORD
  5
5E7E
102
{ACAD_REACTORS
330
5E7D
102
}
330
5E7D
100
AcDbXrecord
280
     1
102
RTVSPropertyOp0
 70
     1
102
RTVSPropertyOp1
 70
     1
102
RTVSPropertyOp2
 70
     1
102
RTVSPropertyOp3
 70
     1
102
RTVSPropertyOp4
 70
     1
102
RTVSPropertyOp5
 70
     1
102
RTVSPropertyOp6
 70
     1
102
RTVSPropertyOp7
 70
     1
102
RTVSPropertyOp8
 70
     1
102
RTVSPropertyOp9
 70
     1
102
RTVSPropertyOp10
 70
     1
102
RTVSPropertyOp11
 70
     1
102
RTVSPropertyOp12
 70
     1
102
RTVSPropertyOp13
 70
     1
102
RTVSPropertyOp14
 70
     1
102
RTVSPropertyOp15
 70
     1
102
RTVSPropertyOp16
 70
     1
102
RTVSPropertyOp17
 70
     1
102
RTVSPropertyOp18
 70
     1
102
RTVSPropertyOp19
 70
     1
102
RTVSPropertyOp20
 70
     1
102
RTVSPropertyOp21
 70
     1
102
RTVSPropertyOp22
 70
     1
102
RTVSPropertyOp23
 70
     1
102
RTVSPropertyOp24
 70
     1
102
RTVSPropertyOp25
 70
     1
102
RTVSPropertyOp26
 70
     1
102
RTVSPropertyOp27
 70
     1
102
RTVSPropertyOp28
 70
     1
102
RTVSPropertyOp29
 70
     1
102
RTVSPropertyOp30
 70
     1
102
RTVSPropertyOp31
 70
     1
102
RTVSPropertyOp32
 70
     1
  0
XRECORD
  5
5E80
102
{ACAD_REACTORS
330
5E7F
102
}
330
5E7F
100
AcDbXrecord
280
     1
102
RTVSPropertyOp0
 70
     1
102
RTVSPropertyOp1
 70
     1
102
RTVSPropertyOp2
 70
     1
102
RTVSPropertyOp3
 70
     1
102
RTVSPropertyOp4
 70
     1
102
RTVSPropertyOp5
 70
     1
102
RTVSPropertyOp6
 70
     1
102
RTVSPropertyOp7
 70
     1
102
RTVSPropertyOp8
 70
     1
102
RTVSPropertyOp9
 70
     1
102
RTVSPropertyOp10
 70
     1
102
RTVSPropertyOp11
 70
     1
102
RTVSPropertyOp12
 70
     1
102
RTVSPropertyOp13
 70
     1
102
RTVSPropertyOp14
 70
     1
102
RTVSPropertyOp15
 70
     1
102
RTVSPropertyOp16
 70
     1
102
RTVSPropertyOp17
 70
     1
102
RTVSPropertyOp18
 70
     1
102
RTVSPropertyOp19
 70
     1
102
RTVSPropertyOp20
 70
     1
102
RTVSPropertyOp21
 70
     1
102
RTVSPropertyOp22
 70
     1
102
RTVSPropertyOp23
 70
     1
102
RTVSPropertyOp24
 70
     1
102
RTVSPropertyOp25
 70
     1
102
RTVSPropertyOp26
 70
     1
102
RTVSPropertyOp27
 70
     1
102
RTVSPropertyOp28
 70
     1
102
RTVSPropertyOp29
 70
     1
102
RTVSPropertyOp30
 70
     1
102
RTVSPropertyOp31
 70
     1
102
RTVSPropertyOp32
 70
     1
  0
XRECORD
  5
5E72
102
{ACAD_REACTORS
330
5E71
102
}
330
5E71
100
AcDbXrecord
280
     1
102
RTVSPropertyOp0
 70
     1
102
RTVSPropertyOp1
 70
     1
102
RTVSPropertyOp2
 70
     1
102
RTVSPropertyOp3
 70
     1
102
RTVSPropertyOp4
 70
     1
102
RTVSPropertyOp5
 70
     1
102
RTVSPropertyOp6
 70
     1
102
RTVSPropertyOp7
 70
     1
102
RTVSPropertyOp8
 70
     1
102
RTVSPropertyOp9
 70
     1
102
RTVSPropertyOp10
 70
     1
102
RTVSPropertyOp11
 70
     1
102
RTVSPropertyOp12
 70
     1
102
RTVSPropertyOp13
 70
     1
102
RTVSPropertyOp14
 70
     1
102
RTVSPropertyOp15
 70
     1
102
RTVSPropertyOp16
 70
     1
102
RTVSPropertyOp17
 70
     1
102
RTVSPropertyOp18
 70
     1
102
RTVSPropertyOp19
 70
     1
102
RTVSPropertyOp20
 70
     1
102
RTVSPropertyOp21
 70
     1
102
RTVSPropertyOp22
 70
     1
102
RTVSPropertyOp23
 70
     1
102
RTVSPropertyOp24
 70
     1
102
RTVSPropertyOp25
 70
     1
102
RTVSPropertyOp26
 70
     1
102
RTVSPropertyOp27
 70
     1
102
RTVSPropertyOp28
 70
     1
102
RTVSPropertyOp29
 70
     1
102
RTVSPropertyOp30
 70
     1
102
RTVSPropertyOp31
 70
     1
102
RTVSPropertyOp32
 70
     1
  0
XRECORD
  5
5E7A
102
{ACAD_REACTORS
330
5E79
102
}
330
5E79
100
AcDbXrecord
280
     1
102
RTVSPropertyOp0
 70
     1
102
RTVSPropertyOp1
 70
     1
102
RTVSPropertyOp2
 70
     1
102
RTVSPropertyOp3
 70
     1
102
RTVSPropertyOp4
 70
     1
102
RTVSPropertyOp5
 70
     1
102
RTVSPropertyOp6
 70
     1
102
RTVSPropertyOp7
 70
     1
102
RTVSPropertyOp8
 70
     1
102
RTVSPropertyOp9
 70
     1
102
RTVSPropertyOp10
 70
     1
102
RTVSPropertyOp11
 70
     1
102
RTVSPropertyOp12
 70
     1
102
RTVSPropertyOp13
 70
     1
102
RTVSPropertyOp14
 70
     1
102
RTVSPropertyOp15
 70
     1
102
RTVSPropertyOp16
 70
     1
102
RTVSPropertyOp17
 70
     1
102
RTVSPropertyOp18
 70
     1
102
RTVSPropertyOp19
 70
     1
102
RTVSPropertyOp20
 70
     1
102
RTVSPropertyOp21
 70
     1
102
RTVSPropertyOp22
 70
     1
102
RTVSPropertyOp23
 70
     1
102
RTVSPropertyOp24
 70
     1
102
RTVSPropertyOp25
 70
     1
102
RTVSPropertyOp26
 70
     1
102
RTVSPropertyOp27
 70
     1
102
RTVSPropertyOp28
 70
     1
102
RTVSPropertyOp29
 70
     1
102
RTVSPropertyOp30
 70
     1
102
RTVSPropertyOp31
 70
     1
102
RTVSPropertyOp32
 70
     1
  0
XRECORD
  5
5E82
102
{ACAD_REACTORS
330
5E81
102
}
330
5E81
100
AcDbXrecord
280
     1
102
RTVSPropertyOp0
 70
     1
102
RTVSPropertyOp1
 70
     1
102
RTVSPropertyOp2
 70
     1
102
RTVSPropertyOp3
 70
     1
102
RTVSPropertyOp4
 70
     1
102
RTVSPropertyOp5
 70
     1
102
RTVSPropertyOp6
 70
     1
102
RTVSPropertyOp7
 70
     1
102
RTVSPropertyOp8
 70
     1
102
RTVSPropertyOp9
 70
     1
102
RTVSPropertyOp10
 70
     1
102
RTVSPropertyOp11
 70
     1
102
RTVSPropertyOp12
 70
     1
102
RTVSPropertyOp13
 70
     1
102
RTVSPropertyOp14
 70
     1
102
RTVSPropertyOp15
 70
     1
102
RTVSPropertyOp16
 70
     1
102
RTVSPropertyOp17
 70
     1
102
RTVSPropertyOp18
 70
     1
102
RTVSPropertyOp19
 70
     1
102
RTVSPropertyOp20
 70
     1
102
RTVSPropertyOp21
 70
     1
102
RTVSPropertyOp22
 70
     1
102
RTVSPropertyOp23
 70
     1
102
RTVSPropertyOp24
 70
     1
102
RTVSPropertyOp25
 70
     1
102
RTVSPropertyOp26
 70
     1
102
RTVSPropertyOp27
 70
     1
102
RTVSPropertyOp28
 70
     1
102
RTVSPropertyOp29
 70
     1
102
RTVSPropertyOp30
 70
     1
102
RTVSPropertyOp31
 70
     1
102
RTVSPropertyOp32
 70
     1
  0
ENDSEC
  0
EOF
