  0
SECTION
  2
HEADER
  9
$ACADVER
  1
AC1018
  9
$ACADMAINTVER
 70
   104
  9
$DWGCODEPAGE
  3
ANSI_932
  9
$LASTSAVEDBY
  1
h-mizoguchi
  9
$CUSTOMPROPERTYTAG
  1
AmdtFileType
  9
$CUSTOMPROPERTY
  1
84
  9
$INSBASE
 10
0.0
 20
0.0
 30
0.0
  9
$EXTMIN
 10
-49.99999999998363
 20
-94.9999999997326
 30
0.0
  9
$EXTMAX
 10
2297.392233462775
 20
579.2813975040386
 30
0.0
  9
$LIMMIN
 10
0.0
 20
0.0
  9
$LIMMAX
 10
420.0
 20
297.0
  9
$ORTHOMODE
 70
     1
  9
$REGENMODE
 70
     1
  9
$FILLMODE
 70
     1
  9
$QTEXTMODE
 70
     0
  9
$MIRRTEXT
 70
     1
  9
$LTSCALE
 40
1.0
  9
$ATTMODE
 70
     1
  9
$TEXTSIZE
 40
73.98571745357912
  9
$TRACEWID
 40
1.0
  9
$TEXTSTYLE
  7
STANDARD
  9
$CLAYER
  8
0
  9
$CELTYPE
  6
ByLayer
  9
$CECOLOR
 62
   256
  9
$CELTSCALE
 40
1.0
  9
$DISPSILH
 70
     0
  9
$DIMSCALE
 40
1.0
  9
$DIMASZ
 40
0.18
  9
$DIMEXO
 40
0.0625
  9
$DIMDLI
 40
0.38
  9
$DIMRND
 40
0.0
  9
$DIMDLE
 40
0.0
  9
$DIMEXE
 40
0.18
  9
$DIMTP
 40
0.0
  9
$DIMTM
 40
0.0
  9
$DIMTXT
 40
30.0
  9
$DIMCEN
 40
0.09
  9
$DIMTSZ
 40
0.0
  9
$DIMTOL
 70
     0
  9
$DIMLIM
 70
     0
  9
$DIMTIH
 70
     1
  9
$DIMTOH
 70
     1
  9
$DIMSE1
 70
     0
  9
$DIMSE2
 70
     0
  9
$DIMTAD
 70
     0
  9
$DIMZIN
 70
     0
  9
$DIMBLK
  1

  9
$DIMASO
 70
     1
  9
$DIMSHO
 70
     1
  9
$DIMPOST
  1

  9
$DIMAPOST
  1

  9
$DIMALT
 70
     0
  9
$DIMALTD
 70
     2
  9
$DIMALTF
 40
25.4
  9
$DIMLFAC
 40
1.0
  9
$DIMTOFL
 70
     0
  9
$DIMTVP
 40
0.0
  9
$DIMTIX
 70
     0
  9
$DIMSOXD
 70
     0
  9
$DIMSAH
 70
     0
  9
$DIMBLK1
  1

  9
$DIMBLK2
  1

  9
$DIMSTYLE
  2
Standard
  9
$DIMCLRD
 70
     0
  9
$DIMCLRE
 70
     0
  9
$DIMCLRT
 70
     0
  9
$DIMTFAC
 40
1.0
  9
$DIMGAP
 40
0.09
  9
$DIMJUST
 70
     0
  9
$DIMSD1
 70
     0
  9
$DIMSD2
 70
     0
  9
$DIMTOLJ
 70
     1
  9
$DIMTZIN
 70
     0
  9
$DIMALTZ
 70
     0
  9
$DIMALTTZ
 70
     0
  9
$DIMUPT
 70
     0
  9
$DIMDEC
 70
     4
  9
$DIMTDEC
 70
     4
  9
$DIMALTU
 70
     2
  9
$DIMALTTD
 70
     2
  9
$DIMTXSTY
  7
STANDARD
  9
$DIMAUNIT
 70
     0
  9
$DIMADEC
 70
     0
  9
$DIMALTRND
 40
0.0
  9
$DIMAZIN
 70
     0
  9
$DIMDSEP
 70
    46
  9
$DIMATFIT
 70
     3
  9
$DIMFRAC
 70
     0
  9
$DIMLDRBLK
  1

  9
$DIMLUNIT
 70
     2
  9
$DIMLWD
 70
    -2
  9
$DIMLWE
 70
    -2
  9
$DIMTMOVE
 70
     0
  9
$LUNITS
 70
     2
  9
$LUPREC
 70
     8
  9
$SKETCHINC
 40
1.0
  9
$FILLETRAD
 40
0.0
  9
$AUNITS
 70
     0
  9
$AUPREC
 70
     8
  9
$MENU
  1
.
  9
$ELEVATION
 40
0.0
  9
$PELEVATION
 40
0.0
  9
$THICKNESS
 40
0.0
  9
$LIMCHECK
 70
     0
  9
$CHAMFERA
 40
2.5
  9
$CHAMFERB
 40
2.5
  9
$CHAMFERC
 40
20.0
  9
$CHAMFERD
 40
0.0
  9
$SKPOLY
 70
     0
  9
$TDCREATE
 40
2454739.720408160
  9
$TDUCREATE
 40
2454739.345408160
  9
$TDUPDATE
 40
2456169.433733982
  9
$TDUUPDATE
 40
2456169.058733982
  9
$TDINDWG
 40
0.3006472106
  9
$TDUSRTIMER
 40
0.3006472106
  9
$USRTIMER
 70
     1
  9
$ANGBASE
 50
0.0
  9
$ANGDIR
 70
     1
  9
$PDMODE
 70
     0
  9
$PDSIZE
 40
0.0
  9
$PLINEWID
 40
0.0
  9
$SPLFRAME
 70
     0
  9
$SPLINETYPE
 70
     6
  9
$SPLINESEGS
 70
     8
  9
$HANDSEED
  5
7132
  9
$SURFTAB1
 70
     6
  9
$SURFTAB2
 70
     6
  9
$SURFTYPE
 70
     6
  9
$SURFU
 70
     6
  9
$SURFV
 70
     6
  9
$UCSBASE
  2

  9
$UCSNAME
  2

  9
$UCSORG
 10
0.0
 20
0.0
 30
0.0
  9
$UCSXDIR
 10
1.0
 20
0.0
 30
0.0
  9
$UCSYDIR
 10
0.0
 20
1.0
 30
0.0
  9
$UCSORTHOREF
  2

  9
$UCSORTHOVIEW
 70
     0
  9
$UCSORGTOP
 10
0.0
 20
0.0
 30
0.0
  9
$UCSORGBOTTOM
 10
0.0
 20
0.0
 30
0.0
  9
$UCSORGLEFT
 10
0.0
 20
0.0
 30
0.0
  9
$UCSORGRIGHT
 10
0.0
 20
0.0
 30
0.0
  9
$UCSORGFRONT
 10
0.0
 20
0.0
 30
0.0
  9
$UCSORGBACK
 10
0.0
 20
0.0
 30
0.0
  9
$PUCSBASE
  2

  9
$PUCSNAME
  2

  9
$PUCSORG
 10
0.0
 20
0.0
 30
0.0
  9
$PUCSXDIR
 10
1.0
 20
0.0
 30
0.0
  9
$PUCSYDIR
 10
0.0
 20
1.0
 30
0.0
  9
$PUCSORTHOREF
  2

  9
$PUCSORTHOVIEW
 70
     0
  9
$PUCSORGTOP
 10
0.0
 20
0.0
 30
0.0
  9
$PUCSORGBOTTOM
 10
0.0
 20
0.0
 30
0.0
  9
$PUCSORGLEFT
 10
0.0
 20
0.0
 30
0.0
  9
$PUCSORGRIGHT
 10
0.0
 20
0.0
 30
0.0
  9
$PUCSORGFRONT
 10
0.0
 20
0.0
 30
0.0
  9
$PUCSORGBACK
 10
0.0
 20
0.0
 30
0.0
  9
$USERI1
 70
     0
  9
$USERI2
 70
     0
  9
$USERI3
 70
     0
  9
$USERI4
 70
     0
  9
$USERI5
 70
     0
  9
$USERR1
 40
0.0
  9
$USERR2
 40
0.0
  9
$USERR3
 40
0.0
  9
$USERR4
 40
0.0
  9
$USERR5
 40
0.0
  9
$WORLDVIEW
 70
     1
  9
$SHADEDGE
 70
     3
  9
$SHADEDIF
 70
    70
  9
$TILEMODE
 70
     1
  9
$MAXACTVP
 70
    48
  9
$PINSBASE
 10
0.0
 20
0.0
 30
0.0
  9
$PLIMCHECK
 70
     0
  9
$PEXTMIN
 10
1.000000000000000E+20
 20
1.000000000000000E+20
 30
1.000000000000000E+20
  9
$PEXTMAX
 10
-1.000000000000000E+20
 20
-1.000000000000000E+20
 30
-1.000000000000000E+20
  9
$PLIMMIN
 10
0.0
 20
0.0
  9
$PLIMMAX
 10
420.0
 20
297.0
  9
$UNITMODE
 70
     0
  9
$VISRETAIN
 70
     1
  9
$PLINEGEN
 70
     0
  9
$PSLTSCALE
 70
     1
  9
$TREEDEPTH
 70
  3020
  9
$CMLSTYLE
  2
Standard
  9
$CMLJUST
 70
     0
  9
$CMLSCALE
 40
20.0
  9
$PROXYGRAPHICS
 70
     1
  9
$MEASUREMENT
 70
     1
  9
$CELWEIGHT
370
    -1
  9
$ENDCAPS
280
     0
  9
$JOINSTYLE
280
     0
  9
$LWDISPLAY
290
     0
  9
$INSUNITS
 70
     4
  9
$HYPERLINKBASE
  1

  9
$STYLESHEET
  1
MPP.ctb
  9
$XEDIT
290
     1
  9
$CEPSNTYPE
380
     0
  9
$PSTYLEMODE
290
     1
  9
$FINGERPRINTGUID
  2
{07D2D85E-85AD-4BD6-8097-0176AB657E4F}
  9
$VERSIONGUID
  2
{B22DBBBF-7D1D-4D42-96F7-88431270AD2F}
  9
$EXTNAMES
290
     1
  9
$PSVPSCALE
 40
0.0
  9
$OLESTARTUP
290
     0
  9
$SORTENTS
280
   127
  9
$INDEXCTL
280
     0
  9
$HIDETEXT
280
     0
  9
$XCLIPFRAME
290
     0
  9
$HALOGAP
280
     0
  9
$OBSCOLOR
 70
   257
  9
$OBSLTYPE
280
     0
  9
$INTERSECTIONDISPLAY
280
     0
  9
$INTERSECTIONCOLOR
 70
   257
  9
$DIMASSOC
280
     2
  9
$PROJECTNAME
  1

  0
ENDSEC
  0
SECTION
  2
CLASSES
  0
CLASS
  1
ACDBDICTIONARYWDFLT
  2
AcDbDictionaryWithDefault
  3
ObjectDBX Classes
 90
        0
 91
        1
280
     0
281
     0
  0
CLASS
  1
ACDBPLACEHOLDER
  2
AcDbPlaceHolder
  3
ObjectDBX Classes
 90
        0
 91
        1
280
     0
281
     0
  0
CLASS
  1
LAYOUT
  2
AcDbLayout
  3
ObjectDBX Classes
 90
        0
 91
        3
280
     0
281
     0
  0
CLASS
  1
AMGSETTINGSOBJ
  2
AmgSettingsObj
  3
"AcadM|Product Description: AutoCAD Mechanical|Company: Autodesk, Inc."
 90
     1024
 91
        0
280
     0
281
     0
  0
CLASS
  1
ACME_DOCUMENT
  2
AcMeDbDoc
  3
AcMeServices
 90
     1024
 91
        0
280
     0
281
     0
  0
CLASS
  1
ACMESCOPE
  2
AcMeScope
  3
AcMeServices
 90
     1024
 91
        0
280
     0
281
     0
  0
CLASS
  1
ACMECOMMANDHISTORY
  2
AcMeCommandHistory
  3
AcMeServices
 90
     1024
 91
        0
280
     0
281
     0
  0
CLASS
  1
DICTIONARYVAR
  2
AcDbDictionaryVar
  3
ObjectDBX Classes
 90
        0
 91
       12
280
     0
281
     0
  0
CLASS
  1
ACIMSYSVARMAN
  2
AcImSysVarManager
  3
AcMeServices
 90
     1024
 91
        2
280
     0
281
     0
  0
CLASS
  1
ACIMREALSYSVAR
  2
AcImRealSysVar
  3
AcMeServices
 90
     1024
 91
        0
280
     0
281
     0
  0
CLASS
  1
ACIMINTSYSVAR
  2
AcImIntSysVar
  3
AcMeServices
 90
     1024
 91
        0
280
     0
281
     0
  0
CLASS
  1
ACMEDRAWINGMAN
  2
AcMeDrawingMan
  3
AcMeServices
 90
     1024
 91
        0
280
     0
281
     0
  0
CLASS
  1
ACMEVIEW
  2
AcMeView
  3
AcMeServices
 90
     1024
 91
        0
280
     0
281
     0
  0
CLASS
  1
ACDBENTITYCACHE
  2
AcMeEntityCache
  3
AcMeServices
 90
     1024
 91
        0
280
     0
281
     0
  0
CLASS
  1
GSMANAGER
  2
AcMeGSManager
  3
AcMeServices
 90
     1024
 91
        0
280
     0
281
     0
  0
CLASS
  1
AMDTINTERNALREACTOR
  2
AmdtInternalReactor
  3
AcMeServices
 90
     1024
 91
        0
280
     0
281
     0
  0
CLASS
  1
ACMESTATEMGR
  2
AcMeStateMgr
  3
AcMeServices
 90
     1024
 91
        0
280
     0
281
     0
  0
CLASS
  1
ACGREFMASTER
  2
AcGrefMaster
  3
AcAttribServices
 90
     1024
 91
        0
280
     0
281
     0
  0
CLASS
  1
ACME_DATABASE
  2
AcMeDbDatabase
  3
AcMeServices
 90
     1024
 91
        0
280
     0
281
     0
  0
CLASS
  1
ACRFINSADJUSTERMGR
  2
AcRfInsAdjusterMgr
  3
AcMeServices
 90
     1024
 91
        0
280
     0
281
     0
  0
CLASS
  1
ACGREFACADMASTER
  2
AcGrefacadMaster
  3
AcGrefServices
 90
     1024
 91
        0
280
     0
281
     0
  0
CLASS
  1
AMIMASTER
  2
AmiMaster
  3
AmiServices
 90
     1024
 91
        0
280
     0
281
     0
  0
CLASS
  1
ACIMSTRSYSVAR
  2
AcImStrSysVar
  3
AcMeServices
 90
     1024
 91
        0
280
     0
281
     0
  0
CLASS
  1
ACMSTANDARDJIS
  2
AcmStandardJIS
  3
"Amdt_StdImp|Product Description: AutoCAD Mechanical|Company: Autodesk, Inc."
 90
     1024
 91
        0
280
     0
281
     0
  0
CLASS
  1
AMGOBJPROPCFG
  2
AmgObjPropCfg
  3
"AmgLay|Product Description: AutoCAD Mechanical|Company: Autodesk, Inc."
 90
     1025
 91
        0
280
     0
281
     0
  0
CLASS
  1
ACMSURFSTANDARDJIS
  2
AcmSurfTextStdJIS
  3
"Amdt_StdImp|Product Description: AutoCAD Mechanical|Company: Autodesk, Inc."
 90
     1024
 91
        0
280
     0
281
     0
  0
CLASS
  1
ACMFCFSTANDARDJIS
  2
AcmFCFStdJIS
  3
"Amdt_StdImp|Product Description: AutoCAD Mechanical|Company: Autodesk, Inc."
 90
     1024
 91
        0
280
     0
281
     0
  0
CLASS
  1
ACMWELDSTANDARDJIS
  2
AcmWeldingStdJIS
  3
"Amdt_StdImp|Product Description: AutoCAD Mechanical|Company: Autodesk, Inc."
 90
     1024
 91
        0
280
     0
281
     0
  0
CLASS
  1
ACMIDSTANDARDJIS
  2
AcmIdStdJIS
  3
"Amdt_StdImp|Product Description: AutoCAD Mechanical|Company: Autodesk, Inc."
 90
     1024
 91
        0
280
     0
281
     0
  0
CLASS
  1
ACMDATUMSTANDARDJIS
  2
AcmDatumStdJIS
  3
"Amdt_StdImp|Product Description: AutoCAD Mechanical|Company: Autodesk, Inc."
 90
     1024
 91
        0
280
     0
281
     0
  0
CLASS
  1
ACMBOMSTANDARDJIS
  2
AcmBOMStdJIS
  3
"Amdt_StdImp|Product Description: AutoCAD Mechanical|Company: Autodesk, Inc."
 90
     1024
 91
        0
280
     0
281
     0
  0
CLASS
  1
ACMDETAILSTANDARDJIS
  2
AmdtDetailSymStdJIS
  3
"Amdt_StdImp|Product Description: AutoCAD Mechanical|Company: Autodesk, Inc."
 90
     1024
 91
        0
280
     0
281
     0
  0
CLASS
  1
ACMSECTIONSTANDARDJIS
  2
AmdtSectionSymStdJIS
  3
"Amdt_StdImp|Product Description: AutoCAD Mechanical|Company: Autodesk, Inc."
 90
     1024
 91
        0
280
     0
281
     0
  0
CLASS
  1
ACMCENTERLINESTANDARDJIS
  2
AmdtCenterLineStdJIS
  3
"Amdt_StdImp|Product Description: AutoCAD Mechanical|Company: Autodesk, Inc."
 90
     1024
 91
        0
280
     0
281
     0
  0
CLASS
  1
ACMTHREADLINESTANDARDJIS
  2
AmdtThreadLineStdJIS
  3
"Amdt_StdImp|Product Description: AutoCAD Mechanical|Company: Autodesk, Inc."
 90
     1024
 91
        0
280
     0
281
     0
  0
CLASS
  1
ACAMGLAYSTD
  2
AcAmgLayStd
  3
"AmgLay|Product Description: AutoCAD Mechanical|Company: Autodesk, Inc."
 90
     1024
 91
        0
280
     0
281
     0
  0
CLASS
  1
ACAMGDIMSTD
  2
AcAmgDimStd
  3
"AmgDim|Product Description: AutoCAD Mechanical|Company: Autodesk, Inc."
 90
     1024
 91
        0
280
     0
281
     0
  0
CLASS
  1
ACAMGTITLESTD
  2
AcAmgTitleStd
  3
"AmgTitle|Product Description: AutoCAD Mechanical|Company: Autodesk, Inc."
 90
     4095
 91
        0
280
     0
281
     0
  0
CLASS
  1
ACMDATADICTIONARY
  2
AcmDataDictionary
  3
"AcmSymBB|Product Description: AutoCAD Mechanical|Company: Autodesk, Inc."
 90
     1024
 91
        0
280
     0
281
     0
  0
CLASS
  1
ACMDATAENTRYBLOCK
  2
AcmDataEntryBlock
  3
AcmSymBB|Product Description: AutoCAD Mechanical|Company: Autodesk, Inc.
 90
     1024
 91
        0
280
     0
281
     0
  0
CLASS
  1
LAYER_INDEX
  2
AcDbLayerIndex
  3
ObjectDBX Classes
 90
        0
 91
        0
280
     0
281
     0
  0
CLASS
  1
IDBUFFER
  2
AcDbIdBuffer
  3
ObjectDBX Classes
 90
        0
 91
        0
280
     0
281
     0
  0
CLASS
  1
ACMNOTESTANDARDJIS
  2
AmdtNoteStdJIS
  3
"Amdt_StdImp|Product Description: AutoCAD Mechanical|Company: Autodesk, Inc."
 90
     1024
 91
        0
280
     0
281
     0
  0
CLASS
  1
ACAMGHOLECHARTSTDJIS
  2
AcAmgHoleChartStdJIS
  3
AmgDim|Product Description: AutoCAD Mechanical|Company: Autodesk, Inc.
 90
     1024
 91
        0
280
     0
281
     0
  0
CLASS
  1
ACAMGFILTERDAT
  2
AcAmgFilterDat
  3
"AcadM|Product Description: AutoCAD Mechanical|Company: Autodesk, Inc."
 90
     1024
 91
        0
280
     0
281
     0
  0
CLASS
  1
ACMFCFSTANDARDJIS98
  2
AcmFCFStdJIS98
  3
"Amdt_StdImp|Product Description: AutoCAD Mechanical|Company: Autodesk, Inc."
 90
     1024
 91
        0
280
     0
281
     0
  0
CLASS
  1
AMDTNOTE
  2
AmdtNote
  3
"AcmSymBB|Product Description: AutoCAD Mechanical|Company: Autodesk, Inc."
 90
     4095
 91
        0
280
     0
281
     1
  0
CLASS
  1
AMDTFORMULAUPDATEDISPATCHER
  2
AmdtFormulaUpdateDispatcher
  3
AcMeServices
 90
     1024
 91
        0
280
     0
281
     0
  0
CLASS
  1
ACMSTANDARDISO
  2
AcmStandardISO
  3
"Amdt_StdImp|Product Description: AutoCAD Mechanical|Company: Autodesk, Inc."
 90
     1024
 91
        0
280
     0
281
     0
  0
CLASS
  1
AMDTEDGESTANDARDISO
  2
AmdtEdgeStdISO
  3
"Amdt_StdImp|Product Description: AutoCAD Mechanical|Company: Autodesk, Inc."
 90
     1024
 91
        0
280
     0
281
     0
  0
CLASS
  1
ACMSURFSTANDARDISO
  2
AcmSurfTextStdISO
  3
"Amdt_StdImp|Product Description: AutoCAD Mechanical|Company: Autodesk, Inc."
 90
     1024
 91
        0
280
     0
281
     0
  0
CLASS
  1
ACMFCFSTANDARDISO
  2
AcmFCFStdISO
  3
"Amdt_StdImp|Product Description: AutoCAD Mechanical|Company: Autodesk, Inc."
 90
     1024
 91
        0
280
     0
281
     0
  0
CLASS
  1
ACMWELDSTANDARDISO
  2
AcmWeldingStdISO
  3
"Amdt_StdImp|Product Description: AutoCAD Mechanical|Company: Autodesk, Inc."
 90
     1024
 91
        0
280
     0
281
     0
  0
CLASS
  1
ACMIDSTANDARDISO
  2
AcmIdStdISO
  3
"Amdt_StdImp|Product Description: AutoCAD Mechanical|Company: Autodesk, Inc."
 90
     1024
 91
        0
280
     0
281
     0
  0
CLASS
  1
ACMDATUMSTANDARDISO
  2
AcmDatumStdISO
  3
"Amdt_StdImp|Product Description: AutoCAD Mechanical|Company: Autodesk, Inc."
 90
     1024
 91
        0
280
     0
281
     0
  0
CLASS
  1
ACMBOMSTANDARDISO
  2
AcmBOMStdISO
  3
"Amdt_StdImp|Product Description: AutoCAD Mechanical|Company: Autodesk, Inc."
 90
     1024
 91
        0
280
     0
281
     0
  0
CLASS
  1
ACMDETAILSTANDARDISO
  2
AmdtDetailSymStdISO
  3
"Amdt_StdImp|Product Description: AutoCAD Mechanical|Company: Autodesk, Inc."
 90
     1024
 91
        0
280
     0
281
     0
  0
CLASS
  1
ACMSECTIONSTANDARDISO
  2
AmdtSectionSymStdISO
  3
"Amdt_StdImp|Product Description: AutoCAD Mechanical|Company: Autodesk, Inc."
 90
     1024
 91
        0
280
     0
281
     0
  0
CLASS
  1
ACMCENTERLINESTANDARDISO
  2
AmdtCenterLineStdISO
  3
"Amdt_StdImp|Product Description: AutoCAD Mechanical|Company: Autodesk, Inc."
 90
     1024
 91
        0
280
     0
281
     0
  0
CLASS
  1
ACMNOTESTANDARDISO
  2
AmdtNoteStdISO
  3
"Amdt_StdImp|Product Description: AutoCAD Mechanical|Company: Autodesk, Inc."
 90
     1024
 91
        0
280
     0
281
     0
  0
CLASS
  1
ACAMGHOLECHARTSTDISO
  2
AcAmgHoleChartStdISO
  3
AmgDim|Product Description: AutoCAD Mechanical|Company: Autodesk, Inc.
 90
     1024
 91
        0
280
     0
281
     0
  0
CLASS
  1
ACMSTANDARDGB
  2
AcmStandardGB
  3
"Amdt_StdImp|Product Description: AutoCAD Mechanical|Company: Autodesk, Inc."
 90
     1024
 91
        0
280
     0
281
     0
  0
CLASS
  1
ACMSURFSTANDARDGB
  2
AcmSurfTextStdGB
  3
"Amdt_StdImp|Product Description: AutoCAD Mechanical|Company: Autodesk, Inc."
 90
     1024
 91
        0
280
     0
281
     0
  0
CLASS
  1
ACMFCFSTANDARDGB
  2
AcmFCFStdGB
  3
"Amdt_StdImp|Product Description: AutoCAD Mechanical|Company: Autodesk, Inc."
 90
     1024
 91
        0
280
     0
281
     0
  0
CLASS
  1
ACMWELDSTANDARDGB
  2
AcmWeldingStdGB
  3
"Amdt_StdImp|Product Description: AutoCAD Mechanical|Company: Autodesk, Inc."
 90
     1024
 91
        0
280
     0
281
     0
  0
CLASS
  1
ACMIDSTANDARDGB
  2
AcmIdStdGB
  3
"Amdt_StdImp|Product Description: AutoCAD Mechanical|Company: Autodesk, Inc."
 90
     1024
 91
        0
280
     0
281
     0
  0
CLASS
  1
ACMDATUMSTANDARDGB
  2
AcmDatumStdGB
  3
"Amdt_StdImp|Product Description: AutoCAD Mechanical|Company: Autodesk, Inc."
 90
     1024
 91
        0
280
     0
281
     0
  0
CLASS
  1
ACMBOMSTANDARDGB
  2
AcmBOMStdGB
  3
"Amdt_StdImp|Product Description: AutoCAD Mechanical|Company: Autodesk, Inc."
 90
     1024
 91
        0
280
     0
281
     0
  0
CLASS
  1
ACMDETAILSTANDARDGB
  2
AmdtDetailSymStdGB
  3
"Amdt_StdImp|Product Description: AutoCAD Mechanical|Company: Autodesk, Inc."
 90
     1024
 91
        0
280
     0
281
     0
  0
CLASS
  1
ACMSECTIONSTANDARDGB
  2
AmdtSectionSymStdGB
  3
"Amdt_StdImp|Product Description: AutoCAD Mechanical|Company: Autodesk, Inc."
 90
     1024
 91
        0
280
     0
281
     0
  0
CLASS
  1
ACMCENTERLINESTANDARDGB
  2
AmdtCenterLineStdGB
  3
"Amdt_StdImp|Product Description: AutoCAD Mechanical|Company: Autodesk, Inc."
 90
     1024
 91
        0
280
     0
281
     0
  0
CLASS
  1
ACMNOTESTANDARDGB
  2
AmdtNoteStdGB
  3
"Amdt_StdImp|Product Description: AutoCAD Mechanical|Company: Autodesk, Inc."
 90
     1024
 91
        0
280
     0
281
     0
  0
CLASS
  1
ACAMGHOLECHARTSTDGB
  2
AcAmgHoleChartStdGB
  3
AmgDim|Product Description: AutoCAD Mechanical|Company: Autodesk, Inc.
 90
     1024
 91
        0
280
     0
281
     0
  0
CLASS
  1
TABLESTYLE
  2
AcDbTableStyle
  3
ObjectDBX Classes
 90
     4095
 91
        1
280
     0
281
     0
  0
CLASS
  1
AM_DRAWING_MGR
  2
AcDmDwgMgr
  3
AcMechDwgViewMgmt
 90
     1024
 91
        0
280
     0
281
     0
  0
CLASS
  1
AM_DWG_DOCUMENT
  2
AcDmDwgDocument
  3
AcMechDwgViewMgmt
 90
     1024
 91
        0
280
     0
281
     0
  0
CLASS
  1
AM_DWG_SHEET
  2
AcDmSheet
  3
AcMechDwgViewMgmt
 90
     1024
 91
        0
280
     0
281
     0
  0
CLASS
  1
AM_VIEWDIMPARMAP
  2
AcDmViewDimParMap
  3
AcMechDwgViewMgmt
 90
     1024
 91
        0
280
     0
281
     0
  0
CLASS
  1
AM_DWGMGR_NAME
  2
AcDmDwgMgrName
  3
AcMechDwgViewMgmt
 90
     1024
 91
        0
280
     0
281
     0
  0
CLASS
  1
AMDTMENUSTATEMGR
  2
AmdtMenuStateMgr
  3
McadcomServices
 90
     1024
 91
        0
280
     0
281
     0
  0
CLASS
  1
AMDTMCOMMENUSTATE
  2
AmdtMcomMenuState
  3
McadcomServices
 90
     1024
 91
        0
280
     0
281
     0
  0
CLASS
  1
MAPIAMMOUDLE
  2
MApiAmModule
  3
MApiAmServices
 90
     1024
 91
        0
280
     0
281
     0
  0
CLASS
  1
AMDTADMENUSTATE
  2
AmdtAdMenuState
  3
DesignerServices
 90
     1024
 91
        0
280
     0
281
     0
  0
CLASS
  1
ADAPPL
  2
AcAdAppl
  3
DesignerServices
 90
     1024
 91
        0
280
     0
281
     0
  0
CLASS
  1
DEPMGR
  2
AcAdDepMgr
  3
DesignerServices
 90
     1024
 91
        0
280
     0
281
     0
  0
CLASS
  1
PARAMMGR
  2
AcAdParamMgr
  3
DesignerServices
 90
     1024
 91
        0
280
     0
281
     0
  0
CLASS
  1
PARAMSCOPE
  2
AcAdParamScope
  3
DesignerServices
 90
     1024
 91
        0
280
     0
281
     0
  0
CLASS
  1
NAMEDAPPL
  2
AcAdNamedAppl
  3
DesignerServices
 90
     1024
 91
        0
280
     0
281
     0
  0
CLASS
  1
AMDTDMMENUSTATE
  2
AmdtDmMenuState
  3
AcMechDwgViewMgmt
 90
     1024
 91
        0
280
     0
281
     0
  0
CLASS
  1
AMDTAMMENUSTATE
  2
AmdtAmMenuState
  3
DesignerAssemblies
 90
     1024
 91
        0
280
     0
281
     0
  0
CLASS
  1
ACAMPROJECT
  2
AcAmProject
  3
DesignerAssemblies
 90
     1024
 91
        0
280
     0
281
     0
  0
CLASS
  1
ACAMGRCOMPDEF
  2
AcAmGrCompDef
  3
DesignerAssemblies
 90
     1024
 91
        0
280
     0
281
     0
  0
CLASS
  1
ACCMCONTEXT
  2
AcCmContext
  3
DesignerAssemblies
 90
     1024
 91
        0
280
     0
281
     0
  0
CLASS
  1
ACAMCOMPDEF
  2
AcAmCompDef
  3
DesignerAssemblies
 90
     1024
 91
        0
280
     0
281
     0
  0
CLASS
  1
ACAMCOMPDEFMGR
  2
AcAmCompDefMgr
  3
DesignerAssemblies
 90
     1024
 91
        0
280
     0
281
     0
  0
CLASS
  1
AMCONTEXTMGR
  2
AcAmContextMgr
  3
DesignerAssemblies
 90
     1024
 91
        0
280
     0
281
     0
  0
CLASS
  1
ACAMCONTEXTMODELER
  2
AcAmContextModeler
  3
DesignerAssemblies
 90
     1024
 91
        0
280
     0
281
     0
  0
CLASS
  1
CATALOGSTATE
  2
AcAmCatalogState
  3
DesignerAssemblies
 90
     1024
 91
        0
280
     0
281
     0
  0
CLASS
  1
ACAMGRCOMPDEFSET
  2
AcAmGrCompDefSet
  3
DesignerAssemblies
 90
     1024
 91
        0
280
     0
281
     0
  0
CLASS
  1
AMDTBROWSERDBTAB
  2
AmdtBrowserDbTab
  3
McadcomServices
 90
     1024
 91
        0
280
     0
281
     0
  0
CLASS
  1
CBROWSERAPPOBJECT
  2
CBrowserAppObject
  3
McadcomServices
 90
     1024
 91
        0
280
     0
281
     0
  0
CLASS
  1
DM_PLACEHOLDER
  2
AcDmSelsetPlaceholder
  3
AcMechDwgViewMgmt
 90
     1024
 91
        0
280
     0
281
     0
  0
CLASS
  1
MATERIAL
  2
AcDbMaterial
  3
ObjectDBX Classes
 90
     1153
 91
        3
280
     0
281
     0
  0
CLASS
  1
VISUALSTYLE
  2
AcDbVisualStyle
  3
ObjectDBX Classes
 90
     4095
 91
       26
280
     0
281
     0
  0
CLASS
  1
ACRFATTGENMGR
  2
AcRfAttGeneralMgr
  3
AcAttribServices
 90
     1024
 91
        0
280
     0
281
     0
  0
CLASS
  1
ACRFOBJATTMGR
  2
AcRfObjAttGroupMgr
  3
AcAttribServices
 90
     1024
 91
        0
280
     0
281
     0
  0
CLASS
  1
ACRFMCADAPIATTHOLDER
  2
AcRfMCADAPIAttHolder
  3
AcAttribServices
 90
     1024
 91
        0
280
     0
281
     0
  0
CLASS
  1
AMDTSYSATTR
  2
AmdtSystemAttribute
  3
AcAttribServices
 90
     1024
 91
        0
280
     0
281
     0
  0
CLASS
  1
ACMTAPERSTANDARDJIS
  2
AcmTaperStdJIS
  3
"Amdt_StdImp|Product Description: AutoCAD Mechanical|Company: Autodesk, Inc."
 90
     1024
 91
        0
280
     0
281
     0
  0
CLASS
  1
CAMSSTRUCTBTNSTATE
  2
StructBtnState
  3
DesignerAssemblies
 90
     1024
 91
        0
280
     0
281
     0
  0
CLASS
  1
SCALE
  2
AcDbScale
  3
ObjectDBX Classes
 90
     1153
 91
       33
280
     0
281
     0
  0
CLASS
  1
MLEADERSTYLE
  2
AcDbMLeaderStyle
  3
ACDB_MLEADERSTYLE_CLASS
 90
     4095
 91
        2
280
     0
281
     0
  0
CLASS
  1
ACMANOOTATIONVIEWSTANDARDJIS
  2
AmdtAnViewStdJIS
  3
"Amdt_StdImp|Product Description: AutoCAD Mechanical|Company: Autodesk, Inc."
 90
     1024
 91
        0
280
     0
281
     0
  0
CLASS
  1
CELLSTYLEMAP
  2
AcDbCellStyleMap
  3
ObjectDBX Classes
 90
     1152
 91
        2
280
     0
281
     0
  0
CLASS
  1
AMDTEDGESTANDARDJIS
  2
AmdtEdgeStdJIS
  3
"Amdt_StdImp|Product Description: AutoCAD Mechanical|Company: Autodesk, Inc."
 90
     1024
 91
        0
280
     0
281
     0
  0
CLASS
  1
EXACXREFPANELOBJECT
  2
ExAcXREFPanelObject
  3
EXAC_ESW
 90
     1025
 91
        0
280
     0
281
     0
  0
CLASS
  1
NPOCOLLECTION
  2
AcDbImpNonPersistentObjectsCollection
  3
ObjectDBX Classes
 90
     1153
 91
        0
280
     0
281
     0
  0
CLASS
  1
MULTILEADER
  2
AcDbMLeader
  3
ACDB_MLEADER_CLASS
 90
     1025
 91
        0
280
     0
281
     1
  0
CLASS
  1
SORTENTSTABLE
  2
AcDbSortentsTable
  3
ObjectDBX Classes
 90
        0
 91
        2
280
     0
281
     0
  0
CLASS
  1
ACMSTANDARDANSI
  2
AcmStandardANSI
  3
"Amdt_StdImp|Product Description: AutoCAD Mechanical|Company: Autodesk, Inc."
 90
     1024
 91
        0
280
     0
281
     0
  0
CLASS
  1
ACMSURFSTANDARDANSI
  2
AcmSurfTextStdANSI
  3
"Amdt_StdImp|Product Description: AutoCAD Mechanical|Company: Autodesk, Inc."
 90
     1024
 91
        0
280
     0
281
     0
  0
CLASS
  1
ACMFCFSTANDARDANSI
  2
AcmFCFStdANSI
  3
"Amdt_StdImp|Product Description: AutoCAD Mechanical|Company: Autodesk, Inc."
 90
     1024
 91
        0
280
     0
281
     0
  0
CLASS
  1
ACMWELDSTANDARDANSI
  2
AcmWeldingStdANSI
  3
"Amdt_StdImp|Product Description: AutoCAD Mechanical|Company: Autodesk, Inc."
 90
     1024
 91
        0
280
     0
281
     0
  0
CLASS
  1
ACMIDSTANDARDANSI
  2
AcmIdStdANSI
  3
"Amdt_StdImp|Product Description: AutoCAD Mechanical|Company: Autodesk, Inc."
 90
     1024
 91
        0
280
     0
281
     0
  0
CLASS
  1
ACMDATUMSTANDARDANSI
  2
AcmDatumStdANSI
  3
"Amdt_StdImp|Product Description: AutoCAD Mechanical|Company: Autodesk, Inc."
 90
     1024
 91
        0
280
     0
281
     0
  0
CLASS
  1
ACMBOMSTANDARDANSI
  2
AcmBOMStdANSI
  3
"Amdt_StdImp|Product Description: AutoCAD Mechanical|Company: Autodesk, Inc."
 90
     1024
 91
        0
280
     0
281
     0
  0
CLASS
  1
ACMDETAILSTANDARDANSI
  2
AmdtDetailSymStdANSI
  3
"Amdt_StdImp|Product Description: AutoCAD Mechanical|Company: Autodesk, Inc."
 90
     1024
 91
        0
280
     0
281
     0
  0
CLASS
  1
ACMSECTIONSTANDARDANSI
  2
AmdtSectionSymStdANSI
  3
"Amdt_StdImp|Product Description: AutoCAD Mechanical|Company: Autodesk, Inc."
 90
     1024
 91
        0
280
     0
281
     0
  0
CLASS
  1
ACMCENTERLINESTANDARDANSI
  2
AmdtCenterLineStdANSI
  3
"Amdt_StdImp|Product Description: AutoCAD Mechanical|Company: Autodesk, Inc."
 90
     1024
 91
        0
280
     0
281
     0
  0
CLASS
  1
ACMTHREADLINESTANDARDANSI
  2
AmdtThreadLineStdANSI
  3
"Amdt_StdImp|Product Description: AutoCAD Mechanical|Company: Autodesk, Inc."
 90
     1024
 91
        0
280
     0
281
     0
  0
CLASS
  1
ACMNOTESTANDARDANSI
  2
AmdtNoteStdANSI
  3
"Amdt_StdImp|Product Description: AutoCAD Mechanical|Company: Autodesk, Inc."
 90
     1024
 91
        0
280
     0
281
     0
  0
CLASS
  1
AMDTNOTETEMPLATEDB
  2
AmdtNoteTemplateDB
  3
AcmSymBB|Product Description: AutoCAD Mechanical|Company: Autodesk, Inc.
 90
     1024
 91
        0
280
     0
281
     0
  0
CLASS
  1
ACMTAPERSTANDARDANSI
  2
AcmTaperStdANSI
  3
"Amdt_StdImp|Product Description: AutoCAD Mechanical|Company: Autodesk, Inc."
 90
     1024
 91
        0
280
     0
281
     0
  0
CLASS
  1
ACMANOOTATIONVIEWSTANDARDANSI
  2
AmdtAnViewStdANSI
  3
"Amdt_StdImp|Product Description: AutoCAD Mechanical|Company: Autodesk, Inc."
 90
     1024
 91
        0
280
     0
281
     0
  0
CLASS
  1
ACAMGHOLECHARTSTDANSI
  2
AcAmgHoleChartStdANSI
  3
AmgDim|Product Description: AutoCAD Mechanical|Company: Autodesk, Inc.
 90
     1024
 91
        0
280
     0
281
     0
  0
CLASS
  1
DIMASSOC
  2
AcDbDimAssoc
  3
"AcDbDimAssoc|Product Desc:     AcDim ARX App For Dimension|Company:          Autodesk, Inc.|WEB Address:      www.autodesk.com"
 90
        0
 91
        0
280
     0
281
     0
  0
CLASS
  1
AMDTEDGESTANDARDISO13715
  2
AmdtEdgeStdISO13715
  3
"Amdt_StdImp|Product Description: AutoCAD Mechanical|Company: Autodesk, Inc."
 90
     1024
 91
        0
280
     0
281
     0
  0
CLASS
  1
ACMSURFSTANDARDISO2002
  2
AcmSurfTextStdISO2002
  3
"Amdt_StdImp|Product Description: AutoCAD Mechanical|Company: Autodesk, Inc."
 90
     1024
 91
        0
280
     0
281
     0
  0
CLASS
  1
ACMSECTIONSTANDARDISO2001
  2
AmdtSectionSymStdISO2001
  3
"Amdt_StdImp|Product Description: AutoCAD Mechanical|Company: Autodesk, Inc."
 90
     1024
 91
        0
280
     0
281
     0
  0
CLASS
  1
ACMTHREADLINESTANDARDISO
  2
AmdtThreadLineStdISO
  3
"Amdt_StdImp|Product Description: AutoCAD Mechanical|Company: Autodesk, Inc."
 90
     1024
 91
        0
280
     0
281
     0
  0
CLASS
  1
ACMTAPERSTANDARDISO
  2
AcmTaperStdISO
  3
"Amdt_StdImp|Product Description: AutoCAD Mechanical|Company: Autodesk, Inc."
 90
     1024
 91
        0
280
     0
281
     0
  0
CLASS
  1
ACMANOOTATIONVIEWSTANDARDISO
  2
AmdtAnViewStdISO
  3
"Amdt_StdImp|Product Description: AutoCAD Mechanical|Company: Autodesk, Inc."
 90
     1024
 91
        0
280
     0
281
     0
  0
CLASS
  1
ACAD_PROXY_OBJECT_WRAPPER
  2
AcDbProxyObjectWrapper
  3
ObjectDBX Classes
 90
        0
 91
        0
280
     0
281
     0
  0
CLASS
  1
LONG_TRANSACTION
  2
AcDbLongTransaction
  3
ObjectDBX Classes
 90
        0
 91
        0
280
     0
281
     0
  0
CLASS
  1
LWPOLYLINE
  2
AcDbPolyline
  3
ObjectDBX Classes
 90
        0
 91
        0
280
     0
281
     1
  0
CLASS
  1
HATCH
  2
AcDbHatch
  3
ObjectDBX Classes
 90
        0
 91
        0
280
     0
281
     1
  0
CLASS
  1
XRECORD
  2
AcDbXrecord
  3
ObjectDBX Classes
 90
        0
 91
      111
280
     0
281
     0
  0
ENDSEC
  0
SECTION
  2
TABLES
  0
TABLE
  2
VPORT
  5
8
102
{ACAD_XDICTIONARY
360
2E0A
102
}
330
0
100
AcDbSymbolTable
 70
     1
  0
VPORT
  5
6AF7
330
8
100
AcDbSymbolTableRecord
100
AcDbViewportTableRecord
  2
*Active
 70
     0
 10
0.0
 20
0.0
 11
1.0
 21
1.0
 12
1138.631156167358
 22
307.6177738274637
 13
0.0
 23
0.0
 14
2.5
 24
2.5
 15
10.0
 25
10.0
 16
0.0
 26
0.0
 36
1.0
 17
0.0
 27
0.0
 37
0.0
 40
1205.117132294593
 41
2.255139056831922
 42
50.0
 43
0.0
 44
0.0
 50
0.0
 51
0.0
 71
     0
 72
   100
 73
     1
 74
     3
 75
     0
 76
     0
 77
     0
 78
     0
281
     0
 65
     1
110
0.0
120
0.0
130
0.0
111
1.0
121
0.0
131
0.0
112
0.0
122
1.0
132
0.0
 79
     0
146
0.0
  0
ENDTAB
  0
TABLE
  2
LTYPE
  5
5
330
0
100
AcDbSymbolTable
 70
     2
  0
LTYPE
  5
14
330
5
100
AcDbSymbolTableRecord
100
AcDbLinetypeTableRecord
  2
ByBlock
 70
     0
  3

 72
    65
 73
     0
 40
0.0
  0
LTYPE
  5
15
330
5
100
AcDbSymbolTableRecord
100
AcDbLinetypeTableRecord
  2
ByLayer
 70
     0
  3

 72
    65
 73
     0
 40
0.0
  0
LTYPE
  5
16
330
5
100
AcDbSymbolTableRecord
100
AcDbLinetypeTableRecord
  2
Continuous
 70
     0
  3
Solid line
 72
    65
 73
     0
 40
0.0
  0
LTYPE
  5
65
330
5
100
AcDbSymbolTableRecord
100
AcDbLinetypeTableRecord
  2
CENTER
 70
     0
  3
__ . __
 72
    65
 73
     4
 40
7.0
 49
4.0
 74
     0
 49
-1.0
 74
     0
 49
1.0
 74
     0
 49
-1.0
 74
     0
  0
ENDTAB
  0
TABLE
  2
LAYER
  5
2
102
{ACAD_XDICTIONARY
360
D1
102
}
330
0
100
AcDbSymbolTable
 70
     2
  0
LAYER
  5
10
102
{ACAD_XDICTIONARY
360
789
102
}
330
2
100
AcDbSymbolTableRecord
100
AcDbLayerTableRecord
  2
0
 70
     0
 62
     7
  6
Continuous
370
    -3
390
F
  0
LAYER
  5
287
102
{ACAD_XDICTIONARY
360
78B
102
}
330
2
100
AcDbSymbolTableRecord
100
AcDbLayerTableRecord
  2
AM_0_T3
 70
     0
 62
     7
  6
Continuous
370
    25
390
F
  0
ENDTAB
  0
TABLE
  2
STYLE
  5
3
330
0
100
AcDbSymbolTable
 70
     2
  0
STYLE
  5
11
330
3
100
AcDbSymbolTableRecord
100
AcDbTextStyleTableRecord
  2
STANDARD
 70
     0
 40
0.0
 41
0.7
 50
0.0
 71
     0
 42
73.98571745357912
  3
romans.shx
  4
bigfont.shx
  0
STYLE
  5
146
330
3
100
AcDbSymbolTableRecord
100
AcDbTextStyleTableRecord
  2
TSKDIM
 70
     0
 40
0.0
 41
0.75
 50
0.0
 71
     0
 42
4.0
  3
romans.shx
  4
EXTFONT.SHX
  0
ENDTAB
  0
TABLE
  2
VIEW
  5
6
330
0
100
AcDbSymbolTable
 70
     0
  0
ENDTAB
  0
TABLE
  2
UCS
  5
7
330
0
100
AcDbSymbolTable
 70
     0
  0
ENDTAB
  0
TABLE
  2
APPID
  5
9
330
0
100
AcDbSymbolTable
 70
    42
  0
APPID
  5
12
330
9
100
AcDbSymbolTableRecord
100
AcDbRegAppTableRecord
  2
ACAD
 70
     0
  0
APPID
  5
30
330
9
100
AcDbSymbolTableRecord
100
AcDbRegAppTableRecord
  2
MCAD_NO_VIS
 70
     0
  0
APPID
  5
31
330
9
100
AcDbSymbolTableRecord
100
AcDbRegAppTableRecord
  2
ACAD_TEMP_GRAPHIC
 70
     0
  0
APPID
  5
44
330
9
100
AcDbSymbolTableRecord
100
AcDbRegAppTableRecord
  2
ACATTRIBSERVICES
 70
     0
  0
APPID
  5
11D
330
9
100
AcDbSymbolTableRecord
100
AcDbRegAppTableRecord
  2
AD_DRAW
 70
     0
  0
APPID
  5
11E
330
9
100
AcDbSymbolTableRecord
100
AcDbRegAppTableRecord
  2
DESIGNERASSEMBLIES
 70
     0
  0
APPID
  5
11F
330
9
100
AcDbSymbolTableRecord
100
AcDbRegAppTableRecord
  2
ASURF_PCURVE_APPNAME
 70
     0
  0
APPID
  5
120
330
9
100
AcDbSymbolTableRecord
100
AcDbRegAppTableRecord
  2
ACADM_DIM_EDIT
 70
     0
  0
APPID
  5
121
330
9
100
AcDbSymbolTableRecord
100
AcDbRegAppTableRecord
  2
GENIUS_GENDIM_13
 70
     0
  0
APPID
  5
122
330
9
100
AcDbSymbolTableRecord
100
AcDbRegAppTableRecord
  2
GENIUS_GENDTOL_13
 70
     0
  0
APPID
  5
123
330
9
100
AcDbSymbolTableRecord
100
AcDbRegAppTableRecord
  2
GENIUS_GE3DTOL_13
 70
     0
  0
APPID
  5
124
330
9
100
AcDbSymbolTableRecord
100
AcDbRegAppTableRecord
  2
AMG_3D2D_5.0
 70
     0
  0
APPID
  5
125
330
9
100
AcDbSymbolTableRecord
100
AcDbRegAppTableRecord
  2
AMDT_DM_ADJ
 70
     0
  0
APPID
  5
126
330
9
100
AcDbSymbolTableRecord
100
AcDbRegAppTableRecord
  2
CK_MATE-SERIES
 70
     0
  0
APPID
  5
127
330
9
100
AcDbSymbolTableRecord
100
AcDbRegAppTableRecord
  2
GEVID1042077799
 70
     0
  0
APPID
  5
128
330
9
100
AcDbSymbolTableRecord
100
AcDbRegAppTableRecord
  2
GEVMK
 70
     0
  0
APPID
  5
129
330
9
100
AcDbSymbolTableRecord
100
AcDbRegAppTableRecord
  2
GEVDC
 70
     0
  0
APPID
  5
12A
330
9
100
AcDbSymbolTableRecord
100
AcDbRegAppTableRecord
  2
GENIUS_GENBH_13
 70
     0
  0
APPID
  5
12B
330
9
100
AcDbSymbolTableRecord
100
AcDbRegAppTableRecord
  2
GENIUS_GENOLIS_13
 70
     0
  0
APPID
  5
12C
330
9
100
AcDbSymbolTableRecord
100
AcDbRegAppTableRecord
  2
GENIUS_GENOENT_13
 70
     0
  0
APPID
  5
12D
330
9
100
AcDbSymbolTableRecord
100
AcDbRegAppTableRecord
  2
GENIUS_GENODEF_13
 70
     0
  0
APPID
  5
12E
330
9
100
AcDbSymbolTableRecord
100
AcDbRegAppTableRecord
  2
GENIUS_GENOBJ-NBEHI-BHF_13
 70
     0
  0
APPID
  5
12F
330
9
100
AcDbSymbolTableRecord
100
AcDbRegAppTableRecord
  2
GENIUS_GENOREF_13
 70
     0
  0
APPID
  5
130
330
9
100
AcDbSymbolTableRecord
100
AcDbRegAppTableRecord
  2
GENIUS_GENOBJ-NBEHI-BHB_13
 70
     0
  0
APPID
  5
131
330
9
100
AcDbSymbolTableRecord
100
AcDbRegAppTableRecord
  2
GEVID1042183772
 70
     0
  0
APPID
  5
132
330
9
100
AcDbSymbolTableRecord
100
AcDbRegAppTableRecord
  2
GEVID1042183773
 70
     0
  0
APPID
  5
133
330
9
100
AcDbSymbolTableRecord
100
AcDbRegAppTableRecord
  2
GEVID1042183774
 70
     0
  0
APPID
  5
2E8
330
9
100
AcDbSymbolTableRecord
100
AcDbRegAppTableRecord
  2
DCO15
 70
     0
  0
APPID
  5
570
330
9
100
AcDbSymbolTableRecord
100
AcDbRegAppTableRecord
  2
ACAD_DSTYLE_DIMARC_LENGTH_SYMBOL
 70
     0
  0
APPID
  5
571
330
9
100
AcDbSymbolTableRecord
100
AcDbRegAppTableRecord
  2
ACAD_DSTYLE_DIMJOGGED_JOGANGLE_SYMBOL
 70
     0
  0
APPID
  5
607
330
9
100
AcDbSymbolTableRecord
100
AcDbRegAppTableRecord
  2
ACAD_MLEADERVER
 70
     0
  0
APPID
  5
6ED
330
9
100
AcDbSymbolTableRecord
100
AcDbRegAppTableRecord
  2
ACAD_DSTYLE_DIMJAG
 70
     0
  0
APPID
  5
6EE
330
9
100
AcDbSymbolTableRecord
100
AcDbRegAppTableRecord
  2
ACAD_DSTYLE_DIMTALN
 70
     0
  0
APPID
  5
6EF
330
9
100
AcDbSymbolTableRecord
100
AcDbRegAppTableRecord
  2
ACAD_PSEXT
 70
     0
  0
APPID
  5
70D
330
9
100
AcDbSymbolTableRecord
100
AcDbRegAppTableRecord
  2
ACAD_EXEMPT_FROM_CAD_STANDARDS
 70
     0
  0
APPID
  5
980
330
9
100
AcDbSymbolTableRecord
100
AcDbRegAppTableRecord
  2
ACAD_DSTYLE_DIMINSPECT
 70
     0
  0
APPID
  5
B20
330
9
100
AcDbSymbolTableRecord
100
AcDbRegAppTableRecord
  2
ACAD_DSTYLE_DIMANGULAR_EXTENSION
 70
     0
  0
APPID
  5
23BE
330
9
100
AcDbSymbolTableRecord
100
AcDbRegAppTableRecord
  2
GENIUS_GENOBJ-N-FIL_13
 70
     0
  0
APPID
  5
2E19
330
9
100
AcDbSymbolTableRecord
100
AcDbRegAppTableRecord
  2
ACAD_DSTYLE_DIM_LINETYPE
 70
     0
  0
APPID
  5
2E1A
330
9
100
AcDbSymbolTableRecord
100
AcDbRegAppTableRecord
  2
ACAD_DSTYLE_DIM_EXT1_LINETYPE
 70
     0
  0
APPID
  5
2E1B
330
9
100
AcDbSymbolTableRecord
100
AcDbRegAppTableRecord
  2
ACAD_DSTYLE_DIM_EXT2_LINETYPE
 70
     0
  0
APPID
  5
7094
330
9
100
AcDbSymbolTableRecord
100
AcDbRegAppTableRecord
  2
ACAD_DSTYLE_DIMRADIAL_EXTENSION
 70
     0
  0
ENDTAB
  0
TABLE
  2
DIMSTYLE
  5
A
330
0
100
AcDbSymbolTable
 70
     1
100
AcDbDimStyleTable
 71
     1
340
1022
  0
DIMSTYLE
105
1022
330
A
100
AcDbSymbolTableRecord
100
AcDbDimStyleTableRecord
  2
Standard
 70
     0
140
30.0
340
11
1001
ACAD_DSTYLE_DIMJAG
1070
   388
1040
1.5
1001
ACAD_DSTYLE_DIMTALN
1070
   392
1070
     0
  0
ENDTAB
  0
TABLE
  2
BLOCK_RECORD
  5
1
330
0
100
AcDbSymbolTable
 70
     3
  0
BLOCK_RECORD
  5
1F
102
{ACAD_XDICTIONARY
360
82
102
}
330
1
100
AcDbSymbolTableRecord
100
AcDbBlockTableRecord
  2
*Model_Space
340
22
  0
BLOCK_RECORD
  5
1B
102
{ACAD_XDICTIONARY
360
6AF9
102
}
330
1
100
AcDbSymbolTableRecord
100
AcDbBlockTableRecord
  2
*Paper_Space
340
1E
  0
BLOCK_RECORD
  5
23
102
{ACAD_XDICTIONARY
360
6AFB
102
}
330
1
100
AcDbSymbolTableRecord
100
AcDbBlockTableRecord
  2
*Paper_Space0
340
26
  0
BLOCK_RECORD
  5
159
330
1
100
AcDbSymbolTableRecord
100
AcDbBlockTableRecord
  2
_Open
340
0
  0
BLOCK_RECORD
  5
6B58
102
{ACAD_XDICTIONARY
360
6CFE
102
}
330
1
100
AcDbSymbolTableRecord
100
AcDbBlockTableRecord
  2
HE15-20A-15A
340
0
1001
ACAD
1000
DesignCenter Data
1002
{
1070
     1
1070
     4
1002
}
  0
ENDTAB
  0
ENDSEC
  0
SECTION
  2
BLOCKS
  0
BLOCK
  5
20
330
1F
100
AcDbEntity
  8
0
100
AcDbBlockBegin
  2
*Model_Space
 70
     0
 10
0.0
 20
0.0
 30
0.0
  3
*Model_Space
  1

  0
ENDBLK
  5
21
330
1F
100
AcDbEntity
  8
0
100
AcDbBlockEnd
  0
BLOCK
  5
1C
330
1B
100
AcDbEntity
 67
     1
  8
0
100
AcDbBlockBegin
  2
*Paper_Space
 70
     0
 10
0.0
 20
0.0
 30
0.0
  3
*Paper_Space
  1

  0
ENDBLK
  5
1D
330
1B
100
AcDbEntity
 67
     1
  8
0
100
AcDbBlockEnd
  0
BLOCK
  5
24
330
23
100
AcDbEntity
 67
     1
  8
0
100
AcDbBlockBegin
  2
*Paper_Space0
 70
     0
 10
0.0
 20
0.0
 30
0.0
  3
*Paper_Space0
  1

  0
ENDBLK
  5
25
330
23
100
AcDbEntity
 67
     1
  8
0
100
AcDbBlockEnd
  0
BLOCK
  5
15D
330
159
100
AcDbEntity
  8
0
100
AcDbBlockBegin
  2
_Open
 70
     0
 10
0.0
 20
0.0
 30
0.0
  3
_Open
  1

  0
LINE
  5
15A
330
159
100
AcDbEntity
  8
0
  6
ByBlock
 62
     0
370
    -2
100
AcDbLine
 10
-1.0
 20
0.1666666666666666
 30
0.0
 11
0.0
 21
0.0
 31
0.0
  0
LINE
  5
15B
330
159
100
AcDbEntity
  8
0
  6
ByBlock
 62
     0
370
    -2
100
AcDbLine
 10
-1.0
 20
-0.1666666666666666
 30
0.0
 11
0.0
 21
0.0
 31
0.0
  0
LINE
  5
15C
330
159
100
AcDbEntity
  8
0
  6
ByBlock
 62
     0
370
    -2
100
AcDbLine
 10
0.0
 20
0.0
 30
0.0
 11
-1.0
 21
0.0
 31
0.0
  0
ENDBLK
  5
15E
330
159
100
AcDbEntity
  8
0
100
AcDbBlockEnd
  0
BLOCK
  5
6D00
330
6B58
100
AcDbEntity
  8
0
100
AcDbBlockBegin
  2
HE15-20A-15A
 70
     0
 10
0.0
 20
0.0
 30
0.0
  3
HE15-20A-15A
  1

  0
LINE
  5
6B59
330
6B58
100
AcDbEntity
  8
0
100
AcDbLine
 10
1220.071883922599
 20
-32.49999999971806
 30
0.0
 11
1286.013578631537
 21
-32.4999999997176
 31
0.0
  0
LINE
  5
6B5A
330
6B58
100
AcDbEntity
  8
0
100
AcDbLine
 10
1216.342731277069
 20
-26.04091814847243
 30
0.0
 11
1220.071883922599
 21
-32.49999999971806
 31
0.0
  0
LINE
  5
6B5B
330
6B58
100
AcDbEntity
  8
0
100
AcDbLine
 10
1216.342731277076
 20
26.04091814904268
 30
0.0
 11
1220.071883922614
 21
32.5000000002824
 31
0.0
  0
LINE
  5
6B5C
330
6B58
100
AcDbEntity
  8
0
100
AcDbLine
 10
1228.29273127707
 20
-32.4999999997176
 30
0.0
 11
1228.292731277077
 21
32.50000000028285
 31
0.0
  0
LINE
  5
6B5D
330
6B58
100
AcDbEntity
  8
0
100
AcDbLine
 10
1223.042731277073
 20
-32.4999999997176
 30
0.0
 11
1223.042731277073
 21
32.5000000002824
 31
0.0
  0
LINE
  5
6B5E
330
6B58
100
AcDbEntity
  8
0
100
AcDbLine
 10
1216.342731277069
 20
-26.04091814847243
 30
0.0
 11
1216.342731277076
 21
26.04091814904268
 31
0.0
  0
LINE
  5
6B5F
330
6B58
100
AcDbEntity
  8
0
100
AcDbLine
 10
1220.071883922614
 20
32.5000000002824
 30
0.0
 11
1286.013578631533
 21
32.5000000002824
 31
0.0
  0
LINE
  5
6B60
330
6B58
100
AcDbEntity
  8
0
100
AcDbLine
 10
1237.300749085425
 20
-32.4999999997176
 30
0.0
 11
1237.300749085425
 21
32.50000000028285
 31
0.0
  0
LINE
  5
6B61
330
6B58
100
AcDbEntity
  8
0
100
AcDbLine
 10
1241.800749085421
 20
-32.4999999997176
 30
0.0
 11
1241.800749085421
 21
32.50000000028285
 31
0.0
  0
LINE
  5
6B62
330
6B58
100
AcDbEntity
  8
0
100
AcDbLine
 10
1246.300749085425
 20
-32.4999999997176
 30
0.0
 11
1246.300749085429
 21
32.50000000028285
 31
0.0
  0
LINE
  5
6B63
330
6B58
100
AcDbEntity
  8
0
100
AcDbLine
 10
1250.800749085418
 20
-32.4999999997176
 30
0.0
 11
1250.800749085425
 21
32.50000000028285
 31
0.0
  0
LINE
  5
6B64
330
6B58
100
AcDbEntity
  8
0
100
AcDbLine
 10
1232.81336713894
 20
-32.49999999971806
 30
0.0
 11
1232.800345138283
 21
32.5000000002824
 31
0.0
  0
LINE
  5
6B65
330
6B58
100
AcDbEntity
  8
0
100
AcDbLine
 10
1216.342731277076
 20
-19.04999327043288
 30
0.0
 11
349.0427312770735
 21
-19.04999327044197
 31
0.0
  0
LINE
  5
6B66
330
6B58
100
AcDbEntity
  8
0
100
AcDbLine
 10
315.0427312770735
 20
-19.04999327044288
 30
0.0
 11
259.2959363265654
 21
-19.04999327044334
 31
0.0
  0
LINE
  5
6B67
330
6B58
100
AcDbEntity
  8
0
100
AcDbLine
 10
1216.342731277069
 20
19.0500048043209
 30
0.0
 11
259.2959363265654
 21
19.05000480432136
 31
0.0
  0
LINE
  5
6B68
330
6B58
100
AcDbEntity
  8
0
100
AcDbLine
 10
1220.071883922606
 20
-32.49999999971942
 30
0.0
 11
1220.071883922606
 21
32.50000000028058
 31
0.0
  0
LINE
  5
6B69
330
6B58
100
AcDbEntity
  8
0
100
AcDbLine
 10
1289.742731277078
 20
-26.04091814847243
 30
0.0
 11
1286.013578631537
 21
-32.4999999997176
 31
0.0
  0
LINE
  5
6B6A
330
6B58
100
AcDbEntity
  8
0
100
AcDbLine
 10
1289.74273127707
 20
26.04091814904268
 30
0.0
 11
1286.013578631533
 21
32.5000000002824
 31
0.0
  0
LINE
  5
6B6B
330
6B58
100
AcDbEntity
  8
0
100
AcDbLine
 10
1277.792731277077
 20
-32.4999999997176
 30
0.0
 11
1277.79273127707
 21
32.50000000028285
 31
0.0
  0
LINE
  5
6B6C
330
6B58
100
AcDbEntity
  8
0
100
AcDbLine
 10
1283.042731277073
 20
-32.4999999997176
 30
0.0
 11
1283.042731277073
 21
32.5000000002824
 31
0.0
  0
LINE
  5
6B6D
330
6B58
100
AcDbEntity
  8
0
100
AcDbLine
 10
1289.742731277078
 20
-26.04091814847243
 30
0.0
 11
1289.74273127707
 21
26.04091814904268
 31
0.0
  0
LINE
  5
6B6E
330
6B58
100
AcDbEntity
  8
0
100
AcDbLine
 10
1268.784713468722
 20
-32.4999999997176
 30
0.0
 11
1268.784713468722
 21
32.50000000028285
 31
0.0
  0
LINE
  5
6B6F
330
6B58
100
AcDbEntity
  8
0
100
AcDbLine
 10
1264.284713468725
 20
-32.4999999997176
 30
0.0
 11
1264.284713468725
 21
32.50000000028285
 31
0.0
  0
LINE
  5
6B70
330
6B58
100
AcDbEntity
  8
0
100
AcDbLine
 10
1259.784713468722
 20
-32.4999999997176
 30
0.0
 11
1259.784713468718
 21
32.50000000028285
 31
0.0
  0
LINE
  5
6B71
330
6B58
100
AcDbEntity
  8
0
100
AcDbLine
 10
1255.284713468729
 20
-32.4999999997176
 30
0.0
 11
1255.284713468722
 21
32.50000000028285
 31
0.0
  0
LINE
  5
6B72
330
6B58
100
AcDbEntity
  8
0
100
AcDbLine
 10
1273.272095415206
 20
-32.49999999971806
 30
0.0
 11
1273.285117415864
 21
32.5000000002824
 31
0.0
  0
LINE
  5
6B73
330
6B58
100
AcDbEntity
  8
0
100
AcDbLine
 10
1286.01357863154
 20
-32.49999999971942
 30
0.0
 11
1286.01357863154
 21
32.50000000028058
 31
0.0
  0
LINE
  5
6B74
330
6B58
100
AcDbEntity
  8
0
100
AcDbLine
 10
244.7959363265654
 20
-17.99999999972397
 30
0.0
 11
231.045935326576
 21
-17.99999999972579
 31
0.0
  0
LINE
  5
6B75
330
6B58
100
AcDbEntity
  8
0
100
AcDbLine
 10
244.7959363265654
 20
18.00000000027466
 30
0.0
 11
231.0459353265687
 21
18.00000000027421
 31
0.0
  0
LINE
  5
6B76
330
6B58
100
AcDbEntity
  8
0
100
AcDbLine
 10
231.045935326576
 20
-17.99999999972579
 30
0.0
 11
231.0459353265687
 21
18.00000000027421
 31
0.0
  0
LINE
  5
6B77
330
6B58
100
AcDbEntity
  8
0
100
AcDbLine
 10
248.2931599265648
 20
-46.49999999972533
 30
0.0
 11
255.7987141265658
 21
-46.49999999972533
 31
0.0
  0
LINE
  5
6B78
330
6B58
100
AcDbEntity
  8
0
100
AcDbLine
 10
255.7987133265669
 20
-46.50000299972544
 30
0.0
 11
259.5514914265659
 21
-40.00000099972567
 31
0.0
  0
LINE
  5
6B79
330
6B58
100
AcDbEntity
  8
0
100
AcDbLine
 10
259.5514912265644
 20
-40.00000199972555
 30
0.0
 11
255.798714026565
 21
-33.50000099972567
 31
0.0
  0
LINE
  5
6B7A
330
6B58
100
AcDbEntity
  8
0
100
AcDbLine
 10
255.7987141265658
 20
-33.49999999972534
 30
0.0
 11
248.2931599265648
 21
-33.49999999972534
 31
0.0
  0
LINE
  5
6B7B
330
6B58
100
AcDbEntity
  8
0
100
AcDbLine
 10
244.5403814265664
 20
-40.00000199972555
 30
0.0
 11
248.2931595265654
 21
-33.49999999972534
 31
0.0
  0
LINE
  5
6B7C
330
6B58
100
AcDbEntity
  8
0
100
AcDbLine
 10
248.2931593265675
 20
-46.50000299972544
 30
0.0
 11
244.5403822265653
 21
-40.00000199972555
 31
0.0
  0
LINE
  5
6B7D
330
6B58
100
AcDbEntity
  8
0
100
AcDbLine
 10
255.7987133265669
 20
46.50000300027477
 30
0.0
 11
259.5514904265656
 21
40.00000200027443
 31
0.0
  0
LINE
  5
6B7E
330
6B58
100
AcDbEntity
  8
0
100
AcDbLine
 10
259.5514912265644
 20
40.00000200027443
 30
0.0
 11
255.7987131265654
 21
33.50000000027467
 31
0.0
  0
LINE
  5
6B7F
330
6B58
100
AcDbEntity
  8
0
100
AcDbLine
 10
244.5403814265664
 20
40.00000200027443
 30
0.0
 11
248.2931586265658
 21
33.50000100027455
 31
0.0
  0
LINE
  5
6B80
330
6B58
100
AcDbEntity
  8
0
100
AcDbLine
 10
248.2931585265651
 20
33.50000000027467
 30
0.0
 11
255.798712726566
 21
33.50000000027467
 31
0.0
  0
LINE
  5
6B81
330
6B58
100
AcDbEntity
  8
0
100
AcDbLine
 10
248.2931593265675
 20
46.50000300027477
 30
0.0
 11
244.5403812265649
 21
40.00000100027455
 31
0.0
  0
LINE
  5
6B82
330
6B58
100
AcDbEntity
  8
0
100
AcDbLine
 10
255.798712726566
 20
46.50000000027467
 30
0.0
 11
248.2931585265651
 21
46.50000000027467
 31
0.0
  0
LINE
  5
6B83
330
6B58
100
AcDbEntity
  8
0
  6
CENTER
100
AcDbLine
 10
242.0459363265654
 20
40.00000000027466
 30
0.0
 11
262.0459363265654
 21
40.00000000027466
 31
0.0
  0
LINE
  5
6B84
330
6B58
100
AcDbEntity
  8
0
  6
CENTER
100
AcDbLine
 10
252.0459363265654
 20
50.00000000027466
 30
0.0
 11
252.0459363265654
 21
30.00000200027443
 31
0.0
  0
LINE
  5
6B85
330
6B58
100
AcDbEntity
  8
0
  6
CENTER
100
AcDbLine
 10
242.0459363265654
 20
-39.99999999972533
 30
0.0
 11
262.0459363265654
 21
-39.99999999972533
 31
0.0
  0
LINE
  5
6B86
330
6B58
100
AcDbEntity
  8
0
  6
CENTER
100
AcDbLine
 10
220.3969465744994
 20
0.0000000002746674
 30
0.0
 11
2285.688515979648
 21
0.0000000002742127
 31
0.0
  0
LINE
  5
6B87
330
6B58
100
AcDbEntity
  8
0
  6
CENTER
100
AcDbLine
 10
252.0459363265654
 20
-30.00000199972556
 30
0.0
 11
252.0459363265654
 21
-49.99999999972533
 31
0.0
  0
LINE
  5
6B88
330
6B58
100
AcDbEntity
  8
0
100
AcDbLine
 10
244.7959363265654
 20
24.25000000027467
 30
0.0
 11
244.7959363265654
 21
-24.24999999972533
 31
0.0
  0
LINE
  5
6B89
330
6B58
100
AcDbEntity
  8
0
100
AcDbLine
 10
244.7959363265654
 20
-24.24999999972533
 30
0.0
 11
247.3437279664286
 21
-31.24999999972533
 31
0.0
  0
ARC
  5
6B8A
330
6B58
100
AcDbEntity
  8
0
100
AcDbCircle
 10
252.0459363265654
 20
-40.00000099972567
 30
0.0
 40
7.0
100
AcDbArc
 50
8.213226796806106
 51
47.79818535140401
  0
ARC
  5
6B8B
330
6B58
100
AcDbEntity
  8
0
100
AcDbCircle
 10
252.0459363265654
 20
-40.00000099972567
 30
0.0
 40
7.0
100
AcDbArc
 50
308.2132381095345
 51
351.7867593049355
  0
ARC
  5
6B8C
330
6B58
100
AcDbEntity
  8
0
100
AcDbCircle
 10
252.0459363265654
 20
-40.00000099972567
 30
0.0
 40
7.0
100
AcDbArc
 50
248.2131886486258
 51
291.7868113513742
  0
ARC
  5
6B8D
330
6B58
100
AcDbEntity
  8
0
100
AcDbCircle
 10
252.0459363265654
 20
-40.00000099972567
 30
0.0
 40
7.0
100
AcDbArc
 50
188.2132338649897
 51
231.7867631325301
  0
ARC
  5
6B8E
330
6B58
100
AcDbEntity
  8
0
100
AcDbCircle
 10
252.0459363265654
 20
-40.00000099972567
 30
0.0
 40
7.0
100
AcDbArc
 50
132.201814648596
 51
171.7867741511661
  0
LINE
  5
6B8F
330
6B58
100
AcDbEntity
  8
0
100
AcDbLine
 10
259.2959363265654
 20
24.25000000027467
 30
0.0
 11
259.2959363265654
 21
-24.24999999972533
 31
0.0
  0
LINE
  5
6B90
330
6B58
100
AcDbEntity
  8
0
100
AcDbLine
 10
259.2959363265654
 20
-24.24999999972533
 30
0.0
 11
256.7481446867023
 21
-31.24999999972533
 31
0.0
  0
LINE
  5
6B91
330
6B58
100
AcDbEntity
  8
0
100
AcDbLine
 10
256.7481446867023
 20
34.81451775009782
 30
0.0
 11
256.7481446867023
 21
-34.81451774954894
 31
0.0
  0
LINE
  5
6B92
330
6B58
100
AcDbEntity
  8
0
100
AcDbLine
 10
247.3437279664286
 20
-28.41764499972533
 30
0.0
 11
256.7481446867023
 21
-28.41764499972533
 31
0.0
  0
LINE
  5
6B93
330
6B58
100
AcDbEntity
  8
0
100
AcDbLine
 10
244.7959363265654
 20
24.25000000027467
 30
0.0
 11
247.3437279664286
 21
31.25000000027467
 31
0.0
  0
LINE
  5
6B94
330
6B58
100
AcDbEntity
  8
0
100
AcDbLine
 10
247.3437279664286
 20
-34.81451774954894
 30
0.0
 11
247.3437279664286
 21
34.81451775009782
 31
0.0
  0
ARC
  5
6B95
330
6B58
100
AcDbEntity
  8
0
100
AcDbCircle
 10
252.0459363265654
 20
40.00000100027455
 30
0.0
 40
7.0
100
AcDbArc
 50
312.201814648596
 51
351.7867732031939
  0
ARC
  5
6B96
330
6B58
100
AcDbEntity
  8
0
100
AcDbCircle
 10
252.0459363265654
 20
40.00000100027455
 30
0.0
 40
7.0
100
AcDbArc
 50
8.213240695064502
 51
51.78676189046547
  0
ARC
  5
6B97
330
6B58
100
AcDbEntity
  8
0
100
AcDbCircle
 10
252.0459363265654
 20
40.00000100027455
 30
0.0
 40
7.0
100
AcDbArc
 50
68.21318864862583
 51
111.7868113513742
  0
ARC
  5
6B98
330
6B58
100
AcDbEntity
  8
0
100
AcDbCircle
 10
252.0459363265654
 20
40.00000100027455
 30
0.0
 40
7.0
100
AcDbArc
 50
128.2132368674699
 51
171.7867661350102
  0
ARC
  5
6B99
330
6B58
100
AcDbEntity
  8
0
100
AcDbCircle
 10
252.0459363265654
 20
40.00000100027455
 30
0.0
 40
7.0
100
AcDbArc
 50
188.2132258488338
 51
227.798185351404
  0
LINE
  5
6B9A
330
6B58
100
AcDbEntity
  8
0
100
AcDbLine
 10
259.2959363265654
 20
24.25000000027467
 30
0.0
 11
256.7481446867023
 21
31.25000000027467
 31
0.0
  0
LINE
  5
6B9B
330
6B58
100
AcDbEntity
  8
0
100
AcDbLine
 10
247.3437279664286
 20
28.41764500027466
 30
0.0
 11
256.7481446867023
 21
28.41764500027466
 31
0.0
  0
LINE
  5
6B9C
330
6B58
100
AcDbEntity
  8
0
100
AcDbLine
 10
1220.071883922599
 20
379.1714795496
 30
0.0
 11
1286.013578631537
 21
379.1714795496005
 31
0.0
  0
LINE
  5
6B9D
330
6B58
100
AcDbEntity
  8
0
100
AcDbLine
 10
1216.342731277069
 20
385.6305614008456
 30
0.0
 11
1220.071883922599
 21
379.1714795496
 31
0.0
  0
LINE
  5
6B9E
330
6B58
100
AcDbEntity
  8
0
100
AcDbLine
 10
1216.342731277076
 20
437.7123976983607
 30
0.0
 11
1220.071883922614
 21
444.1714795496004
 31
0.0
  0
LINE
  5
6B9F
330
6B58
100
AcDbEntity
  8
0
100
AcDbLine
 10
1228.29273127707
 20
379.1714795496005
 30
0.0
 11
1228.292731277077
 21
444.1714795496009
 31
0.0
  0
LINE
  5
6BA0
330
6B58
100
AcDbEntity
  8
0
100
AcDbLine
 10
1223.042731277073
 20
379.1714795496005
 30
0.0
 11
1223.042731277073
 21
444.1714795496004
 31
0.0
  0
LINE
  5
6BA1
330
6B58
100
AcDbEntity
  8
0
100
AcDbLine
 10
1216.342731277069
 20
385.6305614008456
 30
0.0
 11
1216.342731277076
 21
437.7123976983607
 31
0.0
  0
LINE
  5
6BA2
330
6B58
100
AcDbEntity
  8
0
100
AcDbLine
 10
1220.071883922614
 20
444.1714795496004
 30
0.0
 11
1286.013578631533
 21
444.1714795496004
 31
0.0
  0
LINE
  5
6BA3
330
6B58
100
AcDbEntity
  8
0
100
AcDbLine
 10
1237.300749085425
 20
379.1714795496005
 30
0.0
 11
1237.300749085425
 21
444.1714795496009
 31
0.0
  0
LINE
  5
6BA4
330
6B58
100
AcDbEntity
  8
0
100
AcDbLine
 10
1241.800749085421
 20
379.1714795496005
 30
0.0
 11
1241.800749085421
 21
444.1714795496009
 31
0.0
  0
LINE
  5
6BA5
330
6B58
100
AcDbEntity
  8
0
100
AcDbLine
 10
1246.300749085425
 20
379.1714795496005
 30
0.0
 11
1246.300749085429
 21
444.1714795496009
 31
0.0
  0
LINE
  5
6BA6
330
6B58
100
AcDbEntity
  8
0
100
AcDbLine
 10
1250.800749085418
 20
379.1714795496005
 30
0.0
 11
1250.800749085425
 21
444.1714795496009
 31
0.0
  0
LINE
  5
6BA7
330
6B58
100
AcDbEntity
  8
0
100
AcDbLine
 10
1232.81336713894
 20
379.1714795496
 30
0.0
 11
1232.800345138283
 21
444.1714795496004
 31
0.0
  0
LINE
  5
6BA8
330
6B58
100
AcDbEntity
  8
0
100
AcDbLine
 10
1289.74273127707
 20
430.7214728202998
 30
0.0
 11
2114.516705402792
 21
430.7214728203084
 31
0.0
  0
LINE
  5
6BA9
330
6B58
100
AcDbEntity
  8
0
100
AcDbLine
 10
2233.568757151355
 20
430.7214728203098
 30
0.0
 11
2246.789526227582
 21
430.7214728203103
 31
0.0
  0
LINE
  5
6BAA
330
6B58
100
AcDbEntity
  8
0
100
AcDbLine
 10
1289.742731277078
 20
392.6214747455456
 30
0.0
 11
2114.516709093783
 21
392.6214747455456
 31
0.0
  0
LINE
  5
6BAB
330
6B58
100
AcDbEntity
  8
0
100
AcDbLine
 10
2233.568753460364
 20
392.6214747455456
 30
0.0
 11
2246.789526227582
 21
392.6214747455456
 31
0.0
  0
LINE
  5
6BAC
330
6B58
100
AcDbEntity
  8
0
100
AcDbLine
 10
1220.071883922606
 20
379.1714795495987
 30
0.0
 11
1220.071883922606
 21
444.1714795495986
 31
0.0
  0
LINE
  5
6BAD
330
6B58
100
AcDbEntity
  8
0
100
AcDbLine
 10
1289.742731277078
 20
385.6305614008456
 30
0.0
 11
1286.013578631537
 21
379.1714795496005
 31
0.0
  0
LINE
  5
6BAE
330
6B58
100
AcDbEntity
  8
0
100
AcDbLine
 10
1289.74273127707
 20
437.7123976983607
 30
0.0
 11
1286.013578631533
 21
444.1714795496004
 31
0.0
  0
LINE
  5
6BAF
330
6B58
100
AcDbEntity
  8
0
100
AcDbLine
 10
1277.792731277077
 20
379.1714795496005
 30
0.0
 11
1277.79273127707
 21
444.1714795496009
 31
0.0
  0
LINE
  5
6BB0
330
6B58
100
AcDbEntity
  8
0
100
AcDbLine
 10
1283.042731277073
 20
379.1714795496005
 30
0.0
 11
1283.042731277073
 21
444.1714795496004
 31
0.0
  0
LINE
  5
6BB1
330
6B58
100
AcDbEntity
  8
0
100
AcDbLine
 10
1289.742731277078
 20
385.6305614008456
 30
0.0
 11
1289.74273127707
 21
437.7123976983607
 31
0.0
  0
LINE
  5
6BB2
330
6B58
100
AcDbEntity
  8
0
100
AcDbLine
 10
1268.784713468722
 20
379.1714795496005
 30
0.0
 11
1268.784713468722
 21
444.1714795496009
 31
0.0
  0
LINE
  5
6BB3
330
6B58
100
AcDbEntity
  8
0
100
AcDbLine
 10
1264.284713468725
 20
379.1714795496005
 30
0.0
 11
1264.284713468725
 21
444.1714795496009
 31
0.0
  0
LINE
  5
6BB4
330
6B58
100
AcDbEntity
  8
0
100
AcDbLine
 10
1259.784713468722
 20
379.1714795496005
 30
0.0
 11
1259.784713468718
 21
444.1714795496009
 31
0.0
  0
LINE
  5
6BB5
330
6B58
100
AcDbEntity
  8
0
100
AcDbLine
 10
1255.284713468729
 20
379.1714795496005
 30
0.0
 11
1255.284713468722
 21
444.1714795496009
 31
0.0
  0
LINE
  5
6BB6
330
6B58
100
AcDbEntity
  8
0
100
AcDbLine
 10
1273.272095415206
 20
379.1714795496
 30
0.0
 11
1273.285117415864
 21
444.1714795496004
 31
0.0
  0
LINE
  5
6BB7
330
6B58
100
AcDbEntity
  8
0
100
AcDbLine
 10
1286.01357863154
 20
379.1714795495987
 30
0.0
 11
1286.01357863154
 21
444.1714795495986
 31
0.0
  0
LINE
  5
6BB8
330
6B58
100
AcDbEntity
  8
0
100
AcDbLine
 10
2261.289526227582
 20
429.6714795495908
 30
0.0
 11
2275.039527227571
 21
429.6714795495927
 31
0.0
  0
LINE
  5
6BB9
330
6B58
100
AcDbEntity
  8
0
100
AcDbLine
 10
2261.289526227582
 20
393.6714795495923
 30
0.0
 11
2275.039527227578
 21
393.6714795495928
 31
0.0
  0
LINE
  5
6BBA
330
6B58
100
AcDbEntity
  8
0
100
AcDbLine
 10
2275.039527227571
 20
429.6714795495927
 30
0.0
 11
2275.039527227578
 21
393.6714795495928
 31
0.0
  0
LINE
  5
6BBB
330
6B58
100
AcDbEntity
  8
0
100
AcDbLine
 10
2261.289526227582
 20
387.4214795495923
 30
0.0
 11
2261.289526227582
 21
435.9214795495923
 31
0.0
  0
LINE
  5
6BBC
330
6B58
100
AcDbEntity
  8
0
100
AcDbLine
 10
2246.789526227582
 20
387.4214795495923
 30
0.0
 11
2246.789526227582
 21
435.9214795495923
 31
0.0
  0
LINE
  5
6BBD
330
6B58
100
AcDbEntity
  8
0
100
AcDbLine
 10
2249.337317867444
 20
380.4214795495905
 30
0.0
 11
2249.337317867441
 21
393.3106190608524
 31
0.0
  0
LINE
  5
6BBE
330
6B58
100
AcDbEntity
  8
0
100
AcDbLine
 10
2249.337317867444
 20
433.1714795495923
 30
0.0
 11
2249.337317867444
 21
442.9214795495941
 31
0.0
  0
LINE
  5
6BBF
330
6B58
100
AcDbEntity
  8
0
100
AcDbLine
 10
2258.741734587719
 20
442.9214795495941
 30
0.0
 11
2258.741734587719
 21
433.1714795495923
 31
0.0
  0
LINE
  5
6BC0
330
6B58
100
AcDbEntity
  8
0
100
AcDbLine
 10
2258.741734587719
 20
393.3106190608514
 30
0.0
 11
2258.741734587719
 21
380.4214795495905
 31
0.0
  0
LINE
  5
6BC1
330
6B58
100
AcDbEntity
  8
0
100
AcDbLine
 10
269.5427312770735
 20
-84.99999999973125
 30
0.0
 11
269.5427312770735
 21
-70.99999999973125
 31
0.0
  0
LINE
  5
6BC2
330
6B58
100
AcDbEntity
  8
0
  6
CENTER
100
AcDbLine
 10
287.0427312770735
 20
-93.99999999973216
 30
0.0
 11
287.0427312770735
 21
-60.99999999973215
 31
0.0
  0
LINE
  5
6BC3
330
6B58
100
AcDbEntity
  8
0
  6
CENTER
100
AcDbLine
 10
377.0427312770735
 20
-93.99999999973216
 30
0.0
 11
377.0427312770735
 21
-60.99999999973215
 31
0.0
  0
LINE
  5
6BC4
330
6B58
100
AcDbEntity
  8
0
100
AcDbLine
 10
394.5427312770735
 20
-70.99999999973215
 30
0.0
 11
394.5427312770735
 21
-84.99999999973216
 31
0.0
  0
LINE
  5
6BC5
330
6B58
100
AcDbEntity
  8
0
100
AcDbLine
 10
394.5427312770735
 20
-84.99999999973216
 30
0.0
 11
269.5427312770735
 21
-84.99999999973125
 31
0.0
  0
LINE
  5
6BC6
330
6B58
100
AcDbEntity
  8
0
100
AcDbLine
 10
269.5427312770735
 20
-70.99999999973125
 30
0.0
 11
394.5427312770735
 21
-70.99999999973215
 31
0.0
  0
LINE
  5
6BC7
330
6B58
100
AcDbEntity
  8
0
100
AcDbLine
 10
349.0427312770735
 20
-70.99999999973125
 30
0.0
 11
349.0427312770735
 21
-19.04999327044243
 31
0.0
  0
LINE
  5
6BC8
330
6B58
100
AcDbEntity
  8
0
100
AcDbLine
 10
315.0427312770735
 20
-70.99999999973125
 30
0.0
 11
315.0427312770735
 21
-19.04999327044243
 31
0.0
  0
LINE
  5
6BC9
330
6B58
100
AcDbEntity
  8
0
  6
CENTER
100
AcDbLine
 10
2156.011508356816
 20
429.7027024698495
 30
0.0
 11
2128.434343890542
 21
457.279866936125
 31
0.0
  0
LINE
  5
6BCA
330
6B58
100
AcDbEntity
  8
0
  6
CENTER
100
AcDbLine
 10
2156.011508356816
 20
393.6402566293359
 30
0.0
 11
2128.434343890542
 21
366.0630921630604
 31
0.0
  0
LINE
  5
6BCB
330
6B58
100
AcDbEntity
  8
0
  6
CENTER
100
AcDbLine
 10
2192.073954197331
 20
429.7027024698495
 30
0.0
 11
2219.651118663605
 21
457.279866936125
 31
0.0
  0
LINE
  5
6BCC
330
6B58
100
AcDbEntity
  8
0
  6
CENTER
100
AcDbLine
 10
2192.073954197331
 20
393.6402566293359
 30
0.0
 11
2219.651118663605
 21
366.0630921630604
 31
0.0
  0
LINE
  5
6BCD
330
6B58
100
AcDbEntity
  8
0
  6
CENTER
100
AcDbLine
 10
2174.042731277078
 20
327.6715167314619
 30
0.0
 11
2174.042731277078
 21
495.6714423677245
 31
0.0
  0
ARC
  5
6BCE
330
6B58
100
AcDbEntity
  8
0
100
AcDbCircle
 10
332.0427312770735
 20
-27.64618553001628
 30
0.0
 40
19.04979058581857
100
AcDbArc
 50
26.82382421417781
 51
153.1761757858222
  0
LINE
  5
6BCF
330
6B58
100
AcDbEntity
  8
0
  6
CENTER
100
AcDbLine
 10
2254.039526227582
 20
441.3000175495894
 30
0.0
 11
2254.039526227582
 21
388.4004815495923
 31
0.0
  0
ARC
  5
6BD0
330
6B58
100
AcDbEntity
  8
0
100
AcDbCircle
 10
2250.789526227582
 20
400.8194745495916
 30
0.0
 40
7.647994500000001
100
AcDbArc
 50
244.8526299998726
 51
295.1473700001273
  0
ARC
  5
6BD1
330
6B58
100
AcDbEntity
  8
0
100
AcDbCircle
 10
2257.289526227582
 20
400.8194745495916
 30
0.0
 40
7.647994500000001
100
AcDbArc
 50
244.8526299998726
 51
295.1473700001273
  0
ARC
  5
6BD2
330
6B58
100
AcDbEntity
  8
0
100
AcDbCircle
 10
2249.039526227582
 20
432.1714795495922
 30
0.0
 40
1.0
100
AcDbArc
 50
89.99999000005109
 51
179.9999960000204
  0
ARC
  5
6BD3
330
6B58
100
AcDbEntity
  8
0
100
AcDbCircle
 10
2259.039526227581
 20
432.1714795495922
 30
0.0
 40
1.0
100
AcDbArc
 50
0.0
 51
90.00000500883318
  0
ARC
  5
6BD4
330
6B58
100
AcDbEntity
  8
0
100
AcDbCircle
 10
2257.289526227582
 20
423.5234845495893
 30
0.0
 40
7.647994999999999
100
AcDbArc
 50
64.8526299998726
 51
115.1473749998909
  0
ARC
  5
6BD5
330
6B58
100
AcDbEntity
  8
0
100
AcDbCircle
 10
2250.789526227582
 20
423.5234845495893
 30
0.0
 40
7.647994999999999
100
AcDbArc
 50
64.8526299998726
 51
115.1473680000444
  0
ARC
  5
6BD6
330
6B58
100
AcDbEntity
  8
0
100
AcDbCircle
 10
2257.289526227582
 20
432.3194745495916
 30
0.0
 40
7.647994999999999
100
AcDbArc
 50
244.8526299998726
 51
295.1473700001273
  0
ARC
  5
6BD7
330
6B58
100
AcDbEntity
  8
0
100
AcDbCircle
 10
2250.789526227582
 20
432.3194745495916
 30
0.0
 40
7.647994999999999
100
AcDbArc
 50
244.8526299998726
 51
295.1473700001273
  0
LINE
  5
6BD8
330
6B58
100
AcDbEntity
  8
0
100
AcDbLine
 10
2261.039526227582
 20
398.6714795495923
 30
0.0
 11
2247.039526227581
 21
398.6714795495923
 31
0.0
  0
LINE
  5
6BD9
330
6B58
100
AcDbEntity
  8
0
100
AcDbLine
 10
2247.039526227581
 20
408.6714795495923
 30
0.0
 11
2247.039526227581
 21
398.6714795495923
 31
0.0
  0
LINE
  5
6BDA
330
6B58
100
AcDbEntity
  8
0
100
AcDbLine
 10
2261.039526227582
 20
424.6714795495923
 30
0.0
 11
2247.039526227581
 21
424.6714795495923
 31
0.0
  0
LINE
  5
6BDB
330
6B58
100
AcDbEntity
  8
0
100
AcDbLine
 10
2247.039526227581
 20
414.6714795495922
 30
0.0
 11
2247.039526227581
 21
424.6714795495923
 31
0.0
  0
LINE
  5
6BDC
330
6B58
100
AcDbEntity
  8
0
100
AcDbLine
 10
2261.039526227582
 20
408.6714795495959
 30
0.0
 11
2247.039526227581
 21
408.6714795495923
 31
0.0
  0
LINE
  5
6BDD
330
6B58
100
AcDbEntity
  8
0
100
AcDbLine
 10
2261.039526227582
 20
414.6714795495922
 30
0.0
 11
2247.039526227581
 21
414.6714795495922
 31
0.0
  0
LINE
  5
6BDE
330
6B58
100
AcDbEntity
  8
0
100
AcDbLine
 10
2250.039526227582
 20
414.6714795495922
 30
0.0
 11
2250.039526227582
 21
408.6714795495923
 31
0.0
  0
LINE
  5
6BDF
330
6B58
100
AcDbEntity
  8
0
100
AcDbLine
 10
2258.039526227582
 20
414.6714795495922
 30
0.0
 11
2258.039526227582
 21
408.6714795495923
 31
0.0
  0
LINE
  5
6BE0
330
6B58
100
AcDbEntity
  8
0
100
AcDbLine
 10
2250.789526227582
 20
393.1714795495923
 30
0.0
 11
2257.289526227582
 21
393.1714795495923
 31
0.0
  0
LINE
  5
6BE1
330
6B58
100
AcDbEntity
  8
0
100
AcDbLine
 10
2247.539526227582
 20
393.8963735495913
 30
0.0
 11
2247.539526227582
 21
398.6714795495923
 31
0.0
  0
LINE
  5
6BE2
330
6B58
100
AcDbEntity
  8
0
100
AcDbLine
 10
2260.539526227582
 20
393.8963735495913
 30
0.0
 11
2260.539526227582
 21
398.6714795495923
 31
0.0
  0
LINE
  5
6BE3
330
6B58
100
AcDbEntity
  8
0
100
AcDbLine
 10
2250.039526227582
 20
438.6714795495922
 30
0.0
 11
2250.039526227582
 21
433.1714795495923
 31
0.0
  0
LINE
  5
6BE4
330
6B58
100
AcDbEntity
  8
0
100
AcDbLine
 10
2249.039526227582
 20
433.1714795495923
 30
0.0
 11
2259.039526227581
 21
433.1714795495923
 31
0.0
  0
LINE
  5
6BE5
330
6B58
100
AcDbEntity
  8
0
100
AcDbLine
 10
2250.039526227582
 20
438.6714795495922
 30
0.0
 11
2258.039526227582
 21
438.6714795495922
 31
0.0
  0
LINE
  5
6BE6
330
6B58
100
AcDbEntity
  8
0
100
AcDbLine
 10
2248.039526227582
 20
432.1714795495922
 30
0.0
 11
2248.039526227582
 21
431.1714795495922
 31
0.0
  0
LINE
  5
6BE7
330
6B58
100
AcDbEntity
  8
0
100
AcDbLine
 10
2260.039526227581
 20
432.1714795495922
 30
0.0
 11
2260.039526227581
 21
431.1714795495922
 31
0.0
  0
LINE
  5
6BE8
330
6B58
100
AcDbEntity
  8
0
100
AcDbLine
 10
2260.539526227582
 20
431.1714795495922
 30
0.0
 11
2247.539526227582
 21
431.1714795495922
 31
0.0
  0
LINE
  5
6BE9
330
6B58
100
AcDbEntity
  8
0
100
AcDbLine
 10
2260.539526227582
 20
431.1714795495922
 30
0.0
 11
2260.539526227582
 21
424.6714795495923
 31
0.0
  0
LINE
  5
6BEA
330
6B58
100
AcDbEntity
  8
0
100
AcDbLine
 10
2247.539526227582
 20
431.1714795495922
 30
0.0
 11
2247.539526227582
 21
424.6714795495923
 31
0.0
  0
LINE
  5
6BEB
330
6B58
100
AcDbEntity
  8
0
100
AcDbLine
 10
2258.039526227582
 20
438.6714795495922
 30
0.0
 11
2258.039526227582
 21
433.1714795495923
 31
0.0
  0
LINE
  5
6BEC
330
6B58
100
AcDbEntity
  8
0
100
AcDbLine
 10
2261.039526227582
 20
408.6714795495959
 30
0.0
 11
2261.039526227582
 21
398.6714795495923
 31
0.0
  0
LINE
  5
6BED
330
6B58
100
AcDbEntity
  8
0
100
AcDbLine
 10
2261.039526227582
 20
414.6714795495922
 30
0.0
 11
2261.039526227582
 21
424.6714795495923
 31
0.0
  0
LINE
  5
6BEE
330
6B58
100
AcDbEntity
  8
0
100
AcDbLine
 10
2249.337317867444
 20
442.9214795495941
 30
0.0
 11
2258.741734587719
 21
442.9214795495941
 31
0.0
  0
LINE
  5
6BEF
330
6B58
100
AcDbEntity
  8
0
100
AcDbLine
 10
2249.337317867444
 20
442.9214795495941
 30
0.0
 11
2246.789526227582
 21
435.9214795495923
 31
0.0
  0
LINE
  5
6BF0
330
6B58
100
AcDbEntity
  8
0
100
AcDbLine
 10
2258.741734587719
 20
442.9214795495941
 30
0.0
 11
2261.289526227582
 21
435.921479549594
 31
0.0
  0
LINE
  5
6BF1
330
6B58
100
AcDbEntity
  8
0
100
AcDbLine
 10
2249.337317867444
 20
380.4214795495905
 30
0.0
 11
2258.741734587719
 21
380.4214795495905
 31
0.0
  0
LINE
  5
6BF2
330
6B58
100
AcDbEntity
  8
0
100
AcDbLine
 10
2249.337317867444
 20
380.4214795495905
 30
0.0
 11
2246.789526227582
 21
387.4214795495923
 31
0.0
  0
LINE
  5
6BF3
330
6B58
100
AcDbEntity
  8
0
100
AcDbLine
 10
2258.741734587719
 20
380.4214795495905
 30
0.0
 11
2261.289526227582
 21
387.4214795495904
 31
0.0
  0
LINE
  5
6BF4
330
6B58
100
AcDbEntity
  8
0
100
AcDbLine
 10
1289.74273127707
 20
19.04999327098176
 30
0.0
 11
2157.042731277074
 21
19.04999327099131
 31
0.0
  0
LINE
  5
6BF5
330
6B58
100
AcDbEntity
  8
0
100
AcDbLine
 10
2191.042731277073
 20
19.04999327099131
 30
0.0
 11
2246.789526227582
 21
19.04999327099222
 31
0.0
  0
LINE
  5
6BF6
330
6B58
100
AcDbEntity
  8
0
100
AcDbLine
 10
1289.742731277078
 20
-19.05000480377248
 30
0.0
 11
2246.789526227582
 21
-19.05000480377248
 31
0.0
  0
LINE
  5
6BF7
330
6B58
100
AcDbEntity
  8
0
100
AcDbLine
 10
2261.289526227582
 20
18.00000000027285
 30
0.0
 11
2275.039527227571
 21
18.00000000027466
 31
0.0
  0
LINE
  5
6BF8
330
6B58
100
AcDbEntity
  8
0
100
AcDbLine
 10
2261.289526227582
 20
-17.99999999972579
 30
0.0
 11
2275.039527227578
 21
-17.99999999972533
 31
0.0
  0
LINE
  5
6BF9
330
6B58
100
AcDbEntity
  8
0
100
AcDbLine
 10
2275.039527227571
 20
18.00000000027466
 30
0.0
 11
2275.039527227578
 21
-17.99999999972533
 31
0.0
  0
LINE
  5
6BFA
330
6B58
100
AcDbEntity
  8
0
100
AcDbLine
 10
2257.792302627582
 20
46.50000000027421
 30
0.0
 11
2250.286748427581
 21
46.50000000027421
 31
0.0
  0
LINE
  5
6BFB
330
6B58
100
AcDbEntity
  8
0
100
AcDbLine
 10
2250.28674922758
 20
46.50000300027431
 30
0.0
 11
2246.533971127581
 21
40.00000100027455
 31
0.0
  0
LINE
  5
6BFC
330
6B58
100
AcDbEntity
  8
0
100
AcDbLine
 10
2246.533971327583
 20
40.00000200027443
 30
0.0
 11
2250.286748527582
 21
33.50000100027455
 31
0.0
  0
LINE
  5
6BFD
330
6B58
100
AcDbEntity
  8
0
100
AcDbLine
 10
2250.286748427581
 20
33.50000000027421
 30
0.0
 11
2257.792302627582
 21
33.50000000027421
 31
0.0
  0
LINE
  5
6BFE
330
6B58
100
AcDbEntity
  8
0
100
AcDbLine
 10
2261.545081127581
 20
40.00000200027443
 30
0.0
 11
2257.792303027581
 21
33.50000000027421
 31
0.0
  0
LINE
  5
6BFF
330
6B58
100
AcDbEntity
  8
0
100
AcDbLine
 10
2257.79230322758
 20
46.50000300027431
 30
0.0
 11
2261.545080327582
 21
40.00000200027443
 31
0.0
  0
LINE
  5
6C00
330
6B58
100
AcDbEntity
  8
0
100
AcDbLine
 10
2250.28674922758
 20
-46.50000299972589
 30
0.0
 11
2246.533972127581
 21
-40.00000199972555
 31
0.0
  0
LINE
  5
6C01
330
6B58
100
AcDbEntity
  8
0
100
AcDbLine
 10
2246.533971327583
 20
-40.00000199972555
 30
0.0
 11
2250.286749427582
 21
-33.49999999972579
 31
0.0
  0
LINE
  5
6C02
330
6B58
100
AcDbEntity
  8
0
100
AcDbLine
 10
2261.545081127581
 20
-40.00000199972555
 30
0.0
 11
2257.792303927582
 21
-33.50000099972567
 31
0.0
  0
LINE
  5
6C03
330
6B58
100
AcDbEntity
  8
0
100
AcDbLine
 10
2257.792304027582
 20
-33.49999999972579
 30
0.0
 11
2250.286749827581
 21
-33.49999999972579
 31
0.0
  0
LINE
  5
6C04
330
6B58
100
AcDbEntity
  8
0
100
AcDbLine
 10
2257.79230322758
 20
-46.50000299972589
 30
0.0
 11
2261.545081327582
 21
-40.00000099972567
 31
0.0
  0
LINE
  5
6C05
330
6B58
100
AcDbEntity
  8
0
100
AcDbLine
 10
2250.286749827581
 20
-46.49999999972578
 30
0.0
 11
2257.792304027582
 21
-46.49999999972578
 31
0.0
  0
LINE
  5
6C06
330
6B58
100
AcDbEntity
  8
0
  6
CENTER
100
AcDbLine
 10
2264.039526227582
 20
-39.99999999972579
 30
0.0
 11
2244.039526227581
 21
-39.99999999972579
 31
0.0
  0
LINE
  5
6C07
330
6B58
100
AcDbEntity
  8
0
  6
CENTER
100
AcDbLine
 10
2254.039526227582
 20
-49.99999999972579
 30
0.0
 11
2254.039526227582
 21
-30.00000199972556
 31
0.0
  0
LINE
  5
6C08
330
6B58
100
AcDbEntity
  8
0
  6
CENTER
100
AcDbLine
 10
2264.039526227582
 20
40.00000000027421
 30
0.0
 11
2244.039526227581
 21
40.00000000027421
 31
0.0
  0
LINE
  5
6C09
330
6B58
100
AcDbEntity
  8
0
  6
CENTER
100
AcDbLine
 10
2254.039526227582
 20
30.00000200027443
 30
0.0
 11
2254.039526227582
 21
50.00000000027421
 31
0.0
  0
LINE
  5
6C0A
330
6B58
100
AcDbEntity
  8
0
100
AcDbLine
 10
2261.289526227582
 20
-24.24999999972579
 30
0.0
 11
2261.289526227582
 21
24.25000000027421
 31
0.0
  0
LINE
  5
6C0B
330
6B58
100
AcDbEntity
  8
0
100
AcDbLine
 10
2261.289526227582
 20
24.25000000027421
 30
0.0
 11
2258.741734587719
 21
31.25000000027422
 31
0.0
  0
ARC
  5
6C0C
330
6B58
100
AcDbEntity
  8
0
100
AcDbCircle
 10
2254.039526227582
 20
40.00000100027455
 30
0.0
 40
7.0
100
AcDbArc
 50
188.2132267968061
 51
227.798185351404
  0
ARC
  5
6C0D
330
6B58
100
AcDbEntity
  8
0
100
AcDbCircle
 10
2254.039526227582
 20
40.00000100027455
 30
0.0
 40
7.0
100
AcDbArc
 50
128.2132381095184
 51
171.7867593049097
  0
ARC
  5
6C0E
330
6B58
100
AcDbEntity
  8
0
100
AcDbCircle
 10
2254.039526227582
 20
40.00000100027455
 30
0.0
 40
7.0
100
AcDbArc
 50
68.21318864862583
 51
111.7868113513742
  0
ARC
  5
6C0F
330
6B58
100
AcDbEntity
  8
0
100
AcDbCircle
 10
2254.039526227582
 20
40.00000100027455
 30
0.0
 40
7.0
100
AcDbArc
 50
8.213233864963978
 51
51.78676313253009
  0
ARC
  5
6C10
330
6B58
100
AcDbEntity
  8
0
100
AcDbCircle
 10
2254.039526227582
 20
40.00000100027455
 30
0.0
 40
7.0
100
AcDbArc
 50
312.201814648596
 51
351.7867741511661
  0
LINE
  5
6C11
330
6B58
100
AcDbEntity
  8
0
100
AcDbLine
 10
2246.789526227582
 20
-24.24999999972579
 30
0.0
 11
2246.789526227582
 21
24.25000000027421
 31
0.0
  0
LINE
  5
6C12
330
6B58
100
AcDbEntity
  8
0
100
AcDbLine
 10
2246.789526227582
 20
24.25000000027421
 30
0.0
 11
2249.337317867444
 21
31.25000000027422
 31
0.0
  0
LINE
  5
6C13
330
6B58
100
AcDbEntity
  8
0
100
AcDbLine
 10
2249.337317867444
 20
-34.81451774954894
 30
0.0
 11
2249.337317867444
 21
34.81451775009782
 31
0.0
  0
LINE
  5
6C14
330
6B58
100
AcDbEntity
  8
0
100
AcDbLine
 10
2258.741734587719
 20
28.41764500027421
 30
0.0
 11
2249.337317867444
 21
28.41764500027421
 31
0.0
  0
LINE
  5
6C15
330
6B58
100
AcDbEntity
  8
0
100
AcDbLine
 10
2261.289526227582
 20
-24.24999999972579
 30
0.0
 11
2258.741734587719
 21
-31.24999999972579
 31
0.0
  0
LINE
  5
6C16
330
6B58
100
AcDbEntity
  8
0
100
AcDbLine
 10
2258.741734587719
 20
34.81451775009782
 30
0.0
 11
2258.741734587719
 21
-34.81451774954894
 31
0.0
  0
ARC
  5
6C17
330
6B58
100
AcDbEntity
  8
0
100
AcDbCircle
 10
2254.039526227582
 20
-40.00000099972567
 30
0.0
 40
7.0
100
AcDbArc
 50
132.201814648596
 51
171.7867732031939
  0
ARC
  5
6C18
330
6B58
100
AcDbEntity
  8
0
100
AcDbCircle
 10
2254.039526227582
 20
-40.00000099972567
 30
0.0
 40
7.0
100
AcDbArc
 50
188.2132406950903
 51
231.7867618904816
  0
ARC
  5
6C19
330
6B58
100
AcDbEntity
  8
0
100
AcDbCircle
 10
2254.039526227582
 20
-40.00000099972567
 30
0.0
 40
7.0
100
AcDbArc
 50
248.2131886486258
 51
291.7868113513742
  0
ARC
  5
6C1A
330
6B58
100
AcDbEntity
  8
0
100
AcDbCircle
 10
2254.039526227582
 20
-40.00000099972567
 30
0.0
 40
7.0
100
AcDbArc
 50
308.2132368674699
 51
351.786766135036
  0
ARC
  5
6C1B
330
6B58
100
AcDbEntity
  8
0
100
AcDbCircle
 10
2254.039526227582
 20
-40.00000099972567
 30
0.0
 40
7.0
100
AcDbArc
 50
8.213225848833856
 51
47.79818535140401
  0
LINE
  5
6C1C
330
6B58
100
AcDbEntity
  8
0
100
AcDbLine
 10
2246.789526227582
 20
-24.24999999972579
 30
0.0
 11
2249.337317867444
 21
-31.24999999972579
 31
0.0
  0
LINE
  5
6C1D
330
6B58
100
AcDbEntity
  8
0
100
AcDbLine
 10
2258.741734587719
 20
-28.41764499972578
 30
0.0
 11
2249.337317867444
 21
-28.41764499972578
 31
0.0
  0
LINE
  5
6C1E
330
6B58
100
AcDbEntity
  8
0
100
AcDbLine
 10
2236.542731277074
 20
85.00000000028013
 30
0.0
 11
2236.542731277074
 21
71.00000000028012
 31
0.0
  0
LINE
  5
6C1F
330
6B58
100
AcDbEntity
  8
0
  6
CENTER
100
AcDbLine
 10
2219.042731277073
 20
94.00000000028104
 30
0.0
 11
2219.042731277073
 21
61.00000000028103
 31
0.0
  0
LINE
  5
6C20
330
6B58
100
AcDbEntity
  8
0
  6
CENTER
100
AcDbLine
 10
2129.042731277074
 20
94.00000000028104
 30
0.0
 11
2129.042731277074
 21
61.00000000028103
 31
0.0
  0
LINE
  5
6C21
330
6B58
100
AcDbEntity
  8
0
100
AcDbLine
 10
2111.542731277074
 20
71.00000000028103
 30
0.0
 11
2111.542731277074
 21
85.00000000028103
 31
0.0
  0
LINE
  5
6C22
330
6B58
100
AcDbEntity
  8
0
100
AcDbLine
 10
2111.542731277074
 20
85.00000000028103
 30
0.0
 11
2236.542731277074
 21
85.00000000028013
 31
0.0
  0
LINE
  5
6C23
330
6B58
100
AcDbEntity
  8
0
100
AcDbLine
 10
2236.542731277074
 20
71.00000000028012
 30
0.0
 11
2111.542731277074
 21
71.00000000028103
 31
0.0
  0
LINE
  5
6C24
330
6B58
100
AcDbEntity
  8
0
100
AcDbLine
 10
2157.042731277074
 20
71.00000000028012
 30
0.0
 11
2157.042731277074
 21
19.04999327099131
 31
0.0
  0
LINE
  5
6C25
330
6B58
100
AcDbEntity
  8
0
100
AcDbLine
 10
2191.042731277073
 20
71.00000000028012
 30
0.0
 11
2191.042731277073
 21
19.04999327099131
 31
0.0
  0
ARC
  5
6C26
330
6B58
100
AcDbEntity
  8
0
100
AcDbCircle
 10
2174.042731277074
 20
27.64618553056471
 30
0.0
 40
19.04979058581857
100
AcDbArc
 50
206.8238242142243
 51
333.1761757857757
  0
LINE
  5
6C27
330
6B58
100
AcDbEntity
  8
0
100
AcDbLine
 10
1216.342731277076
 20
430.7214728202998
 30
0.0
 11
259.2959363265654
 21
430.7214728203103
 31
0.0
  0
LINE
  5
6C28
330
6B58
100
AcDbEntity
  8
0
100
AcDbLine
 10
1216.342731277069
 20
392.6214747455456
 30
0.0
 11
259.2959363265654
 21
392.6214747455456
 31
0.0
  0
LINE
  5
6C29
330
6B58
100
AcDbEntity
  8
0
100
AcDbLine
 10
244.7959363265654
 20
429.6714795495908
 30
0.0
 11
231.045935326576
 21
429.6714795495927
 31
0.0
  0
LINE
  5
6C2A
330
6B58
100
AcDbEntity
  8
0
100
AcDbLine
 10
244.7959363265654
 20
393.6714795495923
 30
0.0
 11
231.0459353265687
 21
393.6714795495928
 31
0.0
  0
LINE
  5
6C2B
330
6B58
100
AcDbEntity
  8
0
100
AcDbLine
 10
231.045935326576
 20
429.6714795495927
 30
0.0
 11
231.0459353265687
 21
393.6714795495928
 31
0.0
  0
LINE
  5
6C2C
330
6B58
100
AcDbEntity
  8
0
100
AcDbLine
 10
244.7959363265654
 20
387.4214795495923
 30
0.0
 11
244.7959363265654
 21
435.9214795495923
 31
0.0
  0
LINE
  5
6C2D
330
6B58
100
AcDbEntity
  8
0
100
AcDbLine
 10
259.2959363265654
 20
387.4214795495923
 30
0.0
 11
259.2959363265654
 21
435.9214795495923
 31
0.0
  0
LINE
  5
6C2E
330
6B58
100
AcDbEntity
  8
0
100
AcDbLine
 10
256.7481446867023
 20
380.4214795495905
 30
0.0
 11
256.7481446867059
 21
393.3106190608524
 31
0.0
  0
LINE
  5
6C2F
330
6B58
100
AcDbEntity
  8
0
100
AcDbLine
 10
256.7481446867023
 20
433.1714795495923
 30
0.0
 11
256.7481446867023
 21
442.9214795495941
 31
0.0
  0
LINE
  5
6C30
330
6B58
100
AcDbEntity
  8
0
100
AcDbLine
 10
247.3437279664286
 20
442.9214795495941
 30
0.0
 11
247.3437279664286
 21
433.1714795495923
 31
0.0
  0
LINE
  5
6C31
330
6B58
100
AcDbEntity
  8
0
100
AcDbLine
 10
247.3437279664286
 20
393.3106190608514
 30
0.0
 11
247.3437279664286
 21
380.4214795495905
 31
0.0
  0
LINE
  5
6C32
330
6B58
100
AcDbEntity
  8
0
  6
CENTER
100
AcDbLine
 10
350.0739541973307
 20
429.7027024698495
 30
0.0
 11
377.6511186636053
 21
457.279866936125
 31
0.0
  0
LINE
  5
6C33
330
6B58
100
AcDbEntity
  8
0
  6
CENTER
100
AcDbLine
 10
350.0739541973307
 20
393.6402566293359
 30
0.0
 11
377.6511186636053
 21
366.0630921630604
 31
0.0
  0
LINE
  5
6C34
330
6B58
100
AcDbEntity
  8
0
  6
CENTER
100
AcDbLine
 10
314.0115083568162
 20
429.7027024698495
 30
0.0
 11
286.4343438905416
 21
457.279866936125
 31
0.0
  0
LINE
  5
6C35
330
6B58
100
AcDbEntity
  8
0
  6
CENTER
100
AcDbLine
 10
314.0115083568162
 20
393.6402566293359
 30
0.0
 11
286.4343438905416
 21
366.0630921630604
 31
0.0
  0
LINE
  5
6C36
330
6B58
100
AcDbEntity
  8
0
  6
CENTER
100
AcDbLine
 10
252.0459363265654
 20
441.3000175495894
 30
0.0
 11
252.0459363265654
 21
388.4004815495923
 31
0.0
  0
ARC
  5
6C37
330
6B58
100
AcDbEntity
  8
0
100
AcDbCircle
 10
255.2959363265654
 20
400.8194745495916
 30
0.0
 40
7.647994500000001
100
AcDbArc
 50
244.8526299998726
 51
295.1473700001273
  0
ARC
  5
6C38
330
6B58
100
AcDbEntity
  8
0
100
AcDbCircle
 10
248.7959363265654
 20
400.8194745495916
 30
0.0
 40
7.647994500000001
100
AcDbArc
 50
244.8526299998726
 51
295.1473700001273
  0
ARC
  5
6C39
330
6B58
100
AcDbEntity
  8
0
100
AcDbCircle
 10
257.0459363265654
 20
432.1714795495922
 30
0.0
 40
1.0
100
AcDbArc
 50
0.0000039999795585
 51
90.00001000015734
  0
ARC
  5
6C3A
330
6B58
100
AcDbEntity
  8
0
100
AcDbCircle
 10
247.0459363265654
 20
432.1714795495922
 30
0.0
 40
1.0
100
AcDbArc
 50
89.99999499116681
 51
180.0
  0
ARC
  5
6C3B
330
6B58
100
AcDbEntity
  8
0
100
AcDbCircle
 10
248.7959363265654
 20
423.5234845495893
 30
0.0
 40
7.647994999999999
100
AcDbArc
 50
64.85262500033094
 51
115.1473700001274
  0
ARC
  5
6C3C
330
6B58
100
AcDbEntity
  8
0
100
AcDbCircle
 10
255.2959363265654
 20
423.5234845495893
 30
0.0
 40
7.647994999999999
100
AcDbArc
 50
64.85263199995555
 51
115.1473700001274
  0
ARC
  5
6C3D
330
6B58
100
AcDbEntity
  8
0
100
AcDbCircle
 10
248.7959363265654
 20
432.3194745495916
 30
0.0
 40
7.647994999999999
100
AcDbArc
 50
244.8526299998726
 51
295.1473700001273
  0
ARC
  5
6C3E
330
6B58
100
AcDbEntity
  8
0
100
AcDbCircle
 10
255.2959363265654
 20
432.3194745495916
 30
0.0
 40
7.647994999999999
100
AcDbArc
 50
244.8526299998726
 51
295.1473700001273
  0
LINE
  5
6C3F
330
6B58
100
AcDbEntity
  8
0
100
AcDbLine
 10
245.0459363265654
 20
398.6714795495923
 30
0.0
 11
259.0459363265654
 21
398.6714795495923
 31
0.0
  0
LINE
  5
6C40
330
6B58
100
AcDbEntity
  8
0
100
AcDbLine
 10
259.0459363265654
 20
408.6714795495923
 30
0.0
 11
259.0459363265654
 21
398.6714795495923
 31
0.0
  0
LINE
  5
6C41
330
6B58
100
AcDbEntity
  8
0
100
AcDbLine
 10
245.0459363265654
 20
424.6714795495923
 30
0.0
 11
259.0459363265654
 21
424.6714795495923
 31
0.0
  0
LINE
  5
6C42
330
6B58
100
AcDbEntity
  8
0
100
AcDbLine
 10
259.0459363265654
 20
414.6714795495922
 30
0.0
 11
259.0459363265654
 21
424.6714795495923
 31
0.0
  0
LINE
  5
6C43
330
6B58
100
AcDbEntity
  8
0
100
AcDbLine
 10
245.0459363265654
 20
408.6714795495959
 30
0.0
 11
259.0459363265654
 21
408.6714795495923
 31
0.0
  0
LINE
  5
6C44
330
6B58
100
AcDbEntity
  8
0
100
AcDbLine
 10
245.0459363265654
 20
414.6714795495922
 30
0.0
 11
259.0459363265654
 21
414.6714795495922
 31
0.0
  0
LINE
  5
6C45
330
6B58
100
AcDbEntity
  8
0
100
AcDbLine
 10
256.0459363265654
 20
414.6714795495922
 30
0.0
 11
256.0459363265654
 21
408.6714795495923
 31
0.0
  0
LINE
  5
6C46
330
6B58
100
AcDbEntity
  8
0
100
AcDbLine
 10
248.0459363265654
 20
414.6714795495922
 30
0.0
 11
248.0459363265654
 21
408.6714795495923
 31
0.0
  0
LINE
  5
6C47
330
6B58
100
AcDbEntity
  8
0
100
AcDbLine
 10
255.2959363265654
 20
393.1714795495923
 30
0.0
 11
248.7959363265654
 21
393.1714795495923
 31
0.0
  0
LINE
  5
6C48
330
6B58
100
AcDbEntity
  8
0
100
AcDbLine
 10
258.5459363265654
 20
393.8963735495913
 30
0.0
 11
258.5459363265654
 21
398.6714795495923
 31
0.0
  0
LINE
  5
6C49
330
6B58
100
AcDbEntity
  8
0
100
AcDbLine
 10
245.5459363265654
 20
393.8963735495913
 30
0.0
 11
245.5459363265654
 21
398.6714795495923
 31
0.0
  0
LINE
  5
6C4A
330
6B58
100
AcDbEntity
  8
0
100
AcDbLine
 10
256.0459363265654
 20
438.6714795495922
 30
0.0
 11
256.0459363265654
 21
433.1714795495923
 31
0.0
  0
LINE
  5
6C4B
330
6B58
100
AcDbEntity
  8
0
100
AcDbLine
 10
257.0459363265654
 20
433.1714795495923
 30
0.0
 11
247.0459363265654
 21
433.1714795495923
 31
0.0
  0
LINE
  5
6C4C
330
6B58
100
AcDbEntity
  8
0
100
AcDbLine
 10
256.0459363265654
 20
438.6714795495922
 30
0.0
 11
248.0459363265654
 21
438.6714795495922
 31
0.0
  0
LINE
  5
6C4D
330
6B58
100
AcDbEntity
  8
0
100
AcDbLine
 10
258.0459363265654
 20
432.1714795495922
 30
0.0
 11
258.0459363265654
 21
431.1714795495922
 31
0.0
  0
LINE
  5
6C4E
330
6B58
100
AcDbEntity
  8
0
100
AcDbLine
 10
246.0459363265654
 20
432.1714795495922
 30
0.0
 11
246.0459363265654
 21
431.1714795495922
 31
0.0
  0
LINE
  5
6C4F
330
6B58
100
AcDbEntity
  8
0
100
AcDbLine
 10
245.5459363265654
 20
431.1714795495922
 30
0.0
 11
258.5459363265654
 21
431.1714795495922
 31
0.0
  0
LINE
  5
6C50
330
6B58
100
AcDbEntity
  8
0
100
AcDbLine
 10
245.5459363265654
 20
431.1714795495922
 30
0.0
 11
245.5459363265654
 21
424.6714795495923
 31
0.0
  0
LINE
  5
6C51
330
6B58
100
AcDbEntity
  8
0
100
AcDbLine
 10
258.5459363265654
 20
431.1714795495922
 30
0.0
 11
258.5459363265654
 21
424.6714795495923
 31
0.0
  0
LINE
  5
6C52
330
6B58
100
AcDbEntity
  8
0
100
AcDbLine
 10
248.0459363265654
 20
438.6714795495922
 30
0.0
 11
248.0459363265654
 21
433.1714795495923
 31
0.0
  0
LINE
  5
6C53
330
6B58
100
AcDbEntity
  8
0
100
AcDbLine
 10
245.0459363265654
 20
408.6714795495959
 30
0.0
 11
245.0459363265654
 21
398.6714795495923
 31
0.0
  0
LINE
  5
6C54
330
6B58
100
AcDbEntity
  8
0
100
AcDbLine
 10
245.0459363265654
 20
414.6714795495922
 30
0.0
 11
245.0459363265654
 21
424.6714795495923
 31
0.0
  0
LINE
  5
6C55
330
6B58
100
AcDbEntity
  8
0
100
AcDbLine
 10
256.7481446867023
 20
442.9214795495941
 30
0.0
 11
247.3437279664286
 21
442.9214795495941
 31
0.0
  0
LINE
  5
6C56
330
6B58
100
AcDbEntity
  8
0
100
AcDbLine
 10
256.7481446867023
 20
442.9214795495941
 30
0.0
 11
259.2959363265654
 21
435.9214795495923
 31
0.0
  0
LINE
  5
6C57
330
6B58
100
AcDbEntity
  8
0
100
AcDbLine
 10
247.3437279664286
 20
442.9214795495941
 30
0.0
 11
244.7959363265654
 21
435.921479549594
 31
0.0
  0
LINE
  5
6C58
330
6B58
100
AcDbEntity
  8
0
100
AcDbLine
 10
256.7481446867023
 20
380.4214795495905
 30
0.0
 11
247.3437279664286
 21
380.4214795495905
 31
0.0
  0
LINE
  5
6C59
330
6B58
100
AcDbEntity
  8
0
100
AcDbLine
 10
256.7481446867023
 20
380.4214795495905
 30
0.0
 11
259.2959363265654
 21
387.4214795495923
 31
0.0
  0
LINE
  5
6C5A
330
6B58
100
AcDbEntity
  8
0
100
AcDbLine
 10
247.3437279664286
 20
380.4214795495905
 30
0.0
 11
244.7959363265654
 21
387.4214795495904
 31
0.0
  0
ARC
  5
6C5B
330
6B58
100
AcDbEntity
  8
0
100
AcDbCircle
 10
332.0427312770735
 20
411.6714795495922
 30
0.0
 40
62.5
100
AcDbArc
 50
17.74612535886183
 51
162.2538746411381
  0
ARC
  5
6C5C
330
6B58
100
AcDbEntity
  8
0
100
AcDbCircle
 10
332.0427312770735
 20
411.6714795495922
 30
0.0
 40
62.5
100
AcDbArc
 50
197.7461364600922
 51
342.2538635399078
  0
ARC
  5
6C5D
330
6B58
100
AcDbEntity
  8
0
  6
CENTER
100
AcDbCircle
 10
332.0427312770735
 20
411.6714795495922
 30
0.0
 40
45.0
100
AcDbArc
 50
25.04520490456743
 51
154.9547950954325
  0
ARC
  5
6C5E
330
6B58
100
AcDbEntity
  8
0
  6
CENTER
100
AcDbCircle
 10
332.0427312770735
 20
411.6714795495922
 30
0.0
 40
45.0
100
AcDbArc
 50
205.0452211133027
 51
334.9547788866973
  0
LINE
  5
6C5F
330
6B58
100
AcDbEntity
  8
0
  6
CENTER
100
AcDbLine
 10
332.0427312770771
 20
327.6715167314619
 30
0.0
 11
332.0427312770771
 21
495.6714423677245
 31
0.0
  0
LINE
  5
6C60
330
6B58
100
AcDbEntity
  8
0
  6
CENTER
100
AcDbLine
 10
332.0427312770735
 20
0.0000000002737579
 30
0.0
 11
332.0427312770735
 21
-94.9999999997326
 31
0.0
  0
LINE
  5
6C61
330
6B58
100
AcDbEntity
  8
0
  6
CENTER
100
AcDbLine
 10
2174.042731277074
 20
0.0000000002742127
 30
0.0
 11
2174.042731277074
 21
95.00000000028057
 31
0.0
  0
TEXT
  5
6C62
330
6B58
100
AcDbEntity
  8
0
100
AcDbText
 10
831.6141598485019
 20
529.2813975040385
 30
0.0
 40
50.0
  1
1.5SX2000L-20AX15A
 72
     4
 11
1253.042731277073
 21
554.2813975040385
 31
0.0
100
AcDbText
  0
LINE
  5
6C63
330
6B58
100
AcDbEntity
  8
0
  6
CENTER
100
AcDbLine
 10
2297.392233462775
 20
411.6714795495922
 30
0.0
 11
208.6932290913719
 21
411.6714795495922
 31
0.0
  0
LINE
  5
6C64
330
6B58
100
AcDbEntity
  8
0
100
AcDbLine
 10
2294.042731277066
 20
394.6714795495923
 30
0.0
 11
2294.042731277066
 21
428.6714795495923
 31
0.0
  0
LINE
  5
6C65
330
6B58
100
AcDbEntity
  8
0
100
AcDbLine
 10
2291.192731277067
 20
395.450706062054
 30
0.0
 11
2291.192731277067
 21
427.8922530371305
 31
0.0
  0
LINE
  5
6C66
330
6B58
100
AcDbEntity
  8
0
100
AcDbLine
 10
2291.752897307637
 20
394.6714795495923
 30
0.0
 11
2294.042731277066
 21
394.6714795495923
 31
0.0
  0
LINE
  5
6C67
330
6B58
100
AcDbEntity
  8
0
100
AcDbLine
 10
2288.954236423277
 20
422.5214382306908
 30
0.0
 11
2288.954236423277
 21
400.8215208684937
 31
0.0
  0
LINE
  5
6C68
330
6B58
100
AcDbEntity
  8
0
100
AcDbLine
 10
2291.001143211008
 20
395.1978634349321
 30
0.0
 11
2289.433284501483
 21
399.5055198362438
 31
0.0
  0
ARC
  5
6C69
330
6B58
100
AcDbEntity
  8
0
100
AcDbCircle
 10
2291.752897307637
 20
395.4714795495925
 30
0.0
 40
0.8
100
AcDbArc
 50
200.0000000000405
 51
270.0
1001
GENIUS_GENODEF_13
1002
{
1000
HIER
1070
     0
1002
}
1002
{
1000
MANEDIT
1070
     0
1002
}
1002
{
1000
NOSEL
1070
     0
1002
}
1002
{
1000
BEHIND
1070
     0
1002
}
1002
{
1000
OTHER
1070
     0
1002
}
1002
{
1000
REACTOR
1002
}
1001
GENIUS_GENOBJ-N-FIL_13
1002
{
1000
OWNER
1000
GEN
1002
}
  0
ARC
  5
6C6A
330
6B58
100
AcDbEntity
  8
0
100
AcDbCircle
 10
2287.55389925991
 20
398.8214795495924
 30
0.0
 40
2.0
100
AcDbArc
 50
20.00000000004046
 51
90.0
1001
GENIUS_GENODEF_13
1002
{
1000
HIER
1070
     0
1002
}
1002
{
1000
MANEDIT
1070
     0
1002
}
1002
{
1000
NOSEL
1070
     0
1002
}
1002
{
1000
BEHIND
1070
     0
1002
}
1002
{
1000
OTHER
1070
     0
1002
}
1002
{
1000
REACTOR
1002
}
1001
GENIUS_GENOBJ-N-FIL_13
1002
{
1000
OWNER
1000
GEN
1002
}
  0
LINE
  5
6C6B
330
6B58
100
AcDbEntity
  8
0
100
AcDbLine
 10
2291.752897307637
 20
428.6714795495923
 30
0.0
 11
2294.042731277066
 21
428.6714795495923
 31
0.0
  0
LINE
  5
6C6C
330
6B58
100
AcDbEntity
  8
0
100
AcDbLine
 10
2291.001143211008
 20
428.1450956642529
 30
0.0
 11
2289.433284501483
 21
423.8374392629407
 31
0.0
  0
ARC
  5
6C6D
330
6B58
100
AcDbEntity
  8
0
100
AcDbCircle
 10
2291.752897307637
 20
427.8714795495921
 30
0.0
 40
0.8
100
AcDbArc
 50
90.0
 51
159.9999999999595
1001
GENIUS_GENODEF_13
1002
{
1000
HIER
1070
     0
1002
}
1002
{
1000
MANEDIT
1070
     0
1002
}
1002
{
1000
NOSEL
1070
     0
1002
}
1002
{
1000
BEHIND
1070
     0
1002
}
1002
{
1000
OTHER
1070
     0
1002
}
1002
{
1000
REACTOR
1002
}
1001
GENIUS_GENOBJ-N-FIL_13
1002
{
1000
OWNER
1000
GEN
1002
}
  0
ARC
  5
6C6E
330
6B58
100
AcDbEntity
  8
0
100
AcDbCircle
 10
2287.55389925991
 20
424.5214795495926
 30
0.0
 40
2.0
100
AcDbArc
 50
270.0
 51
339.9999999999595
1001
GENIUS_GENODEF_13
1002
{
1000
HIER
1070
     0
1002
}
1002
{
1000
MANEDIT
1070
     0
1002
}
1002
{
1000
NOSEL
1070
     0
1002
}
1002
{
1000
BEHIND
1070
     0
1002
}
1002
{
1000
OTHER
1070
     0
1002
}
1002
{
1000
REACTOR
1002
}
1001
GENIUS_GENOBJ-N-FIL_13
1002
{
1000
OWNER
1000
GEN
1002
}
  0
LINE
  5
6C6F
330
6B58
100
AcDbEntity
  8
0
100
AcDbLine
 10
2287.55389925991
 20
400.8214795495923
 30
0.0
 11
2275.039527227571
 21
400.8214795495928
 31
0.0
  0
LINE
  5
6C70
330
6B58
100
AcDbEntity
  8
0
100
AcDbLine
 10
2287.55389925991
 20
422.5214795495926
 30
0.0
 11
2275.039527227571
 21
422.5214795495926
 31
0.0
  0
LINE
  5
6C71
330
6B58
100
AcDbEntity
  8
0
100
AcDbLine
 10
212.0427312770735
 20
394.6714795498256
 30
0.0
 11
212.0427312770807
 21
428.6714795498255
 31
0.0
  0
LINE
  5
6C72
330
6B58
100
AcDbEntity
  8
0
100
AcDbLine
 10
214.892731277072
 20
395.4507060622864
 30
0.0
 11
214.8927312770793
 21
427.8922530373629
 31
0.0
  0
LINE
  5
6C73
330
6B58
100
AcDbEntity
  8
0
100
AcDbLine
 10
214.3325652465028
 20
394.6714795498246
 30
0.0
 11
212.0427312770735
 21
394.6714795498256
 31
0.0
  0
LINE
  5
6C74
330
6B58
100
AcDbEntity
  8
0
100
AcDbLine
 10
217.1312261308703
 20
422.5214382309227
 30
0.0
 11
217.1312261308631
 21
400.8215208687256
 31
0.0
  0
LINE
  5
6C75
330
6B58
100
AcDbEntity
  8
0
100
AcDbLine
 10
215.0843193431319
 20
395.1978634351645
 30
0.0
 11
216.6521780526564
 21
399.5055198364757
 31
0.0
  0
ARC
  5
6C76
330
6B58
100
AcDbEntity
  8
0
100
AcDbCircle
 10
214.3325652465028
 20
395.4714795498248
 30
0.0
 40
0.8
100
AcDbArc
 50
270.0
 51
339.999999999935
1001
GENIUS_GENODEF_13
1002
{
1000
HIER
1070
     0
1002
}
1002
{
1000
MANEDIT
1070
     0
1002
}
1002
{
1000
NOSEL
1070
     0
1002
}
1002
{
1000
BEHIND
1070
     0
1002
}
1002
{
1000
OTHER
1070
     0
1002
}
1002
{
1000
REACTOR
1002
}
1001
GENIUS_GENOBJ-N-FIL_13
1002
{
1000
OWNER
1000
GEN
1002
}
  0
ARC
  5
6C77
330
6B58
100
AcDbEntity
  8
0
100
AcDbCircle
 10
218.5315632942293
 20
398.8214795498238
 30
0.0
 40
2.0
100
AcDbArc
 50
90.0
 51
159.999999999935
1001
GENIUS_GENODEF_13
1002
{
1000
HIER
1070
     0
1002
}
1002
{
1000
MANEDIT
1070
     0
1002
}
1002
{
1000
NOSEL
1070
     0
1002
}
1002
{
1000
BEHIND
1070
     0
1002
}
1002
{
1000
OTHER
1070
     0
1002
}
1002
{
1000
REACTOR
1002
}
1001
GENIUS_GENOBJ-N-FIL_13
1002
{
1000
OWNER
1000
GEN
1002
}
  0
LINE
  5
6C78
330
6B58
100
AcDbEntity
  8
0
100
AcDbLine
 10
214.33256524651
 20
428.6714795498246
 30
0.0
 11
212.0427312770807
 21
428.6714795498255
 31
0.0
  0
LINE
  5
6C79
330
6B58
100
AcDbEntity
  8
0
100
AcDbLine
 10
215.0843193431392
 20
428.1450956644853
 30
0.0
 11
216.6521780526637
 21
423.8374392631726
 31
0.0
  0
ARC
  5
6C7A
330
6B58
100
AcDbEntity
  8
0
100
AcDbCircle
 10
214.33256524651
 20
427.8714795498244
 30
0.0
 40
0.8
100
AcDbArc
 50
20.00000000004046
 51
90.0
1001
GENIUS_GENODEF_13
1002
{
1000
HIER
1070
     0
1002
}
1002
{
1000
MANEDIT
1070
     0
1002
}
1002
{
1000
NOSEL
1070
     0
1002
}
1002
{
1000
BEHIND
1070
     0
1002
}
1002
{
1000
OTHER
1070
     0
1002
}
1002
{
1000
REACTOR
1002
}
1001
GENIUS_GENOBJ-N-FIL_13
1002
{
1000
OWNER
1000
GEN
1002
}
  0
ARC
  5
6C7B
330
6B58
100
AcDbEntity
  8
0
100
AcDbCircle
 10
218.5315632942366
 20
424.5214795498241
 30
0.0
 40
2.0
100
AcDbArc
 50
200.0000000000405
 51
270.0
1001
GENIUS_GENODEF_13
1002
{
1000
HIER
1070
     0
1002
}
1002
{
1000
MANEDIT
1070
     0
1002
}
1002
{
1000
NOSEL
1070
     0
1002
}
1002
{
1000
BEHIND
1070
     0
1002
}
1002
{
1000
OTHER
1070
     0
1002
}
1002
{
1000
REACTOR
1002
}
1001
GENIUS_GENOBJ-N-FIL_13
1002
{
1000
OWNER
1000
GEN
1002
}
  0
LINE
  5
6C7C
330
6B58
100
AcDbEntity
  8
0
100
AcDbLine
 10
218.5315632942293
 20
400.8214795498238
 30
0.0
 11
231.0459353265687
 21
400.8214795498215
 31
0.0
  0
LINE
  5
6C7D
330
6B58
100
AcDbEntity
  8
0
100
AcDbLine
 10
218.5315632942366
 20
422.521479549824
 30
0.0
 11
231.045935326576
 21
422.5214795498214
 31
0.0
  0
LINE
  5
6C7E
330
6B58
100
AcDbEntity
  8
0
  6
CENTER
100
AcDbLine
 10
235.8055312703363
 20
-3.799999999725059
 30
0.0
 11
209.1481684617938
 21
-3.799999999725059
 31
0.0
  0
LINE
  5
6C7F
330
6B58
100
AcDbEntity
  8
0
100
AcDbLine
 10
212.0427312770698
 20
13.20000000027494
 30
0.0
 11
212.0427312770698
 21
-20.79999999972506
 31
0.0
  0
LINE
  5
6C80
330
6B58
100
AcDbEntity
  8
0
100
AcDbLine
 10
214.8927312770684
 20
12.42077348781322
 30
0.0
 11
214.8927312770684
 21
-20.02077348726334
 31
0.0
  0
LINE
  5
6C81
330
6B58
100
AcDbEntity
  8
0
100
AcDbLine
 10
214.3325652464991
 20
13.20000000027494
 30
0.0
 11
212.0427312770698
 21
13.20000000027494
 31
0.0
  0
LINE
  5
6C82
330
6B58
100
AcDbEntity
  8
0
100
AcDbLine
 10
217.1312261308594
 20
-14.64995868082314
 30
0.0
 11
217.1312261308594
 21
7.049958681373482
 31
0.0
  0
LINE
  5
6C83
330
6B58
100
AcDbEntity
  8
0
100
AcDbLine
 10
215.0843193431283
 20
12.67361611493561
 30
0.0
 11
216.6521780526527
 21
8.365959713623851
 31
0.0
  0
ARC
  5
6C84
330
6B58
100
AcDbEntity
  8
0
100
AcDbCircle
 10
214.3325652464991
 20
12.40000000027521
 30
0.0
 40
0.8
100
AcDbArc
 50
20.00000000006494
 51
90.0
1001
GENIUS_GENODEF_13
1002
{
1000
HIER
1070
     0
1002
}
1002
{
1000
MANEDIT
1070
     0
1002
}
1002
{
1000
NOSEL
1070
     0
1002
}
1002
{
1000
BEHIND
1070
     0
1002
}
1002
{
1000
OTHER
1070
     0
1002
}
1002
{
1000
REACTOR
1002
}
1001
GENIUS_GENOBJ-N-FIL_13
1002
{
1000
OWNER
1000
GEN
1002
}
  0
ARC
  5
6C85
330
6B58
100
AcDbEntity
  8
0
100
AcDbCircle
 10
218.5315632942256
 20
9.050000000275304
 30
0.0
 40
2.0
100
AcDbArc
 50
200.0000000000649
 51
270.0
1001
GENIUS_GENODEF_13
1002
{
1000
HIER
1070
     0
1002
}
1002
{
1000
MANEDIT
1070
     0
1002
}
1002
{
1000
NOSEL
1070
     0
1002
}
1002
{
1000
BEHIND
1070
     0
1002
}
1002
{
1000
OTHER
1070
     0
1002
}
1002
{
1000
REACTOR
1002
}
1001
GENIUS_GENOBJ-N-FIL_13
1002
{
1000
OWNER
1000
GEN
1002
}
  0
LINE
  5
6C86
330
6B58
100
AcDbEntity
  8
0
100
AcDbLine
 10
214.3325652464991
 20
-20.79999999972506
 30
0.0
 11
212.0427312770698
 21
-20.79999999972506
 31
0.0
  0
LINE
  5
6C87
330
6B58
100
AcDbEntity
  8
0
100
AcDbLine
 10
215.0843193431283
 20
-20.27361611438528
 30
0.0
 11
216.6521780526527
 21
-15.96595971307351
 31
0.0
  0
ARC
  5
6C88
330
6B58
100
AcDbEntity
  8
0
100
AcDbCircle
 10
214.3325652464991
 20
-19.99999999972487
 30
0.0
 40
0.8
100
AcDbArc
 50
270.0
 51
339.999999999935
1001
GENIUS_GENODEF_13
1002
{
1000
HIER
1070
     0
1002
}
1002
{
1000
MANEDIT
1070
     0
1002
}
1002
{
1000
NOSEL
1070
     0
1002
}
1002
{
1000
BEHIND
1070
     0
1002
}
1002
{
1000
OTHER
1070
     0
1002
}
1002
{
1000
REACTOR
1002
}
1001
GENIUS_GENOBJ-N-FIL_13
1002
{
1000
OWNER
1000
GEN
1002
}
  0
ARC
  5
6C89
330
6B58
100
AcDbEntity
  8
0
100
AcDbCircle
 10
218.5315632942256
 20
-16.64999999972497
 30
0.0
 40
2.0
100
AcDbArc
 50
90.0
 51
159.999999999935
1001
GENIUS_GENODEF_13
1002
{
1000
HIER
1070
     0
1002
}
1002
{
1000
MANEDIT
1070
     0
1002
}
1002
{
1000
NOSEL
1070
     0
1002
}
1002
{
1000
BEHIND
1070
     0
1002
}
1002
{
1000
OTHER
1070
     0
1002
}
1002
{
1000
REACTOR
1002
}
1001
GENIUS_GENOBJ-N-FIL_13
1002
{
1000
OWNER
1000
GEN
1002
}
  0
LINE
  5
6C8A
330
6B58
100
AcDbEntity
  8
0
100
AcDbLine
 10
218.5315632942256
 20
7.050000000275304
 30
0.0
 11
231.0459353265651
 21
7.050000000274849
 31
0.0
  0
LINE
  5
6C8B
330
6B58
100
AcDbEntity
  8
0
100
AcDbLine
 10
218.5315632942256
 20
-14.64999999972497
 30
0.0
 11
231.0459353265651
 21
-14.64999999972542
 31
0.0
  0
LINE
  5
6C8C
330
6B58
100
AcDbEntity
  8
0
  6
CENTER
100
AcDbLine
 10
2270.279931283804
 20
3.800000000274394
 30
0.0
 11
2296.937294092346
 21
3.800000000274394
 31
0.0
  0
LINE
  5
6C8D
330
6B58
100
AcDbEntity
  8
0
100
AcDbLine
 10
2294.04273127707
 20
-13.1999999997256
 30
0.0
 11
2294.04273127707
 21
20.80000000027439
 31
0.0
  0
LINE
  5
6C8E
330
6B58
100
AcDbEntity
  8
0
100
AcDbLine
 10
2291.192731277071
 20
-12.42077348726388
 30
0.0
 11
2291.192731277071
 21
20.02077348781268
 31
0.0
  0
LINE
  5
6C8F
330
6B58
100
AcDbEntity
  8
0
100
AcDbLine
 10
2291.75289730764
 20
-13.1999999997256
 30
0.0
 11
2294.04273127707
 21
-13.1999999997256
 31
0.0
  0
LINE
  5
6C90
330
6B58
100
AcDbEntity
  8
0
100
AcDbLine
 10
2288.95423642328
 20
14.64995868137293
 30
0.0
 11
2288.95423642328
 21
-7.049958680824147
 31
0.0
  0
LINE
  5
6C91
330
6B58
100
AcDbEntity
  8
0
100
AcDbLine
 10
2291.001143211012
 20
-12.67361611438582
 30
0.0
 11
2289.433284501487
 21
-8.365959713074062
 31
0.0
  0
ARC
  5
6C92
330
6B58
100
AcDbEntity
  8
0
100
AcDbCircle
 10
2291.75289730764
 20
-12.39999999972542
 30
0.0
 40
0.8
100
AcDbArc
 50
200.0000000000405
 51
270.0
1001
GENIUS_GENODEF_13
1002
{
1000
HIER
1070
     0
1002
}
1002
{
1000
MANEDIT
1070
     0
1002
}
1002
{
1000
NOSEL
1070
     0
1002
}
1002
{
1000
BEHIND
1070
     0
1002
}
1002
{
1000
OTHER
1070
     0
1002
}
1002
{
1000
REACTOR
1002
}
1001
GENIUS_GENOBJ-N-FIL_13
1002
{
1000
OWNER
1000
GEN
1002
}
  0
ARC
  5
6C93
330
6B58
100
AcDbEntity
  8
0
100
AcDbCircle
 10
2287.553899259914
 20
-9.049999999725514
 30
0.0
 40
2.0
100
AcDbArc
 50
20.00000000004046
 51
90.0
1001
GENIUS_GENODEF_13
1002
{
1000
HIER
1070
     0
1002
}
1002
{
1000
MANEDIT
1070
     0
1002
}
1002
{
1000
NOSEL
1070
     0
1002
}
1002
{
1000
BEHIND
1070
     0
1002
}
1002
{
1000
OTHER
1070
     0
1002
}
1002
{
1000
REACTOR
1002
}
1001
GENIUS_GENOBJ-N-FIL_13
1002
{
1000
OWNER
1000
GEN
1002
}
  0
LINE
  5
6C94
330
6B58
100
AcDbEntity
  8
0
100
AcDbLine
 10
2291.75289730764
 20
20.80000000027439
 30
0.0
 11
2294.04273127707
 21
20.80000000027439
 31
0.0
  0
LINE
  5
6C95
330
6B58
100
AcDbEntity
  8
0
100
AcDbLine
 10
2291.001143211012
 20
20.27361611493507
 30
0.0
 11
2289.433284501487
 21
15.96595971362285
 31
0.0
  0
ARC
  5
6C96
330
6B58
100
AcDbEntity
  8
0
100
AcDbCircle
 10
2291.75289730764
 20
20.00000000027421
 30
0.0
 40
0.8
100
AcDbArc
 50
90.0
 51
159.9999999999595
1001
GENIUS_GENODEF_13
1002
{
1000
HIER
1070
     0
1002
}
1002
{
1000
MANEDIT
1070
     0
1002
}
1002
{
1000
NOSEL
1070
     0
1002
}
1002
{
1000
BEHIND
1070
     0
1002
}
1002
{
1000
OTHER
1070
     0
1002
}
1002
{
1000
REACTOR
1002
}
1001
GENIUS_GENOBJ-N-FIL_13
1002
{
1000
OWNER
1000
GEN
1002
}
  0
ARC
  5
6C97
330
6B58
100
AcDbEntity
  8
0
100
AcDbCircle
 10
2287.553899259914
 20
16.65000000027476
 30
0.0
 40
2.0
100
AcDbArc
 50
270.0
 51
339.9999999999595
1001
GENIUS_GENODEF_13
1002
{
1000
HIER
1070
     0
1002
}
1002
{
1000
MANEDIT
1070
     0
1002
}
1002
{
1000
NOSEL
1070
     0
1002
}
1002
{
1000
BEHIND
1070
     0
1002
}
1002
{
1000
OTHER
1070
     0
1002
}
1002
{
1000
REACTOR
1002
}
1001
GENIUS_GENOBJ-N-FIL_13
1002
{
1000
OWNER
1000
GEN
1002
}
  0
LINE
  5
6C98
330
6B58
100
AcDbEntity
  8
0
100
AcDbLine
 10
2287.553899259914
 20
-7.049999999725514
 30
0.0
 11
2275.039527227574
 21
-7.049999999725059
 31
0.0
  0
LINE
  5
6C99
330
6B58
100
AcDbEntity
  8
0
100
AcDbLine
 10
2287.553899259914
 20
14.65000000027476
 30
0.0
 11
2275.039527227574
 21
14.65000000027476
 31
0.0
  0
CIRCLE
  5
6C9A
330
6B58
100
AcDbEntity
  8
0
100
AcDbCircle
 10
2174.042731277074
 20
411.6714795495922
 30
0.0
 40
62.5
  0
CIRCLE
  5
6C9B
330
6B58
100
AcDbEntity
  8
0
  6
CENTER
100
AcDbCircle
 10
2174.042731277074
 20
411.6714795495922
 30
0.0
 40
45.0
  0
CIRCLE
  5
6C9C
330
6B58
100
AcDbEntity
  8
0
100
AcDbCircle
 10
2142.222926123679
 20
443.4912847029868
 30
0.0
 40
9.5
  0
CIRCLE
  5
6C9D
330
6B58
100
AcDbEntity
  8
0
100
AcDbCircle
 10
2142.222926123679
 20
379.8516743961977
 30
0.0
 40
9.5
  0
CIRCLE
  5
6C9E
330
6B58
100
AcDbEntity
  8
0
100
AcDbCircle
 10
2205.862536430468
 20
443.4912847029868
 30
0.0
 40
9.5
  0
CIRCLE
  5
6C9F
330
6B58
100
AcDbEntity
  8
0
100
AcDbCircle
 10
2205.862536430468
 20
379.8516743961977
 30
0.0
 40
9.5
  0
CIRCLE
  5
6CA0
330
6B58
100
AcDbEntity
  8
AM_0_T3
100
AcDbCircle
 10
2174.042731277074
 20
411.6714795495922
 30
0.0
 40
17.0
  0
CIRCLE
  5
6CA1
330
6B58
100
AcDbEntity
  8
0
100
AcDbCircle
 10
363.862536430468
 20
443.4912847029868
 30
0.0
 40
9.5
  0
CIRCLE
  5
6CA2
330
6B58
100
AcDbEntity
  8
0
100
AcDbCircle
 10
363.862536430468
 20
379.8516743961977
 30
0.0
 40
9.5
  0
CIRCLE
  5
6CA3
330
6B58
100
AcDbEntity
  8
0
100
AcDbCircle
 10
300.2229261236789
 20
443.4912847029868
 30
0.0
 40
9.5
  0
CIRCLE
  5
6CA4
330
6B58
100
AcDbEntity
  8
0
100
AcDbCircle
 10
300.2229261236789
 20
379.8516743961977
 30
0.0
 40
9.5
  0
LINE
  5
6CA5
330
6B58
100
AcDbEntity
  8
0
100
AcDbLine
 10
12.99999999999272
 20
28.41764500000363
 30
0.0
 11
12.99999999999272
 21
47.00000000000364
 31
0.0
  0
LINE
  5
6CA6
330
6B58
100
AcDbEntity
  8
0
  6
CENTER
100
AcDbLine
 10
-29.62853799998993
 20
-40.00000000000546
 30
0.0
 11
23.27099800000724
 21
-39.99999999999409
 31
0.0
  0
ARC
  5
6CA7
330
6B58
100
AcDbEntity
  8
0
100
AcDbCircle
 10
0.0
 20
0.0000000000004547
 30
0.0
 40
31.25
100
AcDbArc
 50
275.5088750001494
 51
84.49112132892677
  0
ARC
  5
6CA8
330
6B58
100
AcDbEntity
  8
0
100
AcDbCircle
 10
0.0
 20
0.0000000000004547
 30
0.0
 40
22.25
100
AcDbArc
 50
277.7488760001487
 51
82.25113000020952
  0
ARC
  5
6CA9
330
6B58
100
AcDbEntity
  8
0
100
AcDbCircle
 10
0.0
 20
0.0000000000004547
 30
0.0
 40
24.25
100
AcDbArc
 50
277.7488760001487
 51
82.89365660234164
  0
ARC
  5
6CAA
330
6B58
100
AcDbEntity
  8
0
100
AcDbCircle
 10
0.0
 20
0.0000000000004547
 30
0.0
 40
22.25
100
AcDbArc
 50
97.7488700002106
 51
262.251125999973
  0
ARC
  5
6CAB
330
6B58
100
AcDbEntity
  8
0
100
AcDbCircle
 10
0.0
 20
0.0000000000004547
 30
0.0
 40
24.25
100
AcDbArc
 50
97.7488700002106
 51
262.251125999973
  0
ARC
  5
6CAC
330
6B58
100
AcDbEntity
  8
0
100
AcDbCircle
 10
0.0
 20
0.0000000000004547
 30
0.0
 40
31.25
100
AcDbArc
 50
95.50887999997563
 51
264.4911200000243
  0
ARC
  5
6CAD
330
6B58
100
AcDbEntity
  8
0
100
AcDbCircle
 10
-20.50000000000728
 20
44.9999999999959
 30
0.0
 40
1.0
100
AcDbArc
 50
90.0
 51
180.0000050089895
  0
ARC
  5
6CAE
330
6B58
100
AcDbEntity
  8
0
100
AcDbCircle
 10
-20.50000000000728
 20
34.99999999999591
 30
0.0
 40
1.0
100
AcDbArc
 50
179.999989999999
 51
269.9999960000204
  0
ARC
  5
6CAF
330
6B58
100
AcDbEntity
  8
0
100
AcDbCircle
 10
-11.85200500000428
 20
36.74999999999818
 30
0.0
 40
7.647994999999999
100
AcDbArc
 50
154.852619999996
 51
205.147371999908
  0
ARC
  5
6CB0
330
6B58
100
AcDbEntity
  8
0
100
AcDbCircle
 10
-11.85200500000792
 20
43.24999999999818
 30
0.0
 40
7.647994999999999
100
AcDbArc
 50
154.8526299998947
 51
205.147371999908
  0
ARC
  5
6CB1
330
6B58
100
AcDbEntity
  8
0
100
AcDbCircle
 10
-20.64799500000663
 20
36.74999999999591
 30
0.0
 40
7.647994999999999
100
AcDbArc
 50
334.8526299998947
 51
25.14737000015243
  0
ARC
  5
6CB2
330
6B58
100
AcDbEntity
  8
0
100
AcDbCircle
 10
-20.64799500001027
 20
43.2499999999959
 30
0.0
 40
7.647994999999999
100
AcDbArc
 50
334.8526299998947
 51
25.14737000015243
  0
ARC
  5
6CB3
330
6B58
100
AcDbEntity
  8
0
100
AcDbCircle
 10
10.85200499998973
 20
43.25000000000318
 30
0.0
 40
7.647994500000001
100
AcDbArc
 50
334.8526299998947
 51
25.14737000015243
  0
ARC
  5
6CB4
330
6B58
100
AcDbEntity
  8
0
100
AcDbCircle
 10
10.85200499999337
 20
36.75000000000319
 30
0.0
 40
7.647994500000001
100
AcDbArc
 50
334.8526299998947
 51
25.14737000015243
  0
ARC
  5
6CB5
330
6B58
100
AcDbEntity
  8
0
100
AcDbCircle
 10
10.85200500000792
 20
-43.24999999999682
 30
0.0
 40
7.647994500000001
100
AcDbArc
 50
334.8526299998947
 51
25.14737000015243
  0
ARC
  5
6CB6
330
6B58
100
AcDbEntity
  8
0
100
AcDbCircle
 10
10.85200500000792
 20
-36.74999999999682
 30
0.0
 40
7.647994500000001
100
AcDbArc
 50
334.8526299998947
 51
25.14737000015243
  0
ARC
  5
6CB7
330
6B58
100
AcDbEntity
  8
0
100
AcDbCircle
 10
-20.49999999998909
 20
-45.00000000000409
 30
0.0
 40
1.0
100
AcDbArc
 50
179.999989999999
 51
269.9999960000204
  0
ARC
  5
6CB8
330
6B58
100
AcDbEntity
  8
0
100
AcDbCircle
 10
-20.49999999999272
 20
-35.00000000000409
 30
0.0
 40
1.0
100
AcDbArc
 50
90.0
 51
180.0000050089374
  0
ARC
  5
6CB9
330
6B58
100
AcDbEntity
  8
0
100
AcDbCircle
 10
-11.85200499998973
 20
-36.75000000000182
 30
0.0
 40
7.647994999999999
100
AcDbArc
 50
154.8526299998947
 51
205.147374999916
  0
ARC
  5
6CBA
330
6B58
100
AcDbEntity
  8
0
100
AcDbCircle
 10
-11.85200499998973
 20
-43.25000000000182
 30
0.0
 40
7.647994999999999
100
AcDbArc
 50
154.8526299998947
 51
205.1473680001138
  0
ARC
  5
6CBB
330
6B58
100
AcDbEntity
  8
0
100
AcDbCircle
 10
-20.64799499999208
 20
-36.75000000000409
 30
0.0
 40
7.647994999999999
100
AcDbArc
 50
334.8526299998947
 51
25.14737000015243
  0
ARC
  5
6CBC
330
6B58
100
AcDbEntity
  8
0
100
AcDbCircle
 10
-20.64799499999208
 20
-43.25000000000409
 30
0.0
 40
7.647994999999999
100
AcDbArc
 50
334.8526299998947
 51
25.14737000015243
  0
LINE
  5
6CBD
330
6B58
100
AcDbEntity
  8
0
100
AcDbLine
 10
2.999999999992724
 20
47.00000000000136
 30
0.0
 11
2.999999999996362
 21
22.04682500000172
 31
0.0
  0
LINE
  5
6CBE
330
6B58
100
AcDbEntity
  8
0
100
AcDbLine
 10
13.00000000000727
 20
-28.41764499999636
 30
0.0
 11
13.00000000001091
 21
-46.99999999999636
 31
0.0
  0
LINE
  5
6CBF
330
6B58
100
AcDbEntity
  8
0
100
AcDbLine
 10
-3.000000000007275
 20
46.99999999999954
 30
0.0
 11
-3.000000000003637
 21
22.0468249999999
 31
0.0
  0
LINE
  5
6CC0
330
6B58
100
AcDbEntity
  8
0
100
AcDbLine
 10
3.000000000010913
 20
-46.99999999999863
 30
0.0
 11
13.00000000001091
 21
-46.99999999999636
 31
0.0
  0
LINE
  5
6CC1
330
6B58
100
AcDbEntity
  8
0
100
AcDbLine
 10
-12.99999999999272
 20
-28.41764500000227
 30
0.0
 11
-12.99999999998908
 21
-47.00000000000227
 31
0.0
  0
LINE
  5
6CC2
330
6B58
100
AcDbEntity
  8
0
100
AcDbLine
 10
-2.999999999989086
 20
-47.00000000000045
 30
0.0
 11
-12.99999999998908
 21
-47.00000000000227
 31
0.0
  0
LINE
  5
6CC3
330
6B58
100
AcDbEntity
  8
0
100
AcDbLine
 10
2.999999999992724
 20
47.00000000000136
 30
0.0
 11
12.99999999999272
 21
47.00000000000364
 31
0.0
  0
LINE
  5
6CC4
330
6B58
100
AcDbEntity
  8
0
100
AcDbLine
 10
-3.000000000007275
 20
46.99999999999954
 30
0.0
 11
-13.00000000000727
 21
46.99999999999772
 31
0.0
  0
LINE
  5
6CC5
330
6B58
100
AcDbEntity
  8
0
100
AcDbLine
 10
-13.00000000000727
 20
28.41764499999772
 30
0.0
 11
-13.00000000000727
 21
46.99999999999772
 31
0.0
  0
LINE
  5
6CC6
330
6B58
100
AcDbEntity
  8
0
100
AcDbLine
 10
3.000000000003637
 20
-22.04682499999853
 30
0.0
 11
3.000000000010913
 21
-46.99999999999863
 31
0.0
  0
LINE
  5
6CC7
330
6B58
100
AcDbEntity
  8
0
100
AcDbLine
 10
-2.999999999996362
 20
-22.04682500000036
 30
0.0
 11
-2.999999999989086
 21
-47.00000000000045
 31
0.0
  0
LINE
  5
6CC8
330
6B58
100
AcDbEntity
  8
0
100
AcDbLine
 10
-3.000000000010913
 20
43.99999999999955
 30
0.0
 11
2.999999999989086
 21
44.00000000000136
 31
0.0
  0
LINE
  5
6CC9
330
6B58
100
AcDbEntity
  8
0
100
AcDbLine
 10
-3.000000000007275
 20
35.99999999999955
 30
0.0
 11
2.999999999992724
 21
36.00000000000136
 31
0.0
  0
LINE
  5
6CCA
330
6B58
100
AcDbEntity
  8
0
100
AcDbLine
 10
-2.999999999989086
 20
-44.00000000000045
 30
0.0
 11
3.000000000010913
 21
-43.99999999999863
 31
0.0
  0
LINE
  5
6CCB
330
6B58
100
AcDbEntity
  8
0
100
AcDbLine
 10
-2.999999999989086
 20
-36.00000000000046
 30
0.0
 11
3.000000000010913
 21
-35.99999999999864
 31
0.0
  0
LINE
  5
6CCC
330
6B58
100
AcDbEntity
  8
0
100
AcDbLine
 10
-27.00000000001092
 20
43.99999999999454
 30
0.0
 11
-21.50000000001091
 21
43.9999999999959
 31
0.0
  0
LINE
  5
6CCD
330
6B58
100
AcDbEntity
  8
0
100
AcDbLine
 10
-21.50000000000728
 20
44.9999999999959
 30
0.0
 11
-21.50000000000728
 21
34.99999999999591
 31
0.0
  0
LINE
  5
6CCE
330
6B58
100
AcDbEntity
  8
0
100
AcDbLine
 10
-27.00000000001092
 20
43.99999999999454
 30
0.0
 11
-27.00000000000728
 21
35.99999999999454
 31
0.0
  0
LINE
  5
6CCF
330
6B58
100
AcDbEntity
  8
0
100
AcDbLine
 10
-20.50000000000728
 20
45.99999999999591
 30
0.0
 11
-19.50000000000727
 21
45.99999999999636
 31
0.0
  0
LINE
  5
6CD0
330
6B58
100
AcDbEntity
  8
0
100
AcDbLine
 10
-20.50000000000728
 20
33.99999999999591
 30
0.0
 11
-19.50000000000727
 21
33.99999999999636
 31
0.0
  0
LINE
  5
6CD1
330
6B58
100
AcDbEntity
  8
0
100
AcDbLine
 10
-19.50000000000727
 20
33.49999999999636
 30
0.0
 11
-19.50000000000727
 21
46.49999999999636
 31
0.0
  0
LINE
  5
6CD2
330
6B58
100
AcDbEntity
  8
0
100
AcDbLine
 10
-19.50000000000727
 20
33.49999999999636
 30
0.0
 11
-13.00000000000727
 21
33.49999999999773
 31
0.0
  0
LINE
  5
6CD3
330
6B58
100
AcDbEntity
  8
0
100
AcDbLine
 10
-19.50000000000727
 20
46.49999999999636
 30
0.0
 11
-13.00000000000727
 21
46.49999999999772
 31
0.0
  0
LINE
  5
6CD4
330
6B58
100
AcDbEntity
  8
0
100
AcDbLine
 10
-27.00000000000728
 20
35.99999999999454
 30
0.0
 11
-21.50000000000728
 21
35.99999999999591
 31
0.0
  0
LINE
  5
6CD5
330
6B58
100
AcDbEntity
  8
0
100
AcDbLine
 10
18.49999999998908
 20
43.25000000000454
 30
0.0
 11
18.49999999999272
 21
36.75000000000455
 31
0.0
  0
LINE
  5
6CD6
330
6B58
100
AcDbEntity
  8
0
100
AcDbLine
 10
17.77510599999368
 20
46.50000000000409
 30
0.0
 11
12.99999999999272
 21
46.50000000000363
 31
0.0
  0
LINE
  5
6CD7
330
6B58
100
AcDbEntity
  8
0
100
AcDbLine
 10
17.77510599999368
 20
33.50000000000409
 30
0.0
 11
12.99999999999272
 21
33.50000000000364
 31
0.0
  0
LINE
  5
6CD8
330
6B58
100
AcDbEntity
  8
0
100
AcDbLine
 10
18.50000000000727
 20
-43.24999999999545
 30
0.0
 11
18.50000000000727
 21
-36.74999999999545
 31
0.0
  0
LINE
  5
6CD9
330
6B58
100
AcDbEntity
  8
0
100
AcDbLine
 10
17.77510600001187
 20
-46.4999999999959
 30
0.0
 11
13.00000000001091
 21
-46.49999999999636
 31
0.0
  0
LINE
  5
6CDA
330
6B58
100
AcDbEntity
  8
0
100
AcDbLine
 10
17.77510600000823
 20
-33.49999999999591
 30
0.0
 11
13.00000000000727
 21
-33.49999999999636
 31
0.0
  0
LINE
  5
6CDB
330
6B58
100
AcDbEntity
  8
0
100
AcDbLine
 10
-26.99999999998909
 20
-44.00000000000545
 30
0.0
 11
-21.49999999998909
 21
-44.00000000000409
 31
0.0
  0
LINE
  5
6CDC
330
6B58
100
AcDbEntity
  8
0
100
AcDbLine
 10
-21.49999999998909
 20
-45.00000000000409
 30
0.0
 11
-21.49999999999272
 21
-35.00000000000409
 31
0.0
  0
LINE
  5
6CDD
330
6B58
100
AcDbEntity
  8
0
100
AcDbLine
 10
-26.99999999998909
 20
-44.00000000000545
 30
0.0
 11
-26.99999999998909
 21
-36.00000000000546
 31
0.0
  0
LINE
  5
6CDE
330
6B58
100
AcDbEntity
  8
0
100
AcDbLine
 10
-20.49999999998909
 20
-46.00000000000409
 30
0.0
 11
-19.49999999998908
 21
-46.00000000000363
 31
0.0
  0
LINE
  5
6CDF
330
6B58
100
AcDbEntity
  8
0
100
AcDbLine
 10
-20.49999999999272
 20
-34.00000000000409
 30
0.0
 11
-19.49999999999272
 21
-34.00000000000364
 31
0.0
  0
LINE
  5
6CE0
330
6B58
100
AcDbEntity
  8
0
100
AcDbLine
 10
-19.49999999999272
 20
-33.50000000000364
 30
0.0
 11
-19.49999999998908
 21
-46.50000000000363
 31
0.0
  0
LINE
  5
6CE1
330
6B58
100
AcDbEntity
  8
0
100
AcDbLine
 10
-19.49999999999272
 20
-33.50000000000364
 30
0.0
 11
-12.99999999999272
 21
-33.50000000000227
 31
0.0
  0
LINE
  5
6CE2
330
6B58
100
AcDbEntity
  8
0
100
AcDbLine
 10
-19.49999999998908
 20
-46.50000000000363
 30
0.0
 11
-12.99999999998908
 21
-46.50000000000227
 31
0.0
  0
LINE
  5
6CE3
330
6B58
100
AcDbEntity
  8
0
100
AcDbLine
 10
-26.99999999998909
 20
-36.00000000000546
 30
0.0
 11
-21.49999999998909
 21
-36.00000000000409
 31
0.0
  0
LINE
  5
6CE4
330
6B58
100
AcDbEntity
  8
0
  6
CENTER
100
AcDbLine
 10
-29.32865500000844
 20
39.99999999999409
 30
0.0
 11
21.29176299999017
 21
40.00000000000546
 31
0.0
  0
LINE
  5
6CE5
330
6B58
100
AcDbEntity
  8
0
  6
CENTER
100
AcDbLine
 10
0.0000000000218279
 20
-94.0
 30
0.0
 11
-0.0000000000218279
 21
94.00000000000046
 31
0.0
  0
LINE
  5
6CE6
330
6B58
100
AcDbEntity
  8
0
  6
CENTER
100
AcDbLine
 10
-48.7431269094559
 20
-0.0000000000104592
 30
0.0
 11
48.74312690945953
 21
0.0000000000109139
 31
0.0
  0
LINE
  5
6CE7
330
6B58
100
AcDbEntity
  8
0
100
AcDbLine
 10
-62.49999999998181
 20
-85.00000000001227
 30
0.0
 11
-62.49999999998545
 21
-71.00000000001227
 31
0.0
  0
LINE
  5
6CE8
330
6B58
100
AcDbEntity
  8
0
  6
CENTER
100
AcDbLine
 10
-44.99999999997817
 20
-94.00000000000956
 30
0.0
 11
-44.99999999998545
 21
-61.00000000000955
 31
0.0
  0
LINE
  5
6CE9
330
6B58
100
AcDbEntity
  8
0
  6
CENTER
100
AcDbLine
 10
45.00000000002183
 20
-93.99999999999
 30
0.0
 11
45.00000000001455
 21
-60.99999999998999
 31
0.0
  0
LINE
  5
6CEA
330
6B58
100
AcDbEntity
  8
0
100
AcDbLine
 10
62.50000000001455
 20
-70.99999999998681
 30
0.0
 11
62.50000000001818
 21
-84.99999999998681
 31
0.0
  0
LINE
  5
6CEB
330
6B58
100
AcDbEntity
  8
0
100
AcDbLine
 10
62.50000000001818
 20
-84.99999999998681
 30
0.0
 11
-62.49999999998181
 21
-85.00000000001227
 31
0.0
  0
LINE
  5
6CEC
330
6B58
100
AcDbEntity
  8
0
100
AcDbLine
 10
-62.49999999998545
 20
-71.00000000001227
 30
0.0
 11
62.50000000001455
 21
-70.99999999998681
 31
0.0
  0
LINE
  5
6CED
330
6B58
100
AcDbEntity
  8
0
100
AcDbLine
 10
17.00000000001455
 20
-70.999999999995
 30
0.0
 11
17.00000000000727
 21
-46.49999999999545
 31
0.0
  0
LINE
  5
6CEE
330
6B58
100
AcDbEntity
  8
0
100
AcDbLine
 10
17.00000000000364
 20
-33.49999999999591
 30
0.0
 11
17.00000000000364
 21
-26.22141300540034
 31
0.0
  0
LINE
  5
6CEF
330
6B58
100
AcDbEntity
  8
0
100
AcDbLine
 10
-16.99999999998545
 20
-71.00000000000273
 30
0.0
 11
-16.99999999998908
 21
-46.50000000000363
 31
0.0
  0
LINE
  5
6CF0
330
6B58
100
AcDbEntity
  8
0
100
AcDbLine
 10
-16.99999999999272
 20
-33.50000000000318
 30
0.0
 11
-16.99999999999636
 21
-26.22141300540852
 31
0.0
  0
LINE
  5
6CF1
330
6B58
100
AcDbEntity
  8
0
100
AcDbLine
 10
-62.50000000002183
 20
84.99999999998591
 30
0.0
 11
-62.50000000001818
 21
70.9999999999859
 31
0.0
  0
LINE
  5
6CF2
330
6B58
100
AcDbEntity
  8
0
  6
CENTER
100
AcDbLine
 10
-45.00000000002183
 20
93.99999999999044
 30
0.0
 11
-45.00000000001818
 21
60.99999999999045
 31
0.0
  0
LINE
  5
6CF3
330
6B58
100
AcDbEntity
  8
0
  6
CENTER
100
AcDbLine
 10
44.99999999997817
 20
94.00000000001091
 30
0.0
 11
44.99999999998181
 21
61.00000000001092
 31
0.0
  0
LINE
  5
6CF4
330
6B58
100
AcDbEntity
  8
0
100
AcDbLine
 10
62.49999999998181
 20
71.00000000001455
 30
0.0
 11
62.49999999997817
 21
85.00000000001454
 31
0.0
  0
LINE
  5
6CF5
330
6B58
100
AcDbEntity
  8
0
100
AcDbLine
 10
62.49999999997817
 20
85.00000000001454
 30
0.0
 11
-62.50000000002183
 21
84.99999999998591
 31
0.0
  0
LINE
  5
6CF6
330
6B58
100
AcDbEntity
  8
0
100
AcDbLine
 10
-62.50000000001818
 20
70.9999999999859
 30
0.0
 11
62.49999999998181
 21
71.00000000001455
 31
0.0
  0
LINE
  5
6CF7
330
6B58
100
AcDbEntity
  8
0
100
AcDbLine
 10
16.99999999998181
 20
71.00000000000409
 30
0.0
 11
16.99999999998908
 21
46.50000000000455
 31
0.0
  0
LINE
  5
6CF8
330
6B58
100
AcDbEntity
  8
0
100
AcDbLine
 10
16.99999999998908
 20
33.50000000000501
 30
0.0
 11
16.99999999999272
 21
26.22141300540943
 31
0.0
  0
LINE
  5
6CF9
330
6B58
100
AcDbEntity
  8
0
100
AcDbLine
 10
-17.00000000001819
 20
70.99999999999591
 30
0.0
 11
-17.00000000000727
 21
46.49999999999681
 31
0.0
  0
LINE
  5
6CFA
330
6B58
100
AcDbEntity
  8
0
100
AcDbLine
 10
-17.00000000000727
 20
33.49999999999636
 30
0.0
 11
-17.00000000000727
 21
26.2214130054017
 31
0.0
  0
LINE
  5
6CFB
330
6B58
100
AcDbEntity
  8
0
  6
CENTER
100
AcDbLine
 10
-21.80953060017782
 20
-3.799999999997453
 30
0.0
 11
21.80953060017782
 21
-3.799999999988358
 31
0.0
  0
CIRCLE
  5
6CFC
330
6B58
100
AcDbEntity
  8
AM_0_T3
100
AcDbCircle
 10
0.0
 20
-3.799999999992905
 30
0.0
 40
17.0
  0
CIRCLE
  5
6CFD
330
6B58
100
AcDbEntity
  8
AM_0_T3
100
AcDbCircle
 10
0.0
 20
-3.799999999992905
 30
0.0
 40
10.85000000000036
  0
ENDBLK
  5
6D01
330
6B58
100
AcDbEntity
  8
0
100
AcDbBlockEnd
  0
ENDSEC
  0
SECTION
  2
ENTITIES
  0
LINE
  5
5136
330
1F
100
AcDbEntity
  8
0
100
AcDbLine
 10
1220.071883922599
 20
-32.49999999971806
 30
0.0
 11
1286.013578631537
 21
-32.4999999997176
 31
0.0
  0
LINE
  5
5137
330
1F
100
AcDbEntity
  8
0
100
AcDbLine
 10
1216.342731277069
 20
-26.04091814847243
 30
0.0
 11
1220.071883922599
 21
-32.49999999971806
 31
0.0
  0
LINE
  5
5138
330
1F
100
AcDbEntity
  8
0
100
AcDbLine
 10
1216.342731277076
 20
26.04091814904268
 30
0.0
 11
1220.071883922614
 21
32.5000000002824
 31
0.0
  0
LINE
  5
5139
330
1F
100
AcDbEntity
  8
0
100
AcDbLine
 10
1228.29273127707
 20
-32.4999999997176
 30
0.0
 11
1228.292731277077
 21
32.50000000028285
 31
0.0
  0
LINE
  5
513A
330
1F
100
AcDbEntity
  8
0
100
AcDbLine
 10
1223.042731277073
 20
-32.4999999997176
 30
0.0
 11
1223.042731277073
 21
32.5000000002824
 31
0.0
  0
LINE
  5
513B
330
1F
100
AcDbEntity
  8
0
100
AcDbLine
 10
1216.342731277069
 20
-26.04091814847243
 30
0.0
 11
1216.342731277076
 21
26.04091814904268
 31
0.0
  0
LINE
  5
513C
330
1F
100
AcDbEntity
  8
0
100
AcDbLine
 10
1220.071883922614
 20
32.5000000002824
 30
0.0
 11
1286.013578631533
 21
32.5000000002824
 31
0.0
  0
LINE
  5
513D
330
1F
100
AcDbEntity
  8
0
100
AcDbLine
 10
1237.300749085425
 20
-32.4999999997176
 30
0.0
 11
1237.300749085425
 21
32.50000000028285
 31
0.0
  0
LINE
  5
513E
330
1F
100
AcDbEntity
  8
0
100
AcDbLine
 10
1241.800749085421
 20
-32.4999999997176
 30
0.0
 11
1241.800749085421
 21
32.50000000028285
 31
0.0
  0
LINE
  5
513F
330
1F
100
AcDbEntity
  8
0
100
AcDbLine
 10
1246.300749085425
 20
-32.4999999997176
 30
0.0
 11
1246.300749085429
 21
32.50000000028285
 31
0.0
  0
LINE
  5
5140
330
1F
100
AcDbEntity
  8
0
100
AcDbLine
 10
1250.800749085418
 20
-32.4999999997176
 30
0.0
 11
1250.800749085425
 21
32.50000000028285
 31
0.0
  0
LINE
  5
5141
330
1F
100
AcDbEntity
  8
0
100
AcDbLine
 10
1232.81336713894
 20
-32.49999999971806
 30
0.0
 11
1232.800345138283
 21
32.5000000002824
 31
0.0
  0
LINE
  5
5142
330
1F
100
AcDbEntity
  8
0
100
AcDbLine
 10
1216.342731277076
 20
-19.04999327043288
 30
0.0
 11
345.6427312770716
 21
-19.0499932704405
 31
0.0
  0
LINE
  5
5143
330
1F
100
AcDbEntity
  8
0
100
AcDbLine
 10
318.4427312770707
 20
-19.04999326983329
 30
0.0
 11
259.2959363265654
 21
-19.04999327044334
 31
0.0
  0
LINE
  5
5144
330
1F
100
AcDbEntity
  8
0
100
AcDbLine
 10
1216.342731277069
 20
19.0500048043209
 30
0.0
 11
259.2959363265654
 21
19.05000480432136
 31
0.0
  0
LINE
  5
5145
330
1F
100
AcDbEntity
  8
0
100
AcDbLine
 10
1220.071883922606
 20
-32.49999999971942
 30
0.0
 11
1220.071883922606
 21
32.50000000028058
 31
0.0
  0
LINE
  5
5146
330
1F
100
AcDbEntity
  8
0
100
AcDbLine
 10
1289.742731277078
 20
-26.04091814847243
 30
0.0
 11
1286.013578631537
 21
-32.4999999997176
 31
0.0
  0
LINE
  5
5147
330
1F
100
AcDbEntity
  8
0
100
AcDbLine
 10
1289.74273127707
 20
26.04091814904268
 30
0.0
 11
1286.013578631533
 21
32.5000000002824
 31
0.0
  0
LINE
  5
5148
330
1F
100
AcDbEntity
  8
0
100
AcDbLine
 10
1277.792731277077
 20
-32.4999999997176
 30
0.0
 11
1277.79273127707
 21
32.50000000028285
 31
0.0
  0
LINE
  5
5149
330
1F
100
AcDbEntity
  8
0
100
AcDbLine
 10
1283.042731277073
 20
-32.4999999997176
 30
0.0
 11
1283.042731277073
 21
32.5000000002824
 31
0.0
  0
LINE
  5
514A
330
1F
100
AcDbEntity
  8
0
100
AcDbLine
 10
1289.742731277078
 20
-26.04091814847243
 30
0.0
 11
1289.74273127707
 21
26.04091814904268
 31
0.0
  0
LINE
  5
514B
330
1F
100
AcDbEntity
  8
0
100
AcDbLine
 10
1268.784713468722
 20
-32.4999999997176
 30
0.0
 11
1268.784713468722
 21
32.50000000028285
 31
0.0
  0
LINE
  5
514C
330
1F
100
AcDbEntity
  8
0
100
AcDbLine
 10
1264.284713468725
 20
-32.4999999997176
 30
0.0
 11
1264.284713468725
 21
32.50000000028285
 31
0.0
  0
LINE
  5
514D
330
1F
100
AcDbEntity
  8
0
100
AcDbLine
 10
1259.784713468722
 20
-32.4999999997176
 30
0.0
 11
1259.784713468718
 21
32.50000000028285
 31
0.0
  0
LINE
  5
514E
330
1F
100
AcDbEntity
  8
0
100
AcDbLine
 10
1255.284713468729
 20
-32.4999999997176
 30
0.0
 11
1255.284713468722
 21
32.50000000028285
 31
0.0
  0
LINE
  5
514F
330
1F
100
AcDbEntity
  8
0
100
AcDbLine
 10
1273.272095415206
 20
-32.49999999971806
 30
0.0
 11
1273.285117415864
 21
32.5000000002824
 31
0.0
  0
LINE
  5
5150
330
1F
100
AcDbEntity
  8
0
100
AcDbLine
 10
1286.01357863154
 20
-32.49999999971942
 30
0.0
 11
1286.01357863154
 21
32.50000000028058
 31
0.0
  0
LINE
  5
5197
330
1F
100
AcDbEntity
  8
0
100
AcDbLine
 10
244.7959363265654
 20
-17.99999999972397
 30
0.0
 11
231.045935326576
 21
-17.99999999972579
 31
0.0
  0
LINE
  5
5198
330
1F
100
AcDbEntity
  8
0
100
AcDbLine
 10
244.7959363265654
 20
18.00000000027466
 30
0.0
 11
231.0459353265687
 21
18.00000000027421
 31
0.0
  0
LINE
  5
5199
330
1F
100
AcDbEntity
  8
0
100
AcDbLine
 10
231.045935326576
 20
-17.99999999972579
 30
0.0
 11
231.0459353265687
 21
18.00000000027421
 31
0.0
  0
LINE
  5
519A
330
1F
100
AcDbEntity
  8
0
100
AcDbLine
 10
248.2931599265648
 20
-46.49999999972533
 30
0.0
 11
255.7987141265658
 21
-46.49999999972533
 31
0.0
  0
LINE
  5
519B
330
1F
100
AcDbEntity
  8
0
100
AcDbLine
 10
255.7987133265669
 20
-46.50000299972544
 30
0.0
 11
259.5514914265659
 21
-40.00000099972567
 31
0.0
  0
LINE
  5
519C
330
1F
100
AcDbEntity
  8
0
100
AcDbLine
 10
259.5514912265644
 20
-40.00000199972555
 30
0.0
 11
255.798714026565
 21
-33.50000099972567
 31
0.0
  0
LINE
  5
519D
330
1F
100
AcDbEntity
  8
0
100
AcDbLine
 10
255.7987141265658
 20
-33.49999999972534
 30
0.0
 11
248.2931599265648
 21
-33.49999999972534
 31
0.0
  0
LINE
  5
519E
330
1F
100
AcDbEntity
  8
0
100
AcDbLine
 10
244.5403814265664
 20
-40.00000199972555
 30
0.0
 11
248.2931595265654
 21
-33.49999999972534
 31
0.0
  0
LINE
  5
519F
330
1F
100
AcDbEntity
  8
0
100
AcDbLine
 10
248.2931593265675
 20
-46.50000299972544
 30
0.0
 11
244.5403822265653
 21
-40.00000199972555
 31
0.0
  0
LINE
  5
51A0
330
1F
100
AcDbEntity
  8
0
100
AcDbLine
 10
255.7987133265669
 20
46.50000300027477
 30
0.0
 11
259.5514904265656
 21
40.00000200027443
 31
0.0
  0
LINE
  5
51A1
330
1F
100
AcDbEntity
  8
0
100
AcDbLine
 10
259.5514912265644
 20
40.00000200027443
 30
0.0
 11
255.7987131265654
 21
33.50000000027467
 31
0.0
  0
LINE
  5
51A2
330
1F
100
AcDbEntity
  8
0
100
AcDbLine
 10
244.5403814265664
 20
40.00000200027443
 30
0.0
 11
248.2931586265658
 21
33.50000100027455
 31
0.0
  0
LINE
  5
51A3
330
1F
100
AcDbEntity
  8
0
100
AcDbLine
 10
248.2931585265651
 20
33.50000000027467
 30
0.0
 11
255.798712726566
 21
33.50000000027467
 31
0.0
  0
LINE
  5
51A4
330
1F
100
AcDbEntity
  8
0
100
AcDbLine
 10
248.2931593265675
 20
46.50000300027477
 30
0.0
 11
244.5403812265649
 21
40.00000100027455
 31
0.0
  0
LINE
  5
51A5
330
1F
100
AcDbEntity
  8
0
100
AcDbLine
 10
255.798712726566
 20
46.50000000027467
 30
0.0
 11
248.2931585265651
 21
46.50000000027467
 31
0.0
  0
LINE
  5
51A6
330
1F
100
AcDbEntity
  8
0
  6
CENTER
100
AcDbLine
 10
242.0459363265654
 20
40.00000000027466
 30
0.0
 11
262.0459363265654
 21
40.00000000027466
 31
0.0
  0
LINE
  5
51A7
330
1F
100
AcDbEntity
  8
0
  6
CENTER
100
AcDbLine
 10
252.0459363265654
 20
50.00000000027466
 30
0.0
 11
252.0459363265654
 21
30.00000200027443
 31
0.0
  0
LINE
  5
51A8
330
1F
100
AcDbEntity
  8
0
  6
CENTER
100
AcDbLine
 10
242.0459363265654
 20
-39.99999999972533
 30
0.0
 11
262.0459363265654
 21
-39.99999999972533
 31
0.0
  0
LINE
  5
51A9
330
1F
100
AcDbEntity
  8
0
  6
CENTER
100
AcDbLine
 10
220.3969465744994
 20
0.0000000002746674
 30
0.0
 11
2285.688515979648
 21
0.0000000002742127
 31
0.0
  0
LINE
  5
51AA
330
1F
100
AcDbEntity
  8
0
  6
CENTER
100
AcDbLine
 10
252.0459363265654
 20
-30.00000199972556
 30
0.0
 11
252.0459363265654
 21
-49.99999999972533
 31
0.0
  0
LINE
  5
51AB
330
1F
100
AcDbEntity
  8
0
100
AcDbLine
 10
244.7959363265654
 20
24.25000000027467
 30
0.0
 11
244.7959363265654
 21
-24.24999999972533
 31
0.0
  0
LINE
  5
51AC
330
1F
100
AcDbEntity
  8
0
100
AcDbLine
 10
244.7959363265654
 20
-24.24999999972533
 30
0.0
 11
247.3437279664286
 21
-31.24999999972533
 31
0.0
  0
ARC
  5
51AD
330
1F
100
AcDbEntity
  8
0
100
AcDbCircle
 10
252.0459363265654
 20
-40.00000099972567
 30
0.0
 40
7.0
100
AcDbArc
 50
8.213226796806106
 51
47.79818535140401
  0
ARC
  5
51AE
330
1F
100
AcDbEntity
  8
0
100
AcDbCircle
 10
252.0459363265654
 20
-40.00000099972567
 30
0.0
 40
7.0
100
AcDbArc
 50
308.2132381095345
 51
351.7867593049355
  0
ARC
  5
51AF
330
1F
100
AcDbEntity
  8
0
100
AcDbCircle
 10
252.0459363265654
 20
-40.00000099972567
 30
0.0
 40
7.0
100
AcDbArc
 50
248.2131886486258
 51
291.7868113513742
  0
ARC
  5
51B0
330
1F
100
AcDbEntity
  8
0
100
AcDbCircle
 10
252.0459363265654
 20
-40.00000099972567
 30
0.0
 40
7.0
100
AcDbArc
 50
188.2132338649897
 51
231.7867631325301
  0
ARC
  5
51B1
330
1F
100
AcDbEntity
  8
0
100
AcDbCircle
 10
252.0459363265654
 20
-40.00000099972567
 30
0.0
 40
7.0
100
AcDbArc
 50
132.201814648596
 51
171.7867741511661
  0
LINE
  5
51B2
330
1F
100
AcDbEntity
  8
0
100
AcDbLine
 10
259.2959363265654
 20
24.25000000027467
 30
0.0
 11
259.2959363265654
 21
-24.24999999972533
 31
0.0
  0
LINE
  5
51B3
330
1F
100
AcDbEntity
  8
0
100
AcDbLine
 10
259.2959363265654
 20
-24.24999999972533
 30
0.0
 11
256.7481446867023
 21
-31.24999999972533
 31
0.0
  0
LINE
  5
51B4
330
1F
100
AcDbEntity
  8
0
100
AcDbLine
 10
256.7481446867023
 20
34.81451775009782
 30
0.0
 11
256.7481446867023
 21
-34.81451774954894
 31
0.0
  0
LINE
  5
51B5
330
1F
100
AcDbEntity
  8
0
100
AcDbLine
 10
247.3437279664286
 20
-28.41764499972533
 30
0.0
 11
256.7481446867023
 21
-28.41764499972533
 31
0.0
  0
LINE
  5
51B6
330
1F
100
AcDbEntity
  8
0
100
AcDbLine
 10
244.7959363265654
 20
24.25000000027467
 30
0.0
 11
247.3437279664286
 21
31.25000000027467
 31
0.0
  0
LINE
  5
51B7
330
1F
100
AcDbEntity
  8
0
100
AcDbLine
 10
247.3437279664286
 20
-34.81451774954894
 30
0.0
 11
247.3437279664286
 21
34.81451775009782
 31
0.0
  0
ARC
  5
51B8
330
1F
100
AcDbEntity
  8
0
100
AcDbCircle
 10
252.0459363265654
 20
40.00000100027455
 30
0.0
 40
7.0
100
AcDbArc
 50
312.201814648596
 51
351.7867732031939
  0
ARC
  5
51B9
330
1F
100
AcDbEntity
  8
0
100
AcDbCircle
 10
252.0459363265654
 20
40.00000100027455
 30
0.0
 40
7.0
100
AcDbArc
 50
8.213240695064502
 51
51.78676189046547
  0
ARC
  5
51BA
330
1F
100
AcDbEntity
  8
0
100
AcDbCircle
 10
252.0459363265654
 20
40.00000100027455
 30
0.0
 40
7.0
100
AcDbArc
 50
68.21318864862583
 51
111.7868113513742
  0
ARC
  5
51BB
330
1F
100
AcDbEntity
  8
0
100
AcDbCircle
 10
252.0459363265654
 20
40.00000100027455
 30
0.0
 40
7.0
100
AcDbArc
 50
128.2132368674699
 51
171.7867661350102
  0
ARC
  5
51BC
330
1F
100
AcDbEntity
  8
0
100
AcDbCircle
 10
252.0459363265654
 20
40.00000100027455
 30
0.0
 40
7.0
100
AcDbArc
 50
188.2132258488338
 51
227.798185351404
  0
LINE
  5
51BD
330
1F
100
AcDbEntity
  8
0
100
AcDbLine
 10
259.2959363265654
 20
24.25000000027467
 30
0.0
 11
256.7481446867023
 21
31.25000000027467
 31
0.0
  0
LINE
  5
51BE
330
1F
100
AcDbEntity
  8
0
100
AcDbLine
 10
247.3437279664286
 20
28.41764500027466
 30
0.0
 11
256.7481446867023
 21
28.41764500027466
 31
0.0
  0
LINE
  5
51BF
330
1F
100
AcDbEntity
  8
0
100
AcDbLine
 10
1220.071883922599
 20
379.1714795496
 30
0.0
 11
1286.013578631537
 21
379.1714795496005
 31
0.0
  0
LINE
  5
51C0
330
1F
100
AcDbEntity
  8
0
100
AcDbLine
 10
1216.342731277069
 20
385.6305614008456
 30
0.0
 11
1220.071883922599
 21
379.1714795496
 31
0.0
  0
LINE
  5
51C1
330
1F
100
AcDbEntity
  8
0
100
AcDbLine
 10
1216.342731277076
 20
437.7123976983607
 30
0.0
 11
1220.071883922614
 21
444.1714795496004
 31
0.0
  0
LINE
  5
51C2
330
1F
100
AcDbEntity
  8
0
100
AcDbLine
 10
1228.29273127707
 20
379.1714795496005
 30
0.0
 11
1228.292731277077
 21
444.1714795496009
 31
0.0
  0
LINE
  5
51C3
330
1F
100
AcDbEntity
  8
0
100
AcDbLine
 10
1223.042731277073
 20
379.1714795496005
 30
0.0
 11
1223.042731277073
 21
444.1714795496004
 31
0.0
  0
LINE
  5
51C4
330
1F
100
AcDbEntity
  8
0
100
AcDbLine
 10
1216.342731277069
 20
385.6305614008456
 30
0.0
 11
1216.342731277076
 21
437.7123976983607
 31
0.0
  0
LINE
  5
51C5
330
1F
100
AcDbEntity
  8
0
100
AcDbLine
 10
1220.071883922614
 20
444.1714795496004
 30
0.0
 11
1286.013578631533
 21
444.1714795496004
 31
0.0
  0
LINE
  5
51C6
330
1F
100
AcDbEntity
  8
0
100
AcDbLine
 10
1237.300749085425
 20
379.1714795496005
 30
0.0
 11
1237.300749085425
 21
444.1714795496009
 31
0.0
  0
LINE
  5
51C7
330
1F
100
AcDbEntity
  8
0
100
AcDbLine
 10
1241.800749085421
 20
379.1714795496005
 30
0.0
 11
1241.800749085421
 21
444.1714795496009
 31
0.0
  0
LINE
  5
51C8
330
1F
100
AcDbEntity
  8
0
100
AcDbLine
 10
1246.300749085425
 20
379.1714795496005
 30
0.0
 11
1246.300749085429
 21
444.1714795496009
 31
0.0
  0
LINE
  5
51C9
330
1F
100
AcDbEntity
  8
0
100
AcDbLine
 10
1250.800749085418
 20
379.1714795496005
 30
0.0
 11
1250.800749085425
 21
444.1714795496009
 31
0.0
  0
LINE
  5
51CA
330
1F
100
AcDbEntity
  8
0
100
AcDbLine
 10
1232.81336713894
 20
379.1714795496
 30
0.0
 11
1232.800345138283
 21
444.1714795496004
 31
0.0
  0
LINE
  5
51CD
330
1F
100
AcDbEntity
  8
0
100
AcDbLine
 10
1289.74273127707
 20
430.7214728202998
 30
0.0
 11
2127.813976628207
 21
430.7214728203084
 31
0.0
  0
LINE
  5
51CE
330
1F
100
AcDbEntity
  8
0
100
AcDbLine
 10
2220.271485925954
 20
430.7214728203098
 30
0.0
 11
2246.789526227582
 21
430.7214728203103
 31
0.0
  0
LINE
  5
51CF
330
1F
100
AcDbEntity
  8
0
100
AcDbLine
 10
1289.742731277078
 20
392.6214747455456
 30
0.0
 11
2127.813981380878
 21
392.6214747455456
 31
0.0
  0
LINE
  5
51D0
330
1F
100
AcDbEntity
  8
0
100
AcDbLine
 10
2220.271481173284
 20
392.6214747455456
 30
0.0
 11
2246.789526227582
 21
392.6214747455456
 31
0.0
  0
LINE
  5
51D1
330
1F
100
AcDbEntity
  8
0
100
AcDbLine
 10
1220.071883922606
 20
379.1714795495987
 30
0.0
 11
1220.071883922606
 21
444.1714795495986
 31
0.0
  0
LINE
  5
51D2
330
1F
100
AcDbEntity
  8
0
100
AcDbLine
 10
1289.742731277078
 20
385.6305614008456
 30
0.0
 11
1286.013578631537
 21
379.1714795496005
 31
0.0
  0
LINE
  5
51D3
330
1F
100
AcDbEntity
  8
0
100
AcDbLine
 10
1289.74273127707
 20
437.7123976983607
 30
0.0
 11
1286.013578631533
 21
444.1714795496004
 31
0.0
  0
LINE
  5
51D4
330
1F
100
AcDbEntity
  8
0
100
AcDbLine
 10
1277.792731277077
 20
379.1714795496005
 30
0.0
 11
1277.79273127707
 21
444.1714795496009
 31
0.0
  0
LINE
  5
51D5
330
1F
100
AcDbEntity
  8
0
100
AcDbLine
 10
1283.042731277073
 20
379.1714795496005
 30
0.0
 11
1283.042731277073
 21
444.1714795496004
 31
0.0
  0
LINE
  5
51D6
330
1F
100
AcDbEntity
  8
0
100
AcDbLine
 10
1289.742731277078
 20
385.6305614008456
 30
0.0
 11
1289.74273127707
 21
437.7123976983607
 31
0.0
  0
LINE
  5
51D7
330
1F
100
AcDbEntity
  8
0
100
AcDbLine
 10
1268.784713468722
 20
379.1714795496005
 30
0.0
 11
1268.784713468722
 21
444.1714795496009
 31
0.0
  0
LINE
  5
51D8
330
1F
100
AcDbEntity
  8
0
100
AcDbLine
 10
1264.284713468725
 20
379.1714795496005
 30
0.0
 11
1264.284713468725
 21
444.1714795496009
 31
0.0
  0
LINE
  5
51D9
330
1F
100
AcDbEntity
  8
0
100
AcDbLine
 10
1259.784713468722
 20
379.1714795496005
 30
0.0
 11
1259.784713468718
 21
444.1714795496009
 31
0.0
  0
LINE
  5
51DA
330
1F
100
AcDbEntity
  8
0
100
AcDbLine
 10
1255.284713468729
 20
379.1714795496005
 30
0.0
 11
1255.284713468722
 21
444.1714795496009
 31
0.0
  0
LINE
  5
51DB
330
1F
100
AcDbEntity
  8
0
100
AcDbLine
 10
1273.272095415206
 20
379.1714795496
 30
0.0
 11
1273.285117415864
 21
444.1714795496004
 31
0.0
  0
LINE
  5
51DC
330
1F
100
AcDbEntity
  8
0
100
AcDbLine
 10
1286.01357863154
 20
379.1714795495987
 30
0.0
 11
1286.01357863154
 21
444.1714795495986
 31
0.0
  0
LINE
  5
51DD
330
1F
100
AcDbEntity
  8
0
100
AcDbLine
 10
2261.289526227582
 20
429.6714795495908
 30
0.0
 11
2275.039527227571
 21
429.6714795495927
 31
0.0
  0
LINE
  5
51DE
330
1F
100
AcDbEntity
  8
0
100
AcDbLine
 10
2261.289526227582
 20
393.6714795495923
 30
0.0
 11
2275.039527227578
 21
393.6714795495928
 31
0.0
  0
LINE
  5
51DF
330
1F
100
AcDbEntity
  8
0
100
AcDbLine
 10
2275.039527227571
 20
429.6714795495927
 30
0.0
 11
2275.039527227578
 21
393.6714795495928
 31
0.0
  0
LINE
  5
51E1
330
1F
100
AcDbEntity
  8
0
100
AcDbLine
 10
2261.289526227582
 20
387.4214795495923
 30
0.0
 11
2261.289526227582
 21
435.9214795495923
 31
0.0
  0
LINE
  5
51E2
330
1F
100
AcDbEntity
  8
0
100
AcDbLine
 10
2246.789526227582
 20
387.4214795495923
 30
0.0
 11
2246.789526227582
 21
435.9214795495923
 31
0.0
  0
LINE
  5
51E3
330
1F
100
AcDbEntity
  8
0
100
AcDbLine
 10
2249.337317867444
 20
380.4214795495905
 30
0.0
 11
2249.337317867441
 21
393.3106190608524
 31
0.0
  0
LINE
  5
51E4
330
1F
100
AcDbEntity
  8
0
100
AcDbLine
 10
2249.337317867444
 20
433.1714795495923
 30
0.0
 11
2249.337317867444
 21
442.9214795495941
 31
0.0
  0
LINE
  5
51E5
330
1F
100
AcDbEntity
  8
0
100
AcDbLine
 10
2258.741734587719
 20
442.9214795495941
 30
0.0
 11
2258.741734587719
 21
433.1714795495923
 31
0.0
  0
LINE
  5
51E6
330
1F
100
AcDbEntity
  8
0
100
AcDbLine
 10
2258.741734587719
 20
393.3106190608514
 30
0.0
 11
2258.741734587719
 21
380.4214795495905
 31
0.0
  0
LINE
  5
51F3
330
1F
100
AcDbEntity
  8
0
  6
CENTER
100
AcDbLine
 10
2174.042731277078
 20
327.6715167314619
 30
0.0
 11
2174.042731277078
 21
495.6714423677245
 31
0.0
  0
LINE
  5
51FD
330
1F
100
AcDbEntity
  8
0
  6
CENTER
100
AcDbLine
 10
2254.039526227582
 20
441.3000175495894
 30
0.0
 11
2254.039526227582
 21
388.4004815495923
 31
0.0
  0
ARC
  5
51FE
330
1F
100
AcDbEntity
  8
0
100
AcDbCircle
 10
2250.789526227582
 20
400.8194745495916
 30
0.0
 40
7.647994500000001
100
AcDbArc
 50
244.8526299998726
 51
295.1473700001273
  0
ARC
  5
51FF
330
1F
100
AcDbEntity
  8
0
100
AcDbCircle
 10
2257.289526227582
 20
400.8194745495916
 30
0.0
 40
7.647994500000001
100
AcDbArc
 50
244.8526299998726
 51
295.1473700001273
  0
ARC
  5
5200
330
1F
100
AcDbEntity
  8
0
100
AcDbCircle
 10
2249.039526227582
 20
432.1714795495922
 30
0.0
 40
1.0
100
AcDbArc
 50
89.99999000005109
 51
179.9999960000204
  0
ARC
  5
5201
330
1F
100
AcDbEntity
  8
0
100
AcDbCircle
 10
2259.039526227581
 20
432.1714795495922
 30
0.0
 40
1.0
100
AcDbArc
 50
0.0
 51
90.00000500883318
  0
ARC
  5
5202
330
1F
100
AcDbEntity
  8
0
100
AcDbCircle
 10
2257.289526227582
 20
423.5234845495893
 30
0.0
 40
7.647994999999999
100
AcDbArc
 50
64.8526299998726
 51
115.1473749998909
  0
ARC
  5
5203
330
1F
100
AcDbEntity
  8
0
100
AcDbCircle
 10
2250.789526227582
 20
423.5234845495893
 30
0.0
 40
7.647994999999999
100
AcDbArc
 50
64.8526299998726
 51
115.1473680000444
  0
ARC
  5
5204
330
1F
100
AcDbEntity
  8
0
100
AcDbCircle
 10
2257.289526227582
 20
432.3194745495916
 30
0.0
 40
7.647994999999999
100
AcDbArc
 50
244.8526299998726
 51
295.1473700001273
  0
ARC
  5
5205
330
1F
100
AcDbEntity
  8
0
100
AcDbCircle
 10
2250.789526227582
 20
432.3194745495916
 30
0.0
 40
7.647994999999999
100
AcDbArc
 50
244.8526299998726
 51
295.1473700001273
  0
LINE
  5
5206
330
1F
100
AcDbEntity
  8
0
100
AcDbLine
 10
2261.039526227582
 20
398.6714795495923
 30
0.0
 11
2247.039526227581
 21
398.6714795495923
 31
0.0
  0
LINE
  5
5207
330
1F
100
AcDbEntity
  8
0
100
AcDbLine
 10
2247.039526227581
 20
408.6714795495923
 30
0.0
 11
2247.039526227581
 21
398.6714795495923
 31
0.0
  0
LINE
  5
5208
330
1F
100
AcDbEntity
  8
0
100
AcDbLine
 10
2261.039526227582
 20
424.6714795495923
 30
0.0
 11
2247.039526227581
 21
424.6714795495923
 31
0.0
  0
LINE
  5
5209
330
1F
100
AcDbEntity
  8
0
100
AcDbLine
 10
2247.039526227581
 20
414.6714795495922
 30
0.0
 11
2247.039526227581
 21
424.6714795495923
 31
0.0
  0
LINE
  5
520A
330
1F
100
AcDbEntity
  8
0
100
AcDbLine
 10
2261.039526227582
 20
408.6714795495959
 30
0.0
 11
2247.039526227581
 21
408.6714795495923
 31
0.0
  0
LINE
  5
520B
330
1F
100
AcDbEntity
  8
0
100
AcDbLine
 10
2261.039526227582
 20
414.6714795495922
 30
0.0
 11
2247.039526227581
 21
414.6714795495922
 31
0.0
  0
LINE
  5
520C
330
1F
100
AcDbEntity
  8
0
100
AcDbLine
 10
2250.039526227582
 20
414.6714795495922
 30
0.0
 11
2250.039526227582
 21
408.6714795495923
 31
0.0
  0
LINE
  5
520D
330
1F
100
AcDbEntity
  8
0
100
AcDbLine
 10
2258.039526227582
 20
414.6714795495922
 30
0.0
 11
2258.039526227582
 21
408.6714795495923
 31
0.0
  0
LINE
  5
520E
330
1F
100
AcDbEntity
  8
0
100
AcDbLine
 10
2250.789526227582
 20
393.1714795495923
 30
0.0
 11
2257.289526227582
 21
393.1714795495923
 31
0.0
  0
LINE
  5
520F
330
1F
100
AcDbEntity
  8
0
100
AcDbLine
 10
2247.539526227582
 20
393.8963735495913
 30
0.0
 11
2247.539526227582
 21
398.6714795495923
 31
0.0
  0
LINE
  5
5210
330
1F
100
AcDbEntity
  8
0
100
AcDbLine
 10
2260.539526227582
 20
393.8963735495913
 30
0.0
 11
2260.539526227582
 21
398.6714795495923
 31
0.0
  0
LINE
  5
5211
330
1F
100
AcDbEntity
  8
0
100
AcDbLine
 10
2250.039526227582
 20
438.6714795495922
 30
0.0
 11
2250.039526227582
 21
433.1714795495923
 31
0.0
  0
LINE
  5
5212
330
1F
100
AcDbEntity
  8
0
100
AcDbLine
 10
2249.039526227582
 20
433.1714795495923
 30
0.0
 11
2259.039526227581
 21
433.1714795495923
 31
0.0
  0
LINE
  5
5213
330
1F
100
AcDbEntity
  8
0
100
AcDbLine
 10
2250.039526227582
 20
438.6714795495922
 30
0.0
 11
2258.039526227582
 21
438.6714795495922
 31
0.0
  0
LINE
  5
5214
330
1F
100
AcDbEntity
  8
0
100
AcDbLine
 10
2248.039526227582
 20
432.1714795495922
 30
0.0
 11
2248.039526227582
 21
431.1714795495922
 31
0.0
  0
LINE
  5
5215
330
1F
100
AcDbEntity
  8
0
100
AcDbLine
 10
2260.039526227581
 20
432.1714795495922
 30
0.0
 11
2260.039526227581
 21
431.1714795495922
 31
0.0
  0
LINE
  5
5216
330
1F
100
AcDbEntity
  8
0
100
AcDbLine
 10
2260.539526227582
 20
431.1714795495922
 30
0.0
 11
2247.539526227582
 21
431.1714795495922
 31
0.0
  0
LINE
  5
5217
330
1F
100
AcDbEntity
  8
0
100
AcDbLine
 10
2260.539526227582
 20
431.1714795495922
 30
0.0
 11
2260.539526227582
 21
424.6714795495923
 31
0.0
  0
LINE
  5
5218
330
1F
100
AcDbEntity
  8
0
100
AcDbLine
 10
2247.539526227582
 20
431.1714795495922
 30
0.0
 11
2247.539526227582
 21
424.6714795495923
 31
0.0
  0
LINE
  5
5219
330
1F
100
AcDbEntity
  8
0
100
AcDbLine
 10
2258.039526227582
 20
438.6714795495922
 30
0.0
 11
2258.039526227582
 21
433.1714795495923
 31
0.0
  0
LINE
  5
521A
330
1F
100
AcDbEntity
  8
0
100
AcDbLine
 10
2261.039526227582
 20
408.6714795495959
 30
0.0
 11
2261.039526227582
 21
398.6714795495923
 31
0.0
  0
LINE
  5
521B
330
1F
100
AcDbEntity
  8
0
100
AcDbLine
 10
2261.039526227582
 20
414.6714795495922
 30
0.0
 11
2261.039526227582
 21
424.6714795495923
 31
0.0
  0
LINE
  5
521C
330
1F
100
AcDbEntity
  8
0
100
AcDbLine
 10
2249.337317867444
 20
442.9214795495941
 30
0.0
 11
2258.741734587719
 21
442.9214795495941
 31
0.0
  0
LINE
  5
521D
330
1F
100
AcDbEntity
  8
0
100
AcDbLine
 10
2249.337317867444
 20
442.9214795495941
 30
0.0
 11
2246.789526227582
 21
435.9214795495923
 31
0.0
  0
LINE
  5
521E
330
1F
100
AcDbEntity
  8
0
100
AcDbLine
 10
2258.741734587719
 20
442.9214795495941
 30
0.0
 11
2261.289526227582
 21
435.921479549594
 31
0.0
  0
LINE
  5
521F
330
1F
100
AcDbEntity
  8
0
100
AcDbLine
 10
2249.337317867444
 20
380.4214795495905
 30
0.0
 11
2258.741734587719
 21
380.4214795495905
 31
0.0
  0
LINE
  5
5220
330
1F
100
AcDbEntity
  8
0
100
AcDbLine
 10
2249.337317867444
 20
380.4214795495905
 30
0.0
 11
2246.789526227582
 21
387.4214795495923
 31
0.0
  0
LINE
  5
5221
330
1F
100
AcDbEntity
  8
0
100
AcDbLine
 10
2258.741734587719
 20
380.4214795495905
 30
0.0
 11
2261.289526227582
 21
387.4214795495904
 31
0.0
  0
LINE
  5
5222
330
1F
100
AcDbEntity
  8
0
100
AcDbLine
 10
1289.74273127707
 20
19.04999327098176
 30
0.0
 11
2160.442731277076
 21
19.049993270997
 31
0.0
  0
LINE
  5
5223
330
1F
100
AcDbEntity
  8
0
100
AcDbLine
 10
2187.642731277076
 20
19.04999327099131
 30
0.0
 11
2246.789526227582
 21
19.04999327099222
 31
0.0
  0
LINE
  5
5224
330
1F
100
AcDbEntity
  8
0
100
AcDbLine
 10
1289.742731277078
 20
-19.05000480377248
 30
0.0
 11
2246.789526227582
 21
-19.05000480377248
 31
0.0
  0
LINE
  5
5225
330
1F
100
AcDbEntity
  8
0
100
AcDbLine
 10
2261.289526227582
 20
18.00000000027285
 30
0.0
 11
2275.039527227571
 21
18.00000000027466
 31
0.0
  0
LINE
  5
5226
330
1F
100
AcDbEntity
  8
0
100
AcDbLine
 10
2261.289526227582
 20
-17.99999999972579
 30
0.0
 11
2275.039527227578
 21
-17.99999999972533
 31
0.0
  0
LINE
  5
5227
330
1F
100
AcDbEntity
  8
0
100
AcDbLine
 10
2275.039527227571
 20
18.00000000027466
 30
0.0
 11
2275.039527227578
 21
-17.99999999972533
 31
0.0
  0
LINE
  5
5228
330
1F
100
AcDbEntity
  8
0
100
AcDbLine
 10
2257.792302627582
 20
46.50000000027421
 30
0.0
 11
2250.286748427581
 21
46.50000000027421
 31
0.0
  0
LINE
  5
5229
330
1F
100
AcDbEntity
  8
0
100
AcDbLine
 10
2250.28674922758
 20
46.50000300027431
 30
0.0
 11
2246.533971127581
 21
40.00000100027455
 31
0.0
  0
LINE
  5
522A
330
1F
100
AcDbEntity
  8
0
100
AcDbLine
 10
2246.533971327583
 20
40.00000200027443
 30
0.0
 11
2250.286748527582
 21
33.50000100027455
 31
0.0
  0
LINE
  5
522B
330
1F
100
AcDbEntity
  8
0
100
AcDbLine
 10
2250.286748427581
 20
33.50000000027421
 30
0.0
 11
2257.792302627582
 21
33.50000000027421
 31
0.0
  0
LINE
  5
522C
330
1F
100
AcDbEntity
  8
0
100
AcDbLine
 10
2261.545081127581
 20
40.00000200027443
 30
0.0
 11
2257.792303027581
 21
33.50000000027421
 31
0.0
  0
LINE
  5
522D
330
1F
100
AcDbEntity
  8
0
100
AcDbLine
 10
2257.79230322758
 20
46.50000300027431
 30
0.0
 11
2261.545080327582
 21
40.00000200027443
 31
0.0
  0
LINE
  5
522E
330
1F
100
AcDbEntity
  8
0
100
AcDbLine
 10
2250.28674922758
 20
-46.50000299972589
 30
0.0
 11
2246.533972127581
 21
-40.00000199972555
 31
0.0
  0
LINE
  5
522F
330
1F
100
AcDbEntity
  8
0
100
AcDbLine
 10
2246.533971327583
 20
-40.00000199972555
 30
0.0
 11
2250.286749427582
 21
-33.49999999972579
 31
0.0
  0
LINE
  5
5230
330
1F
100
AcDbEntity
  8
0
100
AcDbLine
 10
2261.545081127581
 20
-40.00000199972555
 30
0.0
 11
2257.792303927582
 21
-33.50000099972567
 31
0.0
  0
LINE
  5
5231
330
1F
100
AcDbEntity
  8
0
100
AcDbLine
 10
2257.792304027582
 20
-33.49999999972579
 30
0.0
 11
2250.286749827581
 21
-33.49999999972579
 31
0.0
  0
LINE
  5
5232
330
1F
100
AcDbEntity
  8
0
100
AcDbLine
 10
2257.79230322758
 20
-46.50000299972589
 30
0.0
 11
2261.545081327582
 21
-40.00000099972567
 31
0.0
  0
LINE
  5
5233
330
1F
100
AcDbEntity
  8
0
100
AcDbLine
 10
2250.286749827581
 20
-46.49999999972578
 30
0.0
 11
2257.792304027582
 21
-46.49999999972578
 31
0.0
  0
LINE
  5
5234
330
1F
100
AcDbEntity
  8
0
  6
CENTER
100
AcDbLine
 10
2264.039526227582
 20
-39.99999999972579
 30
0.0
 11
2244.039526227581
 21
-39.99999999972579
 31
0.0
  0
LINE
  5
5235
330
1F
100
AcDbEntity
  8
0
  6
CENTER
100
AcDbLine
 10
2254.039526227582
 20
-49.99999999972579
 30
0.0
 11
2254.039526227582
 21
-30.00000199972556
 31
0.0
  0
LINE
  5
5236
330
1F
100
AcDbEntity
  8
0
  6
CENTER
100
AcDbLine
 10
2264.039526227582
 20
40.00000000027421
 30
0.0
 11
2244.039526227581
 21
40.00000000027421
 31
0.0
  0
LINE
  5
5237
330
1F
100
AcDbEntity
  8
0
  6
CENTER
100
AcDbLine
 10
2254.039526227582
 20
30.00000200027443
 30
0.0
 11
2254.039526227582
 21
50.00000000027421
 31
0.0
  0
LINE
  5
5238
330
1F
100
AcDbEntity
  8
0
100
AcDbLine
 10
2261.289526227582
 20
-24.24999999972579
 30
0.0
 11
2261.289526227582
 21
24.25000000027421
 31
0.0
  0
LINE
  5
5239
330
1F
100
AcDbEntity
  8
0
100
AcDbLine
 10
2261.289526227582
 20
24.25000000027421
 30
0.0
 11
2258.741734587719
 21
31.25000000027422
 31
0.0
  0
ARC
  5
523A
330
1F
100
AcDbEntity
  8
0
100
AcDbCircle
 10
2254.039526227582
 20
40.00000100027455
 30
0.0
 40
7.0
100
AcDbArc
 50
188.2132267968061
 51
227.798185351404
  0
ARC
  5
523B
330
1F
100
AcDbEntity
  8
0
100
AcDbCircle
 10
2254.039526227582
 20
40.00000100027455
 30
0.0
 40
7.0
100
AcDbArc
 50
128.2132381095184
 51
171.7867593049097
  0
ARC
  5
523C
330
1F
100
AcDbEntity
  8
0
100
AcDbCircle
 10
2254.039526227582
 20
40.00000100027455
 30
0.0
 40
7.0
100
AcDbArc
 50
68.21318864862583
 51
111.7868113513742
  0
ARC
  5
523D
330
1F
100
AcDbEntity
  8
0
100
AcDbCircle
 10
2254.039526227582
 20
40.00000100027455
 30
0.0
 40
7.0
100
AcDbArc
 50
8.213233864963978
 51
51.78676313253009
  0
ARC
  5
523E
330
1F
100
AcDbEntity
  8
0
100
AcDbCircle
 10
2254.039526227582
 20
40.00000100027455
 30
0.0
 40
7.0
100
AcDbArc
 50
312.201814648596
 51
351.7867741511661
  0
LINE
  5
523F
330
1F
100
AcDbEntity
  8
0
100
AcDbLine
 10
2246.789526227582
 20
-24.24999999972579
 30
0.0
 11
2246.789526227582
 21
24.25000000027421
 31
0.0
  0
LINE
  5
5240
330
1F
100
AcDbEntity
  8
0
100
AcDbLine
 10
2246.789526227582
 20
24.25000000027421
 30
0.0
 11
2249.337317867444
 21
31.25000000027422
 31
0.0
  0
LINE
  5
5241
330
1F
100
AcDbEntity
  8
0
100
AcDbLine
 10
2249.337317867444
 20
-34.81451774954894
 30
0.0
 11
2249.337317867444
 21
34.81451775009782
 31
0.0
  0
LINE
  5
5242
330
1F
100
AcDbEntity
  8
0
100
AcDbLine
 10
2258.741734587719
 20
28.41764500027421
 30
0.0
 11
2249.337317867444
 21
28.41764500027421
 31
0.0
  0
LINE
  5
5243
330
1F
100
AcDbEntity
  8
0
100
AcDbLine
 10
2261.289526227582
 20
-24.24999999972579
 30
0.0
 11
2258.741734587719
 21
-31.24999999972579
 31
0.0
  0
LINE
  5
5244
330
1F
100
AcDbEntity
  8
0
100
AcDbLine
 10
2258.741734587719
 20
34.81451775009782
 30
0.0
 11
2258.741734587719
 21
-34.81451774954894
 31
0.0
  0
ARC
  5
5245
330
1F
100
AcDbEntity
  8
0
100
AcDbCircle
 10
2254.039526227582
 20
-40.00000099972567
 30
0.0
 40
7.0
100
AcDbArc
 50
132.201814648596
 51
171.7867732031939
  0
ARC
  5
5246
330
1F
100
AcDbEntity
  8
0
100
AcDbCircle
 10
2254.039526227582
 20
-40.00000099972567
 30
0.0
 40
7.0
100
AcDbArc
 50
188.2132406950903
 51
231.7867618904816
  0
ARC
  5
5247
330
1F
100
AcDbEntity
  8
0
100
AcDbCircle
 10
2254.039526227582
 20
-40.00000099972567
 30
0.0
 40
7.0
100
AcDbArc
 50
248.2131886486258
 51
291.7868113513742
  0
ARC
  5
5248
330
1F
100
AcDbEntity
  8
0
100
AcDbCircle
 10
2254.039526227582
 20
-40.00000099972567
 30
0.0
 40
7.0
100
AcDbArc
 50
308.2132368674699
 51
351.786766135036
  0
ARC
  5
5249
330
1F
100
AcDbEntity
  8
0
100
AcDbCircle
 10
2254.039526227582
 20
-40.00000099972567
 30
0.0
 40
7.0
100
AcDbArc
 50
8.213225848833856
 51
47.79818535140401
  0
LINE
  5
524A
330
1F
100
AcDbEntity
  8
0
100
AcDbLine
 10
2246.789526227582
 20
-24.24999999972579
 30
0.0
 11
2249.337317867444
 21
-31.24999999972579
 31
0.0
  0
LINE
  5
524B
330
1F
100
AcDbEntity
  8
0
100
AcDbLine
 10
2258.741734587719
 20
-28.41764499972578
 30
0.0
 11
2249.337317867444
 21
-28.41764499972578
 31
0.0
  0
LINE
  5
5256
330
1F
100
AcDbEntity
  8
0
100
AcDbLine
 10
1216.342731277076
 20
430.7214728202998
 30
0.0
 11
259.2959363265654
 21
430.7214728203103
 31
0.0
  0
LINE
  5
5257
330
1F
100
AcDbEntity
  8
0
100
AcDbLine
 10
1216.342731277069
 20
392.6214747455456
 30
0.0
 11
259.2959363265654
 21
392.6214747455456
 31
0.0
  0
LINE
  5
5258
330
1F
100
AcDbEntity
  8
0
100
AcDbLine
 10
244.7959363265654
 20
429.6714795495908
 30
0.0
 11
231.045935326576
 21
429.6714795495927
 31
0.0
  0
LINE
  5
5259
330
1F
100
AcDbEntity
  8
0
100
AcDbLine
 10
244.7959363265654
 20
393.6714795495923
 30
0.0
 11
231.0459353265687
 21
393.6714795495928
 31
0.0
  0
LINE
  5
525A
330
1F
100
AcDbEntity
  8
0
100
AcDbLine
 10
231.045935326576
 20
429.6714795495927
 30
0.0
 11
231.0459353265687
 21
393.6714795495928
 31
0.0
  0
LINE
  5
525B
330
1F
100
AcDbEntity
  8
0
100
AcDbLine
 10
244.7959363265654
 20
387.4214795495923
 30
0.0
 11
244.7959363265654
 21
435.9214795495923
 31
0.0
  0
LINE
  5
525C
330
1F
100
AcDbEntity
  8
0
100
AcDbLine
 10
259.2959363265654
 20
387.4214795495923
 30
0.0
 11
259.2959363265654
 21
435.9214795495923
 31
0.0
  0
LINE
  5
525D
330
1F
100
AcDbEntity
  8
0
100
AcDbLine
 10
256.7481446867023
 20
380.4214795495905
 30
0.0
 11
256.7481446867059
 21
393.3106190608524
 31
0.0
  0
LINE
  5
525E
330
1F
100
AcDbEntity
  8
0
100
AcDbLine
 10
256.7481446867023
 20
433.1714795495923
 30
0.0
 11
256.7481446867023
 21
442.9214795495941
 31
0.0
  0
LINE
  5
525F
330
1F
100
AcDbEntity
  8
0
100
AcDbLine
 10
247.3437279664286
 20
442.9214795495941
 30
0.0
 11
247.3437279664286
 21
433.1714795495923
 31
0.0
  0
LINE
  5
5260
330
1F
100
AcDbEntity
  8
0
100
AcDbLine
 10
247.3437279664286
 20
393.3106190608514
 30
0.0
 11
247.3437279664286
 21
380.4214795495905
 31
0.0
  0
LINE
  5
5265
330
1F
100
AcDbEntity
  8
0
  6
CENTER
100
AcDbLine
 10
252.0459363265654
 20
441.3000175495894
 30
0.0
 11
252.0459363265654
 21
388.4004815495923
 31
0.0
  0
ARC
  5
5266
330
1F
100
AcDbEntity
  8
0
100
AcDbCircle
 10
255.2959363265654
 20
400.8194745495916
 30
0.0
 40
7.647994500000001
100
AcDbArc
 50
244.8526299998726
 51
295.1473700001273
  0
ARC
  5
5267
330
1F
100
AcDbEntity
  8
0
100
AcDbCircle
 10
248.7959363265654
 20
400.8194745495916
 30
0.0
 40
7.647994500000001
100
AcDbArc
 50
244.8526299998726
 51
295.1473700001273
  0
ARC
  5
5268
330
1F
100
AcDbEntity
  8
0
100
AcDbCircle
 10
257.0459363265654
 20
432.1714795495922
 30
0.0
 40
1.0
100
AcDbArc
 50
0.0000039999795585
 51
90.00001000015734
  0
ARC
  5
5269
330
1F
100
AcDbEntity
  8
0
100
AcDbCircle
 10
247.0459363265654
 20
432.1714795495922
 30
0.0
 40
1.0
100
AcDbArc
 50
89.99999499116681
 51
180.0
  0
ARC
  5
526A
330
1F
100
AcDbEntity
  8
0
100
AcDbCircle
 10
248.7959363265654
 20
423.5234845495893
 30
0.0
 40
7.647994999999999
100
AcDbArc
 50
64.85262500033094
 51
115.1473700001274
  0
ARC
  5
526B
330
1F
100
AcDbEntity
  8
0
100
AcDbCircle
 10
255.2959363265654
 20
423.5234845495893
 30
0.0
 40
7.647994999999999
100
AcDbArc
 50
64.85263199995555
 51
115.1473700001274
  0
ARC
  5
526C
330
1F
100
AcDbEntity
  8
0
100
AcDbCircle
 10
248.7959363265654
 20
432.3194745495916
 30
0.0
 40
7.647994999999999
100
AcDbArc
 50
244.8526299998726
 51
295.1473700001273
  0
ARC
  5
526D
330
1F
100
AcDbEntity
  8
0
100
AcDbCircle
 10
255.2959363265654
 20
432.3194745495916
 30
0.0
 40
7.647994999999999
100
AcDbArc
 50
244.8526299998726
 51
295.1473700001273
  0
LINE
  5
526E
330
1F
100
AcDbEntity
  8
0
100
AcDbLine
 10
245.0459363265654
 20
398.6714795495923
 30
0.0
 11
259.0459363265654
 21
398.6714795495923
 31
0.0
  0
LINE
  5
526F
330
1F
100
AcDbEntity
  8
0
100
AcDbLine
 10
259.0459363265654
 20
408.6714795495923
 30
0.0
 11
259.0459363265654
 21
398.6714795495923
 31
0.0
  0
LINE
  5
5270
330
1F
100
AcDbEntity
  8
0
100
AcDbLine
 10
245.0459363265654
 20
424.6714795495923
 30
0.0
 11
259.0459363265654
 21
424.6714795495923
 31
0.0
  0
LINE
  5
5271
330
1F
100
AcDbEntity
  8
0
100
AcDbLine
 10
259.0459363265654
 20
414.6714795495922
 30
0.0
 11
259.0459363265654
 21
424.6714795495923
 31
0.0
  0
LINE
  5
5272
330
1F
100
AcDbEntity
  8
0
100
AcDbLine
 10
245.0459363265654
 20
408.6714795495959
 30
0.0
 11
259.0459363265654
 21
408.6714795495923
 31
0.0
  0
LINE
  5
5273
330
1F
100
AcDbEntity
  8
0
100
AcDbLine
 10
245.0459363265654
 20
414.6714795495922
 30
0.0
 11
259.0459363265654
 21
414.6714795495922
 31
0.0
  0
LINE
  5
5274
330
1F
100
AcDbEntity
  8
0
100
AcDbLine
 10
256.0459363265654
 20
414.6714795495922
 30
0.0
 11
256.0459363265654
 21
408.6714795495923
 31
0.0
  0
LINE
  5
5275
330
1F
100
AcDbEntity
  8
0
100
AcDbLine
 10
248.0459363265654
 20
414.6714795495922
 30
0.0
 11
248.0459363265654
 21
408.6714795495923
 31
0.0
  0
LINE
  5
5276
330
1F
100
AcDbEntity
  8
0
100
AcDbLine
 10
255.2959363265654
 20
393.1714795495923
 30
0.0
 11
248.7959363265654
 21
393.1714795495923
 31
0.0
  0
LINE
  5
5277
330
1F
100
AcDbEntity
  8
0
100
AcDbLine
 10
258.5459363265654
 20
393.8963735495913
 30
0.0
 11
258.5459363265654
 21
398.6714795495923
 31
0.0
  0
LINE
  5
5278
330
1F
100
AcDbEntity
  8
0
100
AcDbLine
 10
245.5459363265654
 20
393.8963735495913
 30
0.0
 11
245.5459363265654
 21
398.6714795495923
 31
0.0
  0
LINE
  5
5279
330
1F
100
AcDbEntity
  8
0
100
AcDbLine
 10
256.0459363265654
 20
438.6714795495922
 30
0.0
 11
256.0459363265654
 21
433.1714795495923
 31
0.0
  0
LINE
  5
527A
330
1F
100
AcDbEntity
  8
0
100
AcDbLine
 10
257.0459363265654
 20
433.1714795495923
 30
0.0
 11
247.0459363265654
 21
433.1714795495923
 31
0.0
  0
LINE
  5
527B
330
1F
100
AcDbEntity
  8
0
100
AcDbLine
 10
256.0459363265654
 20
438.6714795495922
 30
0.0
 11
248.0459363265654
 21
438.6714795495922
 31
0.0
  0
LINE
  5
527C
330
1F
100
AcDbEntity
  8
0
100
AcDbLine
 10
258.0459363265654
 20
432.1714795495922
 30
0.0
 11
258.0459363265654
 21
431.1714795495922
 31
0.0
  0
LINE
  5
527D
330
1F
100
AcDbEntity
  8
0
100
AcDbLine
 10
246.0459363265654
 20
432.1714795495922
 30
0.0
 11
246.0459363265654
 21
431.1714795495922
 31
0.0
  0
LINE
  5
527E
330
1F
100
AcDbEntity
  8
0
100
AcDbLine
 10
245.5459363265654
 20
431.1714795495922
 30
0.0
 11
258.5459363265654
 21
431.1714795495922
 31
0.0
  0
LINE
  5
527F
330
1F
100
AcDbEntity
  8
0
100
AcDbLine
 10
245.5459363265654
 20
431.1714795495922
 30
0.0
 11
245.5459363265654
 21
424.6714795495923
 31
0.0
  0
LINE
  5
5280
330
1F
100
AcDbEntity
  8
0
100
AcDbLine
 10
258.5459363265654
 20
431.1714795495922
 30
0.0
 11
258.5459363265654
 21
424.6714795495923
 31
0.0
  0
LINE
  5
5281
330
1F
100
AcDbEntity
  8
0
100
AcDbLine
 10
248.0459363265654
 20
438.6714795495922
 30
0.0
 11
248.0459363265654
 21
433.1714795495923
 31
0.0
  0
LINE
  5
5282
330
1F
100
AcDbEntity
  8
0
100
AcDbLine
 10
245.0459363265654
 20
408.6714795495959
 30
0.0
 11
245.0459363265654
 21
398.6714795495923
 31
0.0
  0
LINE
  5
5283
330
1F
100
AcDbEntity
  8
0
100
AcDbLine
 10
245.0459363265654
 20
414.6714795495922
 30
0.0
 11
245.0459363265654
 21
424.6714795495923
 31
0.0
  0
LINE
  5
5284
330
1F
100
AcDbEntity
  8
0
100
AcDbLine
 10
256.7481446867023
 20
442.9214795495941
 30
0.0
 11
247.3437279664286
 21
442.9214795495941
 31
0.0
  0
LINE
  5
5285
330
1F
100
AcDbEntity
  8
0
100
AcDbLine
 10
256.7481446867023
 20
442.9214795495941
 30
0.0
 11
259.2959363265654
 21
435.9214795495923
 31
0.0
  0
LINE
  5
5286
330
1F
100
AcDbEntity
  8
0
100
AcDbLine
 10
247.3437279664286
 20
442.9214795495941
 30
0.0
 11
244.7959363265654
 21
435.921479549594
 31
0.0
  0
LINE
  5
5287
330
1F
100
AcDbEntity
  8
0
100
AcDbLine
 10
256.7481446867023
 20
380.4214795495905
 30
0.0
 11
247.3437279664286
 21
380.4214795495905
 31
0.0
  0
LINE
  5
5288
330
1F
100
AcDbEntity
  8
0
100
AcDbLine
 10
256.7481446867023
 20
380.4214795495905
 30
0.0
 11
259.2959363265654
 21
387.4214795495923
 31
0.0
  0
LINE
  5
5289
330
1F
100
AcDbEntity
  8
0
100
AcDbLine
 10
247.3437279664286
 20
380.4214795495905
 30
0.0
 11
244.7959363265654
 21
387.4214795495904
 31
0.0
  0
LINE
  5
5299
330
1F
100
AcDbEntity
  8
0
  6
CENTER
100
AcDbLine
 10
332.0427312770771
 20
327.6715167314619
 30
0.0
 11
332.0427312770771
 21
495.6714423677245
 31
0.0
  0
LINE
  5
5352
330
1F
100
AcDbEntity
  8
0
  6
CENTER
100
AcDbLine
 10
332.0427312770735
 20
0.0000000002737579
 30
0.0
 11
332.0427312770735
 21
-94.9999999997326
 31
0.0
  0
LINE
  5
5354
330
1F
100
AcDbEntity
  8
0
  6
CENTER
100
AcDbLine
 10
2174.042731277074
 20
0.0000000002742127
 30
0.0
 11
2174.042731277074
 21
95.00000000028057
 31
0.0
  0
TEXT
  5
5661
330
1F
100
AcDbEntity
  8
0
100
AcDbText
 10
831.6141598485019
 20
529.2813975040385
 30
0.0
 40
50.0
  1
1.5SX2000L-20AX15A
 72
     4
 11
1253.042731277073
 21
554.2813975040385
 31
0.0
100
AcDbText
  0
LINE
  5
5F42
330
1F
100
AcDbEntity
  8
0
  6
CENTER
100
AcDbLine
 10
2297.392233462775
 20
411.6714795495922
 30
0.0
 11
208.6932290913719
 21
411.6714795495922
 31
0.0
  0
LINE
  5
5F43
330
1F
100
AcDbEntity
  8
0
100
AcDbLine
 10
2294.042731277066
 20
394.6714795495923
 30
0.0
 11
2294.042731277066
 21
428.6714795495923
 31
0.0
  0
LINE
  5
5F44
330
1F
100
AcDbEntity
  8
0
100
AcDbLine
 10
2291.192731277067
 20
395.450706062054
 30
0.0
 11
2291.192731277067
 21
427.8922530371305
 31
0.0
  0
LINE
  5
5F45
330
1F
100
AcDbEntity
  8
0
100
AcDbLine
 10
2291.752897307637
 20
394.6714795495923
 30
0.0
 11
2294.042731277066
 21
394.6714795495923
 31
0.0
  0
LINE
  5
5F46
330
1F
100
AcDbEntity
  8
0
100
AcDbLine
 10
2288.954236423277
 20
422.5214382306908
 30
0.0
 11
2288.954236423277
 21
400.8215208684937
 31
0.0
  0
LINE
  5
5F47
330
1F
100
AcDbEntity
  8
0
100
AcDbLine
 10
2291.001143211008
 20
395.1978634349321
 30
0.0
 11
2289.433284501483
 21
399.5055198362438
 31
0.0
  0
ARC
  5
5F48
330
1F
100
AcDbEntity
  8
0
100
AcDbCircle
 10
2291.752897307637
 20
395.4714795495925
 30
0.0
 40
0.8
100
AcDbArc
 50
200.0000000000405
 51
270.0
1001
GENIUS_GENODEF_13
1002
{
1000
HIER
1070
     0
1002
}
1002
{
1000
MANEDIT
1070
     0
1002
}
1002
{
1000
NOSEL
1070
     0
1002
}
1002
{
1000
BEHIND
1070
     0
1002
}
1002
{
1000
OTHER
1070
     0
1002
}
1002
{
1000
REACTOR
1002
}
1001
GENIUS_GENOBJ-N-FIL_13
1002
{
1000
OWNER
1000
GEN
1002
}
  0
ARC
  5
5F49
330
1F
100
AcDbEntity
  8
0
100
AcDbCircle
 10
2287.55389925991
 20
398.8214795495924
 30
0.0
 40
2.0
100
AcDbArc
 50
20.00000000004046
 51
90.0
1001
GENIUS_GENODEF_13
1002
{
1000
HIER
1070
     0
1002
}
1002
{
1000
MANEDIT
1070
     0
1002
}
1002
{
1000
NOSEL
1070
     0
1002
}
1002
{
1000
BEHIND
1070
     0
1002
}
1002
{
1000
OTHER
1070
     0
1002
}
1002
{
1000
REACTOR
1002
}
1001
GENIUS_GENOBJ-N-FIL_13
1002
{
1000
OWNER
1000
GEN
1002
}
  0
LINE
  5
5F4A
330
1F
100
AcDbEntity
  8
0
100
AcDbLine
 10
2291.752897307637
 20
428.6714795495923
 30
0.0
 11
2294.042731277066
 21
428.6714795495923
 31
0.0
  0
LINE
  5
5F4B
330
1F
100
AcDbEntity
  8
0
100
AcDbLine
 10
2291.001143211008
 20
428.1450956642529
 30
0.0
 11
2289.433284501483
 21
423.8374392629407
 31
0.0
  0
ARC
  5
5F4C
330
1F
100
AcDbEntity
  8
0
100
AcDbCircle
 10
2291.752897307637
 20
427.8714795495921
 30
0.0
 40
0.8
100
AcDbArc
 50
90.0
 51
159.9999999999595
1001
GENIUS_GENODEF_13
1002
{
1000
HIER
1070
     0
1002
}
1002
{
1000
MANEDIT
1070
     0
1002
}
1002
{
1000
NOSEL
1070
     0
1002
}
1002
{
1000
BEHIND
1070
     0
1002
}
1002
{
1000
OTHER
1070
     0
1002
}
1002
{
1000
REACTOR
1002
}
1001
GENIUS_GENOBJ-N-FIL_13
1002
{
1000
OWNER
1000
GEN
1002
}
  0
ARC
  5
5F4D
330
1F
100
AcDbEntity
  8
0
100
AcDbCircle
 10
2287.55389925991
 20
424.5214795495926
 30
0.0
 40
2.0
100
AcDbArc
 50
270.0
 51
339.9999999999595
1001
GENIUS_GENODEF_13
1002
{
1000
HIER
1070
     0
1002
}
1002
{
1000
MANEDIT
1070
     0
1002
}
1002
{
1000
NOSEL
1070
     0
1002
}
1002
{
1000
BEHIND
1070
     0
1002
}
1002
{
1000
OTHER
1070
     0
1002
}
1002
{
1000
REACTOR
1002
}
1001
GENIUS_GENOBJ-N-FIL_13
1002
{
1000
OWNER
1000
GEN
1002
}
  0
LINE
  5
5F4E
330
1F
100
AcDbEntity
  8
0
100
AcDbLine
 10
2287.55389925991
 20
400.8214795495923
 30
0.0
 11
2275.039527227571
 21
400.8214795495928
 31
0.0
  0
LINE
  5
5F4F
330
1F
100
AcDbEntity
  8
0
100
AcDbLine
 10
2287.55389925991
 20
422.5214795495926
 30
0.0
 11
2275.039527227571
 21
422.5214795495926
 31
0.0
  0
LINE
  5
5F50
330
1F
100
AcDbEntity
  8
0
100
AcDbLine
 10
212.0427312770735
 20
394.6714795498256
 30
0.0
 11
212.0427312770807
 21
428.6714795498255
 31
0.0
  0
LINE
  5
5F51
330
1F
100
AcDbEntity
  8
0
100
AcDbLine
 10
214.892731277072
 20
395.4507060622864
 30
0.0
 11
214.8927312770793
 21
427.8922530373629
 31
0.0
  0
LINE
  5
5F52
330
1F
100
AcDbEntity
  8
0
100
AcDbLine
 10
214.3325652465028
 20
394.6714795498246
 30
0.0
 11
212.0427312770735
 21
394.6714795498256
 31
0.0
  0
LINE
  5
5F53
330
1F
100
AcDbEntity
  8
0
100
AcDbLine
 10
217.1312261308703
 20
422.5214382309227
 30
0.0
 11
217.1312261308631
 21
400.8215208687256
 31
0.0
  0
LINE
  5
5F54
330
1F
100
AcDbEntity
  8
0
100
AcDbLine
 10
215.0843193431319
 20
395.1978634351645
 30
0.0
 11
216.6521780526564
 21
399.5055198364757
 31
0.0
  0
ARC
  5
5F55
330
1F
100
AcDbEntity
  8
0
100
AcDbCircle
 10
214.3325652465028
 20
395.4714795498248
 30
0.0
 40
0.8
100
AcDbArc
 50
270.0
 51
339.999999999935
1001
GENIUS_GENODEF_13
1002
{
1000
HIER
1070
     0
1002
}
1002
{
1000
MANEDIT
1070
     0
1002
}
1002
{
1000
NOSEL
1070
     0
1002
}
1002
{
1000
BEHIND
1070
     0
1002
}
1002
{
1000
OTHER
1070
     0
1002
}
1002
{
1000
REACTOR
1002
}
1001
GENIUS_GENOBJ-N-FIL_13
1002
{
1000
OWNER
1000
GEN
1002
}
  0
ARC
  5
5F56
330
1F
100
AcDbEntity
  8
0
100
AcDbCircle
 10
218.5315632942293
 20
398.8214795498238
 30
0.0
 40
2.0
100
AcDbArc
 50
90.0
 51
159.999999999935
1001
GENIUS_GENODEF_13
1002
{
1000
HIER
1070
     0
1002
}
1002
{
1000
MANEDIT
1070
     0
1002
}
1002
{
1000
NOSEL
1070
     0
1002
}
1002
{
1000
BEHIND
1070
     0
1002
}
1002
{
1000
OTHER
1070
     0
1002
}
1002
{
1000
REACTOR
1002
}
1001
GENIUS_GENOBJ-N-FIL_13
1002
{
1000
OWNER
1000
GEN
1002
}
  0
LINE
  5
5F57
330
1F
100
AcDbEntity
  8
0
100
AcDbLine
 10
214.33256524651
 20
428.6714795498246
 30
0.0
 11
212.0427312770807
 21
428.6714795498255
 31
0.0
  0
LINE
  5
5F58
330
1F
100
AcDbEntity
  8
0
100
AcDbLine
 10
215.0843193431392
 20
428.1450956644853
 30
0.0
 11
216.6521780526637
 21
423.8374392631726
 31
0.0
  0
ARC
  5
5F59
330
1F
100
AcDbEntity
  8
0
100
AcDbCircle
 10
214.33256524651
 20
427.8714795498244
 30
0.0
 40
0.8
100
AcDbArc
 50
20.00000000004046
 51
90.0
1001
GENIUS_GENODEF_13
1002
{
1000
HIER
1070
     0
1002
}
1002
{
1000
MANEDIT
1070
     0
1002
}
1002
{
1000
NOSEL
1070
     0
1002
}
1002
{
1000
BEHIND
1070
     0
1002
}
1002
{
1000
OTHER
1070
     0
1002
}
1002
{
1000
REACTOR
1002
}
1001
GENIUS_GENOBJ-N-FIL_13
1002
{
1000
OWNER
1000
GEN
1002
}
  0
ARC
  5
5F5A
330
1F
100
AcDbEntity
  8
0
100
AcDbCircle
 10
218.5315632942366
 20
424.5214795498241
 30
0.0
 40
2.0
100
AcDbArc
 50
200.0000000000405
 51
270.0
1001
GENIUS_GENODEF_13
1002
{
1000
HIER
1070
     0
1002
}
1002
{
1000
MANEDIT
1070
     0
1002
}
1002
{
1000
NOSEL
1070
     0
1002
}
1002
{
1000
BEHIND
1070
     0
1002
}
1002
{
1000
OTHER
1070
     0
1002
}
1002
{
1000
REACTOR
1002
}
1001
GENIUS_GENOBJ-N-FIL_13
1002
{
1000
OWNER
1000
GEN
1002
}
  0
LINE
  5
5F5B
330
1F
100
AcDbEntity
  8
0
100
AcDbLine
 10
218.5315632942293
 20
400.8214795498238
 30
0.0
 11
231.0459353265687
 21
400.8214795498215
 31
0.0
  0
LINE
  5
5F5C
330
1F
100
AcDbEntity
  8
0
100
AcDbLine
 10
218.5315632942366
 20
422.521479549824
 30
0.0
 11
231.045935326576
 21
422.5214795498214
 31
0.0
  0
LINE
  5
5F5D
330
1F
100
AcDbEntity
  8
0
  6
CENTER
100
AcDbLine
 10
235.8055312703363
 20
-3.799999999725059
 30
0.0
 11
209.1481684617938
 21
-3.799999999725059
 31
0.0
  0
LINE
  5
5F5E
330
1F
100
AcDbEntity
  8
0
100
AcDbLine
 10
212.0427312770698
 20
13.20000000027494
 30
0.0
 11
212.0427312770698
 21
-20.79999999972506
 31
0.0
  0
LINE
  5
5F5F
330
1F
100
AcDbEntity
  8
0
100
AcDbLine
 10
214.8927312770684
 20
12.42077348781322
 30
0.0
 11
214.8927312770684
 21
-20.02077348726334
 31
0.0
  0
LINE
  5
5F60
330
1F
100
AcDbEntity
  8
0
100
AcDbLine
 10
214.3325652464991
 20
13.20000000027494
 30
0.0
 11
212.0427312770698
 21
13.20000000027494
 31
0.0
  0
LINE
  5
5F61
330
1F
100
AcDbEntity
  8
0
100
AcDbLine
 10
217.1312261308594
 20
-14.64995868082314
 30
0.0
 11
217.1312261308594
 21
7.049958681373482
 31
0.0
  0
LINE
  5
5F62
330
1F
100
AcDbEntity
  8
0
100
AcDbLine
 10
215.0843193431283
 20
12.67361611493561
 30
0.0
 11
216.6521780526527
 21
8.365959713623851
 31
0.0
  0
ARC
  5
5F63
330
1F
100
AcDbEntity
  8
0
100
AcDbCircle
 10
214.3325652464991
 20
12.40000000027521
 30
0.0
 40
0.8
100
AcDbArc
 50
20.00000000006494
 51
90.0
1001
GENIUS_GENODEF_13
1002
{
1000
HIER
1070
     0
1002
}
1002
{
1000
MANEDIT
1070
     0
1002
}
1002
{
1000
NOSEL
1070
     0
1002
}
1002
{
1000
BEHIND
1070
     0
1002
}
1002
{
1000
OTHER
1070
     0
1002
}
1002
{
1000
REACTOR
1002
}
1001
GENIUS_GENOBJ-N-FIL_13
1002
{
1000
OWNER
1000
GEN
1002
}
  0
ARC
  5
5F64
330
1F
100
AcDbEntity
  8
0
100
AcDbCircle
 10
218.5315632942256
 20
9.050000000275304
 30
0.0
 40
2.0
100
AcDbArc
 50
200.0000000000649
 51
270.0
1001
GENIUS_GENODEF_13
1002
{
1000
HIER
1070
     0
1002
}
1002
{
1000
MANEDIT
1070
     0
1002
}
1002
{
1000
NOSEL
1070
     0
1002
}
1002
{
1000
BEHIND
1070
     0
1002
}
1002
{
1000
OTHER
1070
     0
1002
}
1002
{
1000
REACTOR
1002
}
1001
GENIUS_GENOBJ-N-FIL_13
1002
{
1000
OWNER
1000
GEN
1002
}
  0
LINE
  5
5F65
330
1F
100
AcDbEntity
  8
0
100
AcDbLine
 10
214.3325652464991
 20
-20.79999999972506
 30
0.0
 11
212.0427312770698
 21
-20.79999999972506
 31
0.0
  0
LINE
  5
5F66
330
1F
100
AcDbEntity
  8
0
100
AcDbLine
 10
215.0843193431283
 20
-20.27361611438528
 30
0.0
 11
216.6521780526527
 21
-15.96595971307351
 31
0.0
  0
ARC
  5
5F67
330
1F
100
AcDbEntity
  8
0
100
AcDbCircle
 10
214.3325652464991
 20
-19.99999999972487
 30
0.0
 40
0.8
100
AcDbArc
 50
270.0
 51
339.999999999935
1001
GENIUS_GENODEF_13
1002
{
1000
HIER
1070
     0
1002
}
1002
{
1000
MANEDIT
1070
     0
1002
}
1002
{
1000
NOSEL
1070
     0
1002
}
1002
{
1000
BEHIND
1070
     0
1002
}
1002
{
1000
OTHER
1070
     0
1002
}
1002
{
1000
REACTOR
1002
}
1001
GENIUS_GENOBJ-N-FIL_13
1002
{
1000
OWNER
1000
GEN
1002
}
  0
ARC
  5
5F68
330
1F
100
AcDbEntity
  8
0
100
AcDbCircle
 10
218.5315632942256
 20
-16.64999999972497
 30
0.0
 40
2.0
100
AcDbArc
 50
90.0
 51
159.999999999935
1001
GENIUS_GENODEF_13
1002
{
1000
HIER
1070
     0
1002
}
1002
{
1000
MANEDIT
1070
     0
1002
}
1002
{
1000
NOSEL
1070
     0
1002
}
1002
{
1000
BEHIND
1070
     0
1002
}
1002
{
1000
OTHER
1070
     0
1002
}
1002
{
1000
REACTOR
1002
}
1001
GENIUS_GENOBJ-N-FIL_13
1002
{
1000
OWNER
1000
GEN
1002
}
  0
LINE
  5
5F69
330
1F
100
AcDbEntity
  8
0
100
AcDbLine
 10
218.5315632942256
 20
7.050000000275304
 30
0.0
 11
231.0459353265651
 21
7.050000000274849
 31
0.0
  0
LINE
  5
5F6A
330
1F
100
AcDbEntity
  8
0
100
AcDbLine
 10
218.5315632942256
 20
-14.64999999972497
 30
0.0
 11
231.0459353265651
 21
-14.64999999972542
 31
0.0
  0
LINE
  5
5F6E
330
1F
100
AcDbEntity
  8
0
  6
CENTER
100
AcDbLine
 10
2270.279931283804
 20
3.800000000274394
 30
0.0
 11
2296.937294092346
 21
3.800000000274394
 31
0.0
  0
LINE
  5
5F6F
330
1F
100
AcDbEntity
  8
0
100
AcDbLine
 10
2294.04273127707
 20
-13.1999999997256
 30
0.0
 11
2294.04273127707
 21
20.80000000027439
 31
0.0
  0
LINE
  5
5F70
330
1F
100
AcDbEntity
  8
0
100
AcDbLine
 10
2291.192731277071
 20
-12.42077348726388
 30
0.0
 11
2291.192731277071
 21
20.02077348781268
 31
0.0
  0
LINE
  5
5F71
330
1F
100
AcDbEntity
  8
0
100
AcDbLine
 10
2291.75289730764
 20
-13.1999999997256
 30
0.0
 11
2294.04273127707
 21
-13.1999999997256
 31
0.0
  0
LINE
  5
5F72
330
1F
100
AcDbEntity
  8
0
100
AcDbLine
 10
2288.95423642328
 20
14.64995868137293
 30
0.0
 11
2288.95423642328
 21
-7.049958680824147
 31
0.0
  0
LINE
  5
5F73
330
1F
100
AcDbEntity
  8
0
100
AcDbLine
 10
2291.001143211012
 20
-12.67361611438582
 30
0.0
 11
2289.433284501487
 21
-8.365959713074062
 31
0.0
  0
ARC
  5
5F74
330
1F
100
AcDbEntity
  8
0
100
AcDbCircle
 10
2291.75289730764
 20
-12.39999999972542
 30
0.0
 40
0.8
100
AcDbArc
 50
200.0000000000405
 51
270.0
1001
GENIUS_GENODEF_13
1002
{
1000
HIER
1070
     0
1002
}
1002
{
1000
MANEDIT
1070
     0
1002
}
1002
{
1000
NOSEL
1070
     0
1002
}
1002
{
1000
BEHIND
1070
     0
1002
}
1002
{
1000
OTHER
1070
     0
1002
}
1002
{
1000
REACTOR
1002
}
1001
GENIUS_GENOBJ-N-FIL_13
1002
{
1000
OWNER
1000
GEN
1002
}
  0
ARC
  5
5F75
330
1F
100
AcDbEntity
  8
0
100
AcDbCircle
 10
2287.553899259914
 20
-9.049999999725514
 30
0.0
 40
2.0
100
AcDbArc
 50
20.00000000004046
 51
90.0
1001
GENIUS_GENODEF_13
1002
{
1000
HIER
1070
     0
1002
}
1002
{
1000
MANEDIT
1070
     0
1002
}
1002
{
1000
NOSEL
1070
     0
1002
}
1002
{
1000
BEHIND
1070
     0
1002
}
1002
{
1000
OTHER
1070
     0
1002
}
1002
{
1000
REACTOR
1002
}
1001
GENIUS_GENOBJ-N-FIL_13
1002
{
1000
OWNER
1000
GEN
1002
}
  0
LINE
  5
5F76
330
1F
100
AcDbEntity
  8
0
100
AcDbLine
 10
2291.75289730764
 20
20.80000000027439
 30
0.0
 11
2294.04273127707
 21
20.80000000027439
 31
0.0
  0
LINE
  5
5F77
330
1F
100
AcDbEntity
  8
0
100
AcDbLine
 10
2291.001143211012
 20
20.27361611493507
 30
0.0
 11
2289.433284501487
 21
15.96595971362285
 31
0.0
  0
ARC
  5
5F78
330
1F
100
AcDbEntity
  8
0
100
AcDbCircle
 10
2291.75289730764
 20
20.00000000027421
 30
0.0
 40
0.8
100
AcDbArc
 50
90.0
 51
159.9999999999595
1001
GENIUS_GENODEF_13
1002
{
1000
HIER
1070
     0
1002
}
1002
{
1000
MANEDIT
1070
     0
1002
}
1002
{
1000
NOSEL
1070
     0
1002
}
1002
{
1000
BEHIND
1070
     0
1002
}
1002
{
1000
OTHER
1070
     0
1002
}
1002
{
1000
REACTOR
1002
}
1001
GENIUS_GENOBJ-N-FIL_13
1002
{
1000
OWNER
1000
GEN
1002
}
  0
ARC
  5
5F79
330
1F
100
AcDbEntity
  8
0
100
AcDbCircle
 10
2287.553899259914
 20
16.65000000027476
 30
0.0
 40
2.0
100
AcDbArc
 50
270.0
 51
339.9999999999595
1001
GENIUS_GENODEF_13
1002
{
1000
HIER
1070
     0
1002
}
1002
{
1000
MANEDIT
1070
     0
1002
}
1002
{
1000
NOSEL
1070
     0
1002
}
1002
{
1000
BEHIND
1070
     0
1002
}
1002
{
1000
OTHER
1070
     0
1002
}
1002
{
1000
REACTOR
1002
}
1001
GENIUS_GENOBJ-N-FIL_13
1002
{
1000
OWNER
1000
GEN
1002
}
  0
LINE
  5
5F7A
330
1F
100
AcDbEntity
  8
0
100
AcDbLine
 10
2287.553899259914
 20
-7.049999999725514
 30
0.0
 11
2275.039527227574
 21
-7.049999999725059
 31
0.0
  0
LINE
  5
5F7B
330
1F
100
AcDbEntity
  8
0
100
AcDbLine
 10
2287.553899259914
 20
14.65000000027476
 30
0.0
 11
2275.039527227574
 21
14.65000000027476
 31
0.0
  0
LINE
  5
67ED
330
1F
100
AcDbEntity
  8
0
100
AcDbLine
 10
12.99999999999272
 20
28.41764500000363
 30
0.0
 11
12.99999999999272
 21
47.00000000000364
 31
0.0
  0
LINE
  5
67EE
330
1F
100
AcDbEntity
  8
0
  6
CENTER
100
AcDbLine
 10
-29.62853799998993
 20
-40.00000000000546
 30
0.0
 11
23.27099800000724
 21
-39.99999999999409
 31
0.0
  0
ARC
  5
67EF
330
1F
100
AcDbEntity
  8
0
100
AcDbCircle
 10
0.0
 20
0.0000000000004547
 30
0.0
 40
31.25
100
AcDbArc
 50
275.5088750001494
 51
84.49112132892677
  0
ARC
  5
67F0
330
1F
100
AcDbEntity
  8
0
100
AcDbCircle
 10
0.0
 20
0.0000000000004547
 30
0.0
 40
22.25
100
AcDbArc
 50
277.7488760001487
 51
82.25113000020952
  0
ARC
  5
67F1
330
1F
100
AcDbEntity
  8
0
100
AcDbCircle
 10
0.0
 20
0.0000000000004547
 30
0.0
 40
24.25
100
AcDbArc
 50
277.7488760001487
 51
82.89365660234164
  0
ARC
  5
67F2
330
1F
100
AcDbEntity
  8
0
100
AcDbCircle
 10
0.0
 20
0.0000000000004547
 30
0.0
 40
22.25
100
AcDbArc
 50
97.7488700002106
 51
262.251125999973
  0
ARC
  5
67F3
330
1F
100
AcDbEntity
  8
0
100
AcDbCircle
 10
0.0
 20
0.0000000000004547
 30
0.0
 40
24.25
100
AcDbArc
 50
97.7488700002106
 51
262.251125999973
  0
ARC
  5
67F4
330
1F
100
AcDbEntity
  8
0
100
AcDbCircle
 10
0.0
 20
0.0000000000004547
 30
0.0
 40
31.25
100
AcDbArc
 50
95.50887999997563
 51
264.4911200000243
  0
ARC
  5
67F5
330
1F
100
AcDbEntity
  8
0
100
AcDbCircle
 10
-20.50000000000728
 20
44.9999999999959
 30
0.0
 40
1.0
100
AcDbArc
 50
90.0
 51
180.0000050089895
  0
ARC
  5
67F6
330
1F
100
AcDbEntity
  8
0
100
AcDbCircle
 10
-20.50000000000728
 20
34.99999999999591
 30
0.0
 40
1.0
100
AcDbArc
 50
179.999989999999
 51
269.9999960000204
  0
ARC
  5
67F7
330
1F
100
AcDbEntity
  8
0
100
AcDbCircle
 10
-11.85200500000428
 20
36.74999999999818
 30
0.0
 40
7.647994999999999
100
AcDbArc
 50
154.852619999996
 51
205.147371999908
  0
ARC
  5
67F8
330
1F
100
AcDbEntity
  8
0
100
AcDbCircle
 10
-11.85200500000792
 20
43.24999999999818
 30
0.0
 40
7.647994999999999
100
AcDbArc
 50
154.8526299998947
 51
205.147371999908
  0
ARC
  5
67F9
330
1F
100
AcDbEntity
  8
0
100
AcDbCircle
 10
-20.64799500000663
 20
36.74999999999591
 30
0.0
 40
7.647994999999999
100
AcDbArc
 50
334.8526299998947
 51
25.14737000015243
  0
ARC
  5
67FA
330
1F
100
AcDbEntity
  8
0
100
AcDbCircle
 10
-20.64799500001027
 20
43.2499999999959
 30
0.0
 40
7.647994999999999
100
AcDbArc
 50
334.8526299998947
 51
25.14737000015243
  0
ARC
  5
67FB
330
1F
100
AcDbEntity
  8
0
100
AcDbCircle
 10
10.85200499998973
 20
43.25000000000318
 30
0.0
 40
7.647994500000001
100
AcDbArc
 50
334.8526299998947
 51
25.14737000015243
  0
ARC
  5
67FC
330
1F
100
AcDbEntity
  8
0
100
AcDbCircle
 10
10.85200499999337
 20
36.75000000000319
 30
0.0
 40
7.647994500000001
100
AcDbArc
 50
334.8526299998947
 51
25.14737000015243
  0
ARC
  5
67FD
330
1F
100
AcDbEntity
  8
0
100
AcDbCircle
 10
10.85200500000792
 20
-43.24999999999682
 30
0.0
 40
7.647994500000001
100
AcDbArc
 50
334.8526299998947
 51
25.14737000015243
  0
ARC
  5
67FE
330
1F
100
AcDbEntity
  8
0
100
AcDbCircle
 10
10.85200500000792
 20
-36.74999999999682
 30
0.0
 40
7.647994500000001
100
AcDbArc
 50
334.8526299998947
 51
25.14737000015243
  0
ARC
  5
67FF
330
1F
100
AcDbEntity
  8
0
100
AcDbCircle
 10
-20.49999999998909
 20
-45.00000000000409
 30
0.0
 40
1.0
100
AcDbArc
 50
179.999989999999
 51
269.9999960000204
  0
ARC
  5
6800
330
1F
100
AcDbEntity
  8
0
100
AcDbCircle
 10
-20.49999999999272
 20
-35.00000000000409
 30
0.0
 40
1.0
100
AcDbArc
 50
90.0
 51
180.0000050089374
  0
ARC
  5
6801
330
1F
100
AcDbEntity
  8
0
100
AcDbCircle
 10
-11.85200499998973
 20
-36.75000000000182
 30
0.0
 40
7.647994999999999
100
AcDbArc
 50
154.8526299998947
 51
205.147374999916
  0
ARC
  5
6802
330
1F
100
AcDbEntity
  8
0
100
AcDbCircle
 10
-11.85200499998973
 20
-43.25000000000182
 30
0.0
 40
7.647994999999999
100
AcDbArc
 50
154.8526299998947
 51
205.1473680001138
  0
ARC
  5
6803
330
1F
100
AcDbEntity
  8
0
100
AcDbCircle
 10
-20.64799499999208
 20
-36.75000000000409
 30
0.0
 40
7.647994999999999
100
AcDbArc
 50
334.8526299998947
 51
25.14737000015243
  0
ARC
  5
6804
330
1F
100
AcDbEntity
  8
0
100
AcDbCircle
 10
-20.64799499999208
 20
-43.25000000000409
 30
0.0
 40
7.647994999999999
100
AcDbArc
 50
334.8526299998947
 51
25.14737000015243
  0
LINE
  5
6805
330
1F
100
AcDbEntity
  8
0
100
AcDbLine
 10
2.999999999992724
 20
47.00000000000136
 30
0.0
 11
2.999999999996362
 21
22.04682500000172
 31
0.0
  0
LINE
  5
6806
330
1F
100
AcDbEntity
  8
0
100
AcDbLine
 10
13.00000000000727
 20
-28.41764499999636
 30
0.0
 11
13.00000000001091
 21
-46.99999999999636
 31
0.0
  0
LINE
  5
6807
330
1F
100
AcDbEntity
  8
0
100
AcDbLine
 10
-3.000000000007275
 20
46.99999999999954
 30
0.0
 11
-3.000000000003637
 21
22.0468249999999
 31
0.0
  0
LINE
  5
6808
330
1F
100
AcDbEntity
  8
0
100
AcDbLine
 10
3.000000000010913
 20
-46.99999999999863
 30
0.0
 11
13.00000000001091
 21
-46.99999999999636
 31
0.0
  0
LINE
  5
6809
330
1F
100
AcDbEntity
  8
0
100
AcDbLine
 10
-12.99999999999272
 20
-28.41764500000227
 30
0.0
 11
-12.99999999998908
 21
-47.00000000000227
 31
0.0
  0
LINE
  5
680A
330
1F
100
AcDbEntity
  8
0
100
AcDbLine
 10
-2.999999999989086
 20
-47.00000000000045
 30
0.0
 11
-12.99999999998908
 21
-47.00000000000227
 31
0.0
  0
LINE
  5
680B
330
1F
100
AcDbEntity
  8
0
100
AcDbLine
 10
2.999999999992724
 20
47.00000000000136
 30
0.0
 11
12.99999999999272
 21
47.00000000000364
 31
0.0
  0
LINE
  5
680C
330
1F
100
AcDbEntity
  8
0
100
AcDbLine
 10
-3.000000000007275
 20
46.99999999999954
 30
0.0
 11
-13.00000000000727
 21
46.99999999999772
 31
0.0
  0
LINE
  5
680D
330
1F
100
AcDbEntity
  8
0
100
AcDbLine
 10
-13.00000000000727
 20
28.41764499999772
 30
0.0
 11
-13.00000000000727
 21
46.99999999999772
 31
0.0
  0
LINE
  5
680E
330
1F
100
AcDbEntity
  8
0
100
AcDbLine
 10
3.000000000003637
 20
-22.04682499999853
 30
0.0
 11
3.000000000010913
 21
-46.99999999999863
 31
0.0
  0
LINE
  5
680F
330
1F
100
AcDbEntity
  8
0
100
AcDbLine
 10
-2.999999999996362
 20
-22.04682500000036
 30
0.0
 11
-2.999999999989086
 21
-47.00000000000045
 31
0.0
  0
LINE
  5
6810
330
1F
100
AcDbEntity
  8
0
100
AcDbLine
 10
-3.000000000010913
 20
43.99999999999955
 30
0.0
 11
2.999999999989086
 21
44.00000000000136
 31
0.0
  0
LINE
  5
6811
330
1F
100
AcDbEntity
  8
0
100
AcDbLine
 10
-3.000000000007275
 20
35.99999999999955
 30
0.0
 11
2.999999999992724
 21
36.00000000000136
 31
0.0
  0
LINE
  5
6812
330
1F
100
AcDbEntity
  8
0
100
AcDbLine
 10
-2.999999999989086
 20
-44.00000000000045
 30
0.0
 11
3.000000000010913
 21
-43.99999999999863
 31
0.0
  0
LINE
  5
6813
330
1F
100
AcDbEntity
  8
0
100
AcDbLine
 10
-2.999999999989086
 20
-36.00000000000046
 30
0.0
 11
3.000000000010913
 21
-35.99999999999864
 31
0.0
  0
LINE
  5
6814
330
1F
100
AcDbEntity
  8
0
100
AcDbLine
 10
-27.00000000001092
 20
43.99999999999454
 30
0.0
 11
-21.50000000001091
 21
43.9999999999959
 31
0.0
  0
LINE
  5
6815
330
1F
100
AcDbEntity
  8
0
100
AcDbLine
 10
-21.50000000000728
 20
44.9999999999959
 30
0.0
 11
-21.50000000000728
 21
34.99999999999591
 31
0.0
  0
LINE
  5
6816
330
1F
100
AcDbEntity
  8
0
100
AcDbLine
 10
-27.00000000001092
 20
43.99999999999454
 30
0.0
 11
-27.00000000000728
 21
35.99999999999454
 31
0.0
  0
LINE
  5
6817
330
1F
100
AcDbEntity
  8
0
100
AcDbLine
 10
-20.50000000000728
 20
45.99999999999591
 30
0.0
 11
-19.50000000000727
 21
45.99999999999636
 31
0.0
  0
LINE
  5
6818
330
1F
100
AcDbEntity
  8
0
100
AcDbLine
 10
-20.50000000000728
 20
33.99999999999591
 30
0.0
 11
-19.50000000000727
 21
33.99999999999636
 31
0.0
  0
LINE
  5
6819
330
1F
100
AcDbEntity
  8
0
100
AcDbLine
 10
-19.50000000000727
 20
33.49999999999636
 30
0.0
 11
-19.50000000000727
 21
46.49999999999636
 31
0.0
  0
LINE
  5
681A
330
1F
100
AcDbEntity
  8
0
100
AcDbLine
 10
-19.50000000000727
 20
33.49999999999636
 30
0.0
 11
-13.00000000000727
 21
33.49999999999773
 31
0.0
  0
LINE
  5
681B
330
1F
100
AcDbEntity
  8
0
100
AcDbLine
 10
-19.50000000000727
 20
46.49999999999636
 30
0.0
 11
-13.00000000000727
 21
46.49999999999772
 31
0.0
  0
LINE
  5
681C
330
1F
100
AcDbEntity
  8
0
100
AcDbLine
 10
-27.00000000000728
 20
35.99999999999454
 30
0.0
 11
-21.50000000000728
 21
35.99999999999591
 31
0.0
  0
LINE
  5
681D
330
1F
100
AcDbEntity
  8
0
100
AcDbLine
 10
18.49999999998908
 20
43.25000000000454
 30
0.0
 11
18.49999999999272
 21
36.75000000000455
 31
0.0
  0
LINE
  5
681E
330
1F
100
AcDbEntity
  8
0
100
AcDbLine
 10
17.77510599999368
 20
46.50000000000409
 30
0.0
 11
12.99999999999272
 21
46.50000000000363
 31
0.0
  0
LINE
  5
681F
330
1F
100
AcDbEntity
  8
0
100
AcDbLine
 10
17.77510599999368
 20
33.50000000000409
 30
0.0
 11
12.99999999999272
 21
33.50000000000364
 31
0.0
  0
LINE
  5
6820
330
1F
100
AcDbEntity
  8
0
100
AcDbLine
 10
18.50000000000727
 20
-43.24999999999545
 30
0.0
 11
18.50000000000727
 21
-36.74999999999545
 31
0.0
  0
LINE
  5
6821
330
1F
100
AcDbEntity
  8
0
100
AcDbLine
 10
17.77510600001187
 20
-46.4999999999959
 30
0.0
 11
13.00000000001091
 21
-46.49999999999636
 31
0.0
  0
LINE
  5
6822
330
1F
100
AcDbEntity
  8
0
100
AcDbLine
 10
17.77510600000823
 20
-33.49999999999591
 30
0.0
 11
13.00000000000727
 21
-33.49999999999636
 31
0.0
  0
LINE
  5
6823
330
1F
100
AcDbEntity
  8
0
100
AcDbLine
 10
-26.99999999998909
 20
-44.00000000000545
 30
0.0
 11
-21.49999999998909
 21
-44.00000000000409
 31
0.0
  0
LINE
  5
6824
330
1F
100
AcDbEntity
  8
0
100
AcDbLine
 10
-21.49999999998909
 20
-45.00000000000409
 30
0.0
 11
-21.49999999999272
 21
-35.00000000000409
 31
0.0
  0
LINE
  5
6825
330
1F
100
AcDbEntity
  8
0
100
AcDbLine
 10
-26.99999999998909
 20
-44.00000000000545
 30
0.0
 11
-26.99999999998909
 21
-36.00000000000546
 31
0.0
  0
LINE
  5
6826
330
1F
100
AcDbEntity
  8
0
100
AcDbLine
 10
-20.49999999998909
 20
-46.00000000000409
 30
0.0
 11
-19.49999999998908
 21
-46.00000000000363
 31
0.0
  0
LINE
  5
6827
330
1F
100
AcDbEntity
  8
0
100
AcDbLine
 10
-20.49999999999272
 20
-34.00000000000409
 30
0.0
 11
-19.49999999999272
 21
-34.00000000000364
 31
0.0
  0
LINE
  5
6828
330
1F
100
AcDbEntity
  8
0
100
AcDbLine
 10
-19.49999999999272
 20
-33.50000000000364
 30
0.0
 11
-19.49999999998908
 21
-46.50000000000363
 31
0.0
  0
LINE
  5
6829
330
1F
100
AcDbEntity
  8
0
100
AcDbLine
 10
-19.49999999999272
 20
-33.50000000000364
 30
0.0
 11
-12.99999999999272
 21
-33.50000000000227
 31
0.0
  0
LINE
  5
682A
330
1F
100
AcDbEntity
  8
0
100
AcDbLine
 10
-19.49999999998908
 20
-46.50000000000363
 30
0.0
 11
-12.99999999998908
 21
-46.50000000000227
 31
0.0
  0
LINE
  5
682B
330
1F
100
AcDbEntity
  8
0
100
AcDbLine
 10
-26.99999999998909
 20
-36.00000000000546
 30
0.0
 11
-21.49999999998909
 21
-36.00000000000409
 31
0.0
  0
LINE
  5
682C
330
1F
100
AcDbEntity
  8
0
  6
CENTER
100
AcDbLine
 10
-29.32865500000844
 20
39.99999999999409
 30
0.0
 11
21.29176299999017
 21
40.00000000000546
 31
0.0
  0
LINE
  5
682D
330
1F
100
AcDbEntity
  8
0
  6
CENTER
100
AcDbLine
 10
0.0000000000218279
 20
-94.0
 30
0.0
 11
-0.0000000000218279
 21
94.00000000000046
 31
0.0
  0
LINE
  5
682E
330
1F
100
AcDbEntity
  8
0
  6
CENTER
100
AcDbLine
 10
-48.7431269094559
 20
-0.0000000000104592
 30
0.0
 11
48.74312690945953
 21
0.0000000000109139
 31
0.0
  0
LINE
  5
68A0
330
1F
100
AcDbEntity
  8
0
  6
CENTER
100
AcDbLine
 10
-21.80953060017782
 20
-3.799999999997453
 30
0.0
 11
21.80953060017782
 21
-3.799999999988358
 31
0.0
  0
CIRCLE
  5
68A4
330
1F
100
AcDbEntity
  8
AM_0_T3
100
AcDbCircle
 10
0.0
 20
-3.799999999992905
 30
0.0
 40
17.0
  0
CIRCLE
  5
68A5
330
1F
100
AcDbEntity
  8
AM_0_T3
100
AcDbCircle
 10
0.0
 20
-3.799999999992905
 30
0.0
 40
10.85000000000036
  0
ARC
  5
7052
330
1F
100
AcDbEntity
  8
0
100
AcDbCircle
 10
2174.042731277078
 20
26.32852434540064
 30
0.0
 40
15.42520711696295
100
AcDbArc
 50
208.1550708999081
 51
331.8449291000624
  0
LINE
  5
7053
330
1F
100
AcDbEntity
  8
0
100
AcDbLine
 10
2224.042731277073
 20
71.00000000027989
 30
0.0
 11
2124.042731277073
 21
71.00000000027989
 31
0.0
  0
LINE
  5
7054
330
1F
100
AcDbEntity
  8
0
100
AcDbLine
 10
2124.042731277073
 20
85.0000000002799
 30
0.0
 11
2224.042731277073
 21
85.0000000002808
 31
0.0
  0
LINE
  5
7055
330
1F
100
AcDbEntity
  8
0
  6
CENTER
100
AcDbLine
 10
2136.542731277073
 20
94.0000000002799
 30
0.0
 11
2136.542731277073
 21
61.00000000027989
 31
0.0
  0
LINE
  5
7056
330
1F
100
AcDbEntity
  8
0
100
AcDbLine
 10
2124.042731277073
 20
71.00000000027989
 30
0.0
 11
2124.042731277073
 21
85.0000000002799
 31
0.0
  0
LINE
  5
7057
330
1F
100
AcDbEntity
  8
0
  6
CENTER
100
AcDbLine
 10
2211.542731277074
 20
94.0000000002799
 30
0.0
 11
2211.542731277074
 21
61.00000000027989
 31
0.0
  0
LINE
  5
7058
330
1F
100
AcDbEntity
  8
0
100
AcDbLine
 10
2224.042731277073
 20
85.0000000002808
 30
0.0
 11
2224.042731277073
 21
71.00000000027989
 31
0.0
  0
LINE
  5
7059
330
1F
100
AcDbEntity
  8
0
100
AcDbLine
 10
2160.442731277075
 20
71.00000000027989
 30
0.0
 11
2160.442731277076
 21
19.04999327099108
 31
0.0
  0
LINE
  5
705A
330
1F
100
AcDbEntity
  8
0
100
AcDbLine
 10
2187.642731277076
 20
71.00000000027989
 30
0.0
 11
2187.642731277076
 21
19.04999327099131
 31
0.0
  0
ARC
  5
7061
330
1F
100
AcDbEntity
  8
0
100
AcDbCircle
 10
332.0427312770694
 20
-26.32852434424945
 30
0.0
 40
15.42520711696295
100
AcDbArc
 50
28.15507089990236
 51
151.8449291000566
  0
LINE
  5
7062
330
1F
100
AcDbEntity
  8
0
100
AcDbLine
 10
282.0427312770735
 20
-70.99999999912871
 30
0.0
 11
382.0427312770735
 21
-70.99999999912871
 31
0.0
  0
LINE
  5
7063
330
1F
100
AcDbEntity
  8
0
100
AcDbLine
 10
382.0427312770735
 20
-84.99999999912871
 30
0.0
 11
282.0427312770735
 21
-84.99999999912962
 31
0.0
  0
LINE
  5
7064
330
1F
100
AcDbEntity
  8
0
  6
CENTER
100
AcDbLine
 10
369.5427312770735
 20
-93.9999999991287
 30
0.0
 11
369.5427312770735
 21
-60.99999999912871
 31
0.0
  0
LINE
  5
7065
330
1F
100
AcDbEntity
  8
0
100
AcDbLine
 10
382.0427312770735
 20
-70.99999999912871
 30
0.0
 11
382.0427312770735
 21
-84.99999999912871
 31
0.0
  0
LINE
  5
7066
330
1F
100
AcDbEntity
  8
0
  6
CENTER
100
AcDbLine
 10
294.5427312770735
 20
-93.9999999991287
 30
0.0
 11
294.5427312770735
 21
-60.99999999912871
 31
0.0
  0
LINE
  5
7067
330
1F
100
AcDbEntity
  8
0
100
AcDbLine
 10
282.0427312770735
 20
-84.99999999912962
 30
0.0
 11
282.0427312770735
 21
-70.99999999912871
 31
0.0
  0
LINE
  5
7068
330
1F
100
AcDbEntity
  8
0
100
AcDbLine
 10
345.642731277072
 20
-70.99999999912871
 30
0.0
 11
345.6427312770716
 21
-19.04999326983989
 31
0.0
  0
LINE
  5
7069
330
1F
100
AcDbEntity
  8
0
100
AcDbLine
 10
318.4427312770713
 20
-70.99999999912871
 30
0.0
 11
318.4427312770708
 21
-19.04999326984011
 31
0.0
  0
LINE
  5
706A
330
1F
100
AcDbEntity
  8
0
100
AcDbLine
 10
50.00000000001637
 20
70.99999999942179
 30
0.0
 11
-49.99999999998363
 21
70.99999999942179
 31
0.0
  0
LINE
  5
706B
330
1F
100
AcDbEntity
  8
0
100
AcDbLine
 10
-49.99999999998363
 20
84.99999999942179
 30
0.0
 11
50.00000000001637
 21
84.9999999994227
 31
0.0
  0
LINE
  5
706C
330
1F
100
AcDbEntity
  8
0
  6
CENTER
100
AcDbLine
 10
-37.49999999998363
 20
93.99999999942179
 30
0.0
 11
-37.49999999998363
 21
60.99999999942179
 31
0.0
  0
LINE
  5
706D
330
1F
100
AcDbEntity
  8
0
100
AcDbLine
 10
-49.99999999998363
 20
70.99999999942179
 30
0.0
 11
-49.99999999998363
 21
84.99999999942179
 31
0.0
  0
LINE
  5
706E
330
1F
100
AcDbEntity
  8
0
  6
CENTER
100
AcDbLine
 10
37.50000000001637
 20
93.99999999942179
 30
0.0
 11
37.50000000001637
 21
60.99999999942179
 31
0.0
  0
LINE
  5
706F
330
1F
100
AcDbEntity
  8
0
100
AcDbLine
 10
50.00000000001637
 20
84.9999999994227
 30
0.0
 11
50.00000000001637
 21
70.99999999942179
 31
0.0
  0
LINE
  5
7070
330
1F
100
AcDbEntity
  8
0
100
AcDbLine
 10
-13.59999999998217
 20
70.99999999942179
 30
0.0
 11
-13.59999999998194
 21
46.49999999959777
 31
0.0
  0
LINE
  5
7071
330
1F
100
AcDbEntity
  8
0
100
AcDbLine
 10
-13.5999999999749
 20
33.49999999959778
 30
0.0
 11
-13.5999999999774
 21
28.13543139847343
 31
0.0
  0
LINE
  5
7072
330
1F
100
AcDbEntity
  8
0
100
AcDbLine
 10
13.60000000001855
 20
70.99999999942179
 30
0.0
 11
13.60000000000673
 21
46.49999999958595
 31
0.0
  0
LINE
  5
7073
330
1F
100
AcDbEntity
  8
0
100
AcDbLine
 10
13.60000000002583
 20
33.49999999958595
 30
0.0
 11
13.6000000000231
 21
28.06832241535039
 31
0.0
  0
LINE
  5
7074
330
1F
100
AcDbEntity
  8
0
100
AcDbLine
 10
-49.99999999998022
 20
-70.99999999998636
 30
0.0
 11
50.00000000002001
 21
-70.99999999998636
 31
0.0
  0
LINE
  5
7075
330
1F
100
AcDbEntity
  8
0
100
AcDbLine
 10
50.00000000002001
 20
-84.99999999998635
 30
0.0
 11
-49.99999999998022
 21
-84.99999999998726
 31
0.0
  0
LINE
  5
7076
330
1F
100
AcDbEntity
  8
0
  6
CENTER
100
AcDbLine
 10
37.50000000002001
 20
-93.99999999998636
 30
0.0
 11
37.50000000002001
 21
-60.99999999998636
 31
0.0
  0
LINE
  5
7077
330
1F
100
AcDbEntity
  8
0
100
AcDbLine
 10
50.00000000002001
 20
-70.99999999998636
 30
0.0
 11
50.00000000002001
 21
-84.99999999998635
 31
0.0
  0
LINE
  5
7078
330
1F
100
AcDbEntity
  8
0
  6
CENTER
100
AcDbLine
 10
-37.49999999998022
 20
-93.99999999998636
 30
0.0
 11
-37.49999999998022
 21
-60.99999999998636
 31
0.0
  0
LINE
  5
7079
330
1F
100
AcDbEntity
  8
0
100
AcDbLine
 10
-49.99999999998022
 20
-84.99999999998726
 30
0.0
 11
-49.99999999998022
 21
-70.99999999998636
 31
0.0
  0
LINE
  5
707A
330
1F
100
AcDbEntity
  8
0
100
AcDbLine
 10
13.60000000001855
 20
-70.99999999998636
 30
0.0
 11
13.6000000000181
 21
-46.50000000016246
 31
0.0
  0
LINE
  5
707B
330
1F
100
AcDbEntity
  8
0
100
AcDbLine
 10
13.60000000001082
 20
-33.50000000016246
 30
0.0
 11
13.60000000001355
 21
-28.13543139903811
 31
0.0
  0
LINE
  5
707C
330
1F
100
AcDbEntity
  8
0
100
AcDbLine
 10
-13.5999999999824
 20
-70.99999999998636
 30
0.0
 11
-13.59999999997035
 21
-46.50000000015052
 31
0.0
  0
LINE
  5
707D
330
1F
100
AcDbEntity
  8
0
100
AcDbLine
 10
-13.5999999999899
 20
-33.50000000015052
 30
0.0
 11
-13.5999999999874
 21
-28.06832241591508
 31
0.0
  0
LINE
  5
707E
330
1F
100
AcDbEntity
  8
0
  6
CENTER
100
AcDbLine
 10
346.1848669008068
 20
425.8136151733237
 30
0.0
 11
370.9336042423347
 21
450.5623525148535
 31
0.0
  0
LINE
  5
707F
330
1F
100
AcDbEntity
  8
0
  6
CENTER
100
AcDbLine
 10
317.9005956533438
 20
425.8136151733237
 30
0.0
 11
293.1518583118159
 21
450.5623525148535
 31
0.0
  0
LINE
  5
7080
330
1F
100
AcDbEntity
  8
0
  6
CENTER
100
AcDbLine
 10
317.9005956533438
 20
397.5293439258626
 30
0.0
 11
293.1518583118159
 21
372.7806065843329
 31
0.0
  0
LINE
  5
7081
330
1F
100
AcDbEntity
  8
0
  6
CENTER
100
AcDbLine
 10
346.1848669008068
 20
397.5293439258626
 30
0.0
 11
370.9336042423347
 21
372.7806065843329
 31
0.0
  0
CIRCLE
  5
7082
330
1F
100
AcDbEntity
  8
0
100
AcDbCircle
 10
332.0427312770771
 20
411.6714795495932
 30
0.0
 40
50.0
  0
ARC
  5
7083
330
1F
100
AcDbEntity
  8
0
  6
CENTER
100
AcDbCircle
 10
332.0427312770771
 20
411.6714795495929
 30
0.0
 40
37.49999999999994
100
AcDbArc
 50
210.5307108601763
 51
329.4692891398237
  0
ARC
  5
7084
330
1F
100
AcDbEntity
  8
0
  6
CENTER
100
AcDbCircle
 10
332.0427312770771
 20
411.6714795495932
 30
0.0
 40
37.49999999999994
100
AcDbArc
 50
30.53069040219082
 51
149.4693095978091
  0
CIRCLE
  5
7085
330
1F
100
AcDbEntity
  8
0
100
AcDbCircle
 10
305.5262269825798
 20
438.1879838440887
 30
0.0
 40
7.5
  0
CIRCLE
  5
7086
330
1F
100
AcDbEntity
  8
0
100
AcDbCircle
 10
358.5592355715708
 20
438.1879838440887
 30
0.0
 40
7.5
  0
CIRCLE
  5
7087
330
1F
100
AcDbEntity
  8
0
100
AcDbCircle
 10
305.5262269825798
 20
385.1549752550977
 30
0.0
 40
7.5
  0
CIRCLE
  5
7088
330
1F
100
AcDbEntity
  8
0
100
AcDbCircle
 10
358.5592355715708
 20
385.1549752550977
 30
0.0
 40
7.5
  0
LINE
  5
7089
330
1F
100
AcDbEntity
  8
0
  6
CENTER
100
AcDbLine
 10
2188.18486690081
 20
425.8136151733246
 30
0.0
 11
2212.933604242338
 21
450.5623525148544
 31
0.0
  0
LINE
  5
708A
330
1F
100
AcDbEntity
  8
0
  6
CENTER
100
AcDbLine
 10
2159.900595653347
 20
425.8136151733246
 30
0.0
 11
2135.15185831182
 21
450.5623525148544
 31
0.0
  0
LINE
  5
708B
330
1F
100
AcDbEntity
  8
0
  6
CENTER
100
AcDbLine
 10
2159.900595653347
 20
397.5293439258635
 30
0.0
 11
2135.15185831182
 21
372.7806065843338
 31
0.0
  0
LINE
  5
708C
330
1F
100
AcDbEntity
  8
0
  6
CENTER
100
AcDbLine
 10
2188.18486690081
 20
397.5293439258635
 30
0.0
 11
2212.933604242338
 21
372.7806065843338
 31
0.0
  0
CIRCLE
  5
708D
330
1F
100
AcDbEntity
  8
0
100
AcDbCircle
 10
2174.042731277081
 20
411.6714795495941
 30
0.0
 40
50.0
  0
CIRCLE
  5
708E
330
1F
100
AcDbEntity
  8
0
  6
CENTER
100
AcDbCircle
 10
2174.042731277081
 20
411.6714795495941
 30
0.0
 40
37.5
  0
CIRCLE
  5
708F
330
1F
100
AcDbEntity
  8
0
100
AcDbCircle
 10
2147.526226982583
 20
438.1879838440895
 30
0.0
 40
7.5
  0
CIRCLE
  5
7090
330
1F
100
AcDbEntity
  8
0
100
AcDbCircle
 10
2200.559235571574
 20
438.1879838440895
 30
0.0
 40
7.5
  0
CIRCLE
  5
7091
330
1F
100
AcDbEntity
  8
0
100
AcDbCircle
 10
2147.526226982583
 20
385.1549752550986
 30
0.0
 40
7.5
  0
CIRCLE
  5
7092
330
1F
100
AcDbEntity
  8
0
100
AcDbCircle
 10
2200.559235571574
 20
385.1549752550986
 30
0.0
 40
7.5
  0
CIRCLE
  5
7093
330
1F
100
AcDbEntity
  8
AM_0_T3
100
AcDbCircle
 10
2174.042731277078
 20
411.6714795495941
 30
0.0
 40
13.59999999999991
  0
ENDSEC
  0
SECTION
  2
OBJECTS
  0
DICTIONARY
  5
C
330
0
100
AcDbDictionary
281
     1
  3
ACAD_2007HEADERVARS_RT
350
70F2
  3
ACAD_COLOR
350
51E
  3
ACAD_GROUP
350
D
  3
ACAD_LAYOUT
350
1A
  3
ACAD_MATERIAL
350
51D
  3
ACAD_MLEADERSTYLE
350
605
  3
ACAD_MLINESTYLE
350
17
  3
ACAD_PLOTSETTINGS
350
19
  3
ACAD_PLOTSTYLENAME
350
E
  3
ACAD_SCALELIST
350
5E3
  3
ACAD_TABLESTYLE
350
51F
  3
ACAD_VISUALSTYLE
350
5AF
  3
AcadDim
350
414
  3
ACDB_RECOMPOSE_DATA
350
70F1
  3
ACDBHEADERROUNDTRIPXREC
350
6B11
  3
AcDbVariableDictionary
350
34
  3
AcmDictionary
350
49
  3
AcmSystemVariableManager
350
6AEF
  3
AMG
350
2B
  3
AMGSNAPSETTINGS
350
E5
  3
ASE_INDEX_DICTIONARY
350
2E7
  0
DICTIONARY
  5
2E0A
330
8
100
AcDbDictionary
280
     1
281
     1
  0
DICTIONARY
  5
D1
330
2
100
AcDbDictionary
280
     1
281
     1
  3
ACAD_LAYERFILTERS
360
7D3
  3
ACAD_LAYERSTATES
360
836
  3
ACLYDICTIONARY
360
7D2
  3
AMLAYER_GROUPCOLORS
360
D2
  0
DICTIONARY
  5
789
330
10
100
AcDbDictionary
280
     1
281
     1
  3
ADSK_XREC_LAYER_RECONCILED
360
7F3
  0
DICTIONARY
  5
78B
330
287
100
AcDbDictionary
280
     1
281
     1
  3
ADSK_XREC_LAYER_RECONCILED
360
7F4
  0
DICTIONARY
  5
82
330
1F
100
AcDbDictionary
280
     1
281
     1
  3
ACAD_LAYOUTSELFREF
360
6B38
  3
ACAD_SORTENTS
360
B80
  0
DICTIONARY
  5
6AF9
330
1B
100
AcDbDictionary
280
     1
281
     1
  3
ACAD_LAYOUTSELFREF
360
6B37
  0
DICTIONARY
  5
6AFB
330
23
100
AcDbDictionary
280
     1
281
     1
  3
ACAD_LAYOUTSELFREF
360
6B39
  0
DICTIONARY
  5
6CFE
330
6B58
100
AcDbDictionary
280
     1
281
     1
  3
ACAD_SORTENTS
360
6CFF
  0
DICTIONARY
  5
70F2
102
{ACAD_REACTORS
330
C
102
}
330
C
100
AcDbDictionary
281
     1
  3
DIMARCSYM
350
70F3
  3
DIMLTEX1
350
70F5
  3
DIMLTEX2
350
70F6
  3
DIMLTYPE
350
70F4
  0
DICTIONARY
  5
51E
102
{ACAD_REACTORS
330
C
102
}
330
C
100
AcDbDictionary
281
     1
  0
DICTIONARY
  5
D
102
{ACAD_REACTORS
330
C
102
}
330
C
100
AcDbDictionary
281
     1
  0
DICTIONARY
  5
1A
102
{ACAD_REACTORS
330
C
102
}
330
C
100
AcDbDictionary
281
     1
  3
Layout1
350
1E
  3
Layout2
350
26
  3
Model
350
22
  0
DICTIONARY
  5
51D
102
{ACAD_REACTORS
330
C
102
}
330
C
100
AcDbDictionary
281
     1
  3
ByBlock
350
5AD
  3
ByLayer
350
5AC
  3
Global
350
5AE
  0
DICTIONARY
  5
605
102
{ACAD_REACTORS
330
C
102
}
330
C
100
AcDbDictionary
281
     1
  3
Standard
350
606
  3
TSKE
350
719
  0
DICTIONARY
  5
17
102
{ACAD_REACTORS
330
C
102
}
330
C
100
AcDbDictionary
281
     1
  3
Standard
350
18
  0
DICTIONARY
  5
19
102
{ACAD_REACTORS
330
C
102
}
330
C
100
AcDbDictionary
281
     1
  0
ACDBDICTIONARYWDFLT
  5
E
102
{ACAD_REACTORS
330
C
102
}
330
C
100
AcDbDictionary
281
     1
  3
Normal
350
F
100
AcDbDictionaryWithDefault
340
F
  0
DICTIONARY
  5
5E3
102
{ACAD_REACTORS
330
C
102
}
330
C
100
AcDbDictionary
281
     1
  3
A0
350
5E4
  3
A1
350
5E5
  3
A2
350
5E6
  3
A3
350
5E7
  3
A4
350
5E8
  3
A5
350
5E9
  3
A6
350
5EA
  3
A7
350
5EB
  3
A8
350
5EC
  3
A9
350
5ED
  3
B0
350
5EE
  3
B1
350
5EF
  3
B2
350
5F0
  3
B3
350
5F1
  3
B4
350
5F2
  3
B5
350
5F3
  3
B6
350
5F4
  3
B7
350
5F5
  3
B8
350
5F6
  3
B9
350
5F7
  3
C0
350
5F8
  3
C1
350
5F9
  3
C2
350
5FA
  3
C3
350
5FB
  3
C4
350
5FC
  3
C5
350
5FD
  3
C6
350
5FE
  3
C7
350
5FF
  3
C8
350
600
  3
C9
350
601
  3
D0
350
602
  3
D1
350
603
  3
D2
350
604
  0
DICTIONARY
  5
51F
102
{ACAD_REACTORS
330
C
102
}
330
C
100
AcDbDictionary
281
     1
  3
Standard
350
520
  0
DICTIONARY
  5
5AF
102
{ACAD_REACTORS
330
C
102
}
330
C
100
AcDbDictionary
281
     1
  3
2dWireframe
350
5B5
  3
3D Hidden
350
5B7
  3
3dWireframe
350
5B6
  3
Basic
350
5B4
  3
Brighten
350
5BB
  3
ColorChange
350
5BF
  3
Conceptual
350
5B8
  3
Dim
350
5BA
  3
EdgeColorOff
350
6B53
  3
Facepattern
350
5BE
  3
Flat
350
5B0
  3
FlatWithEdges
350
5B1
  3
Gouraud
350
5B2
  3
GouraudWithEdges
350
5B3
  3
Hidden
350
6B4B
  3
JitterOff
350
6B51
  3
Linepattern
350
5BD
  3
OverhangOff
350
6B52
  3
Realistic
350
5B9
  3
Shaded
350
6B50
  3
Shaded with edges
350
6B4F
  3
Shades of Gray
350
6B4C
  3
Sketchy
350
6B4D
  3
Thicken
350
5BC
  3
Wireframe
350
6B4A
  3
X-Ray
350
6B4E
  0
XRECORD
  5
414
102
{ACAD_REACTORS
330
C
102
}
330
C
100
AcDbXrecord
280
     1
 90
   990106
  3

 60
     0
 61
     0
 62
     4
 63
     4
 64
     1
 65
     0
 66
     0
 67
     3
 68
     1
 69
     0
 70
     0
 71
     0
 72
     0
 40
0.0
170
     2
  0
XRECORD
  5
70F1
102
{ACAD_REACTORS
330
C
102
}
330
C
100
AcDbXrecord
280
     1
 90
        1
330
520
  0
DICTIONARY
  5
6B11
102
{ACAD_REACTORS
330
C
102
}
330
C
100
AcDbDictionary
281
     1
  3
CEPSNTYPE
350
6B1B
  3
FINGERPRINTGUID
350
6B1C
  3
HYPERLINKBASE
350
6B14
  3
INSUNITS
350
6B1A
  3
LAYOUTDICT
350
6B16
  3
LWETCUNION
350
6B19
  3
PLOTSETDICT
350
6B17
  3
PLOTSTYLNAMDICT
350
6B18
  3
PSVPSCALE
350
6B1E
  3
PUCSBASE
350
6B21
  3
PUCSORGBACK
350
6B27
  3
PUCSORGBOTTOM
350
6B23
  3
PUCSORGFRONT
350
6B26
  3
PUCSORGLEFT
350
6B24
  3
PUCSORGRIGHT
350
6B25
  3
PUCSORGTOP
350
6B22
  3
PUCSORTHOREF
350
6B1F
  3
PUCSORTHOVIEW
350
6B20
  3
STYLESHEET
350
6B15
  3
TSTACKALIGN
350
6B12
  3
TSTACKSIZE
350
6B13
  3
UCSBASE
350
6B2A
  3
UCSORGBACK
350
6B30
  3
UCSORGBOTTOM
350
6B2C
  3
UCSORGFRONT
350
6B2F
  3
UCSORGLEFT
350
6B2D
  3
UCSORGRIGHT
350
6B2E
  3
UCSORGTOP
350
6B2B
  3
UCSORTHOREF
350
6B28
  3
UCSORTHOVIEW
350
6B29
  3
VERSIONGUID
350
6B1D
  0
DICTIONARY
  5
34
102
{ACAD_REACTORS
330
C
102
}
330
C
100
AcDbDictionary
281
     1
  3
CANNOSCALE
350
629
  3
CMLEADERSTYLE
350
627
  3
CTABLESTYLE
350
5AA
  3
DIMASSOC
350
AC
  3
INDEXCTL
350
35
  3
LAYEREVAL
350
6C0
  3
LAYERNOTIFY
350
6C1
  3
LIGHTINGUNITS
350
62A
  3
MSLTSCALE
350
628
  3
SORTENTS
350
2E1E
  3
XCLIPFRAME
350
70EF
  0
DICTIONARY
  5
49
102
{ACAD_REACTORS
330
C
102
}
330
C
100
AcDbDictionary
281
     1
  3
AcmStdDictionary
350
4A
  3
AMDTSECTSYM_ARROWCOLOR
350
56E
  0
ACAD_PROXY_OBJECT
  5
6AEF
102
{ACAD_REACTORS
330
C
102
}
330
C
100
AcDbProxyObject
 90
      499
 91
      508
 95
   851991
 70
     0
 93
       32
310
9014220000
330
0
 94
        0
  0
DICTIONARY
  5
2B
102
{ACAD_REACTORS
330
C
102
}
330
C
100
AcDbDictionary
281
     1
  0
DICTIONARY
  5
E5
102
{ACAD_REACTORS
330
C
102
}
330
C
100
AcDbDictionary
281
     1
  0
DICTIONARY
  5
2E7
102
{ACAD_REACTORS
330
C
102
}
330
C
100
AcDbDictionary
281
     1
  3
ASEBlockHierarchyIndexRecord
350
2E9
1001
DCO15
1040
1468142506.343
  0
DICTIONARY
  5
7D3
102
{ACAD_REACTORS
330
D1
102
}
330
D1
100
AcDbDictionary
281
     1
  0
DICTIONARY
  5
836
102
{ACAD_REACTORS
330
D1
102
}
330
D1
100
AcDbDictionary
281
     1
  0
DICTIONARY
  5
7D2
102
{ACAD_REACTORS
330
D1
102
}
330
D1
100
AcDbDictionary
281
     1
1001
ACAD
1000
<All
  0
DICTIONARY
  5
D2
102
{ACAD_REACTORS
330
D1
102
}
330
D1
100
AcDbDictionary
280
     1
281
     1
  0
XRECORD
  5
7F3
102
{ACAD_REACTORS
330
789
102
}
330
789
100
AcDbXrecord
280
     1
290
     1
  0
XRECORD
  5
7F4
102
{ACAD_REACTORS
330
78B
102
}
330
78B
100
AcDbXrecord
280
     1
290
     1
  0
XRECORD
  5
6B38
102
{ACAD_REACTORS
330
82
102
}
330
82
100
AcDbXrecord
280
     1
340
1F
  0
SORTENTSTABLE
  5
B80
102
{ACAD_REACTORS
330
82
102
}
330
82
100
AcDbSortentsTable
330
1F
331
51DC
  5
51DF
331
521F
  5
5224
331
519D
  5
51A0
331
525E
  5
5263
331
51D8
  5
51DB
331
521B
  5
5220
331
525A
  5
525F
331
51D4
  5
51D7
331
5199
  5
519C
331
51D0
  5
51D3
331
5F68
  5
5F6A
331
5256
  5
525B
331
5F64
  5
5F66
331
5299
  5
5357
331
5F60
  5
5F62
331
5217
  5
521C
331
5213
  5
5218
331
51C8
  5
51CD
331
520F
  5
5214
331
51C4
  5
51C7
331
520B
  5
5210
331
5289
  5
528E
331
524A
  5
524F
331
5F5C
  5
5F5E
331
51C0
  5
51C3
331
5285
  5
528A
331
5246
  5
524B
331
5F58
  5
5F5A
331
5281
  5
5286
331
5242
  5
5247
331
5F54
  5
5F56
331
5F50
  5
5F52
331
514D
  5
5150
331
5207
  5
520C
331
5149
  5
514C
331
51BC
  5
51BF
331
5203
  5
5208
331
5145
  5
5148
331
51B8
  5
51BB
331
51FF
  5
5204
331
523E
  5
5243
331
527D
  5
5282
331
5141
  5
5144
331
51B4
  5
51B7
331
5279
  5
527E
331
523A
  5
523F
331
5F4C
  5
5F4E
331
51B0
  5
51B3
331
5236
  5
523B
331
5275
  5
527A
331
5F48
  5
5F4A
331
5271
  5
5276
331
5232
  5
5237
331
5F44
  5
5F46
331
513D
  5
5140
331
5139
  5
513C
331
51AC
  5
51AF
331
51F3
  5
51F6
331
51A8
  5
51AB
331
526D
  5
5272
331
522E
  5
5233
331
51E3
  5
51E6
331
51A4
  5
51A7
331
5269
  5
526E
331
522A
  5
522F
331
5F7B
  5
5F7D
331
51A0
  5
51A3
331
5265
  5
526A
331
5226
  5
522B
331
5F77
  5
5F79
331
5222
  5
5227
331
5F73
  5
5F75
331
5354
  5
5359
331
51DF
  5
51E2
331
51DB
  5
51DE
331
519C
  5
519F
331
51D7
  5
51DA
331
525D
  5
5262
331
521E
  5
5223
331
5F6F
  5
5F71
331
5198
  5
519B
331
51D3
  5
51D6
331
5259
  5
525E
331
521A
  5
521F
331
5F67
  5
5F69
331
5F63
  5
5F65
331
51CF
  5
51D2
331
5216
  5
521B
331
5212
  5
5217
331
51C7
  5
51CA
331
520E
  5
5213
331
5F5F
  5
5F61
331
5150
  5
5153
331
51C3
  5
51C6
331
520A
  5
520F
331
5288
  5
528D
331
5249
  5
524E
331
5F5B
  5
5F5D
331
5284
  5
5289
331
5245
  5
524A
331
5F57
  5
5F59
331
5280
  5
5285
331
5241
  5
5246
331
5F53
  5
5F55
331
514C
  5
514F
331
51BF
  5
51C2
331
5206
  5
520B
331
5148
  5
514B
331
51BB
  5
51BE
331
5202
  5
5207
331
5144
  5
5147
331
51B7
  5
51BA
331
51FE
  5
5203
331
527C
  5
5281
331
523D
  5
5242
331
5F4F
  5
5F51
331
5140
  5
5143
331
51B3
  5
51B6
331
5278
  5
527D
331
5239
  5
523E
331
5F4B
  5
5F4D
331
5274
  5
5279
331
5235
  5
523A
331
5F47
  5
5F49
331
5270
  5
5275
331
5231
  5
5236
331
5F43
  5
5F45
331
513C
  5
513F
331
51AF
  5
51B2
331
5138
  5
513B
331
51AB
  5
51AE
331
51E6
  5
51E9
331
51A7
  5
51AA
331
522D
  5
5232
331
526C
  5
5271
331
51E2
  5
51E5
331
51A3
  5
51A6
331
5268
  5
526D
331
5229
  5
522E
331
5F7A
  5
5F7C
331
5225
  5
522A
331
5F76
  5
5F78
331
5260
  5
5265
331
5221
  5
5226
331
5F72
  5
5F74
331
51DE
  5
51E1
331
519F
  5
51A2
331
51DA
  5
51DD
331
519B
  5
519E
331
51D6
  5
51D9
331
521D
  5
5222
331
525C
  5
5261
331
5F6E
  5
5F70
331
51D2
  5
51D5
331
5258
  5
525D
331
5219
  5
521E
331
5F6A
  5
5F6C
331
5F66
  5
5F68
331
5F62
  5
5F64
331
5197
  5
519A
331
51CE
  5
51D1
331
5215
  5
521A
331
51CA
  5
51CF
331
5211
  5
5216
331
51C6
  5
51C9
331
520D
  5
5212
331
5F5E
  5
5F60
331
51C2
  5
51C5
331
5209
  5
520E
331
5287
  5
528C
331
5248
  5
524D
331
5F5A
  5
5F5C
331
5283
  5
5288
331
5244
  5
5249
331
5F56
  5
5F58
331
5240
  5
5245
331
5F52
  5
5F54
331
514F
  5
5152
331
514B
  5
514E
331
51BE
  5
51C1
331
5205
  5
520A
331
5147
  5
514A
331
51BA
  5
51BD
331
5201
  5
5206
331
527F
  5
5284
331
5143
  5
5146
331
51B6
  5
51B9
331
51FD
  5
5202
331
527B
  5
5280
331
523C
  5
5241
331
5F4E
  5
5F50
331
51B2
  5
51B5
331
5277
  5
527C
331
5238
  5
523D
331
5F4A
  5
5F4C
331
5273
  5
5278
331
5234
  5
5239
331
5F46
  5
5F48
331
5230
  5
5235
331
5F42
  5
5F44
331
513F
  5
5142
331
513B
  5
513E
331
51AE
  5
51B1
331
51AA
  5
51AD
331
5137
  5
513A
331
526F
  5
5274
331
51E5
  5
51E8
331
51A6
  5
51A9
331
522C
  5
5231
331
526B
  5
5270
331
51A2
  5
51A5
331
51E1
  5
51E4
331
5267
  5
526C
331
5228
  5
522D
331
5F79
  5
5F7B
331
5224
  5
5229
331
5F75
  5
5F77
331
5220
  5
5225
331
5F71
  5
5F73
331
5352
  5
5358
331
51DD
  5
51E0
331
519E
  5
51A1
331
51D9
  5
51DC
331
525F
  5
5264
331
519A
  5
519D
331
51D5
  5
51D8
331
521C
  5
5221
331
525B
  5
5260
331
51D1
  5
51D4
331
5257
  5
525C
331
5218
  5
521D
331
5F69
  5
5F6B
331
5F65
  5
5F67
331
5F61
  5
5F63
331
51CD
  5
51D0
331
5214
  5
5219
331
51C9
  5
51CE
331
5210
  5
5215
331
51C5
  5
51C8
331
520C
  5
5211
331
524B
  5
5250
331
5F5D
  5
5F5F
331
51C1
  5
51C4
331
5286
  5
528B
331
5247
  5
524C
331
5208
  5
520D
331
5F59
  5
5F5B
331
5282
  5
5287
331
5243
  5
5248
331
5F55
  5
5F57
331
5F51
  5
5F53
331
514E
  5
5151
331
514A
  5
514D
331
51BD
  5
51C0
331
5204
  5
5209
331
5146
  5
5149
331
51B9
  5
51BC
331
5200
  5
5205
331
523F
  5
5244
331
527E
  5
5283
331
5142
  5
5145
331
51B5
  5
51B8
331
527A
  5
527F
331
523B
  5
5240
331
5F4D
  5
5F4F
331
51B1
  5
51B4
331
5237
  5
523C
331
5276
  5
527B
331
5F49
  5
5F4B
331
5272
  5
5277
331
5233
  5
5238
331
5F45
  5
5F47
331
513E
  5
5141
331
513A
  5
513D
331
51AD
  5
51B0
331
51A9
  5
51AC
331
5136
  5
5139
331
526E
  5
5273
331
522F
  5
5234
331
51E4
  5
51E7
331
51A5
  5
51A8
331
526A
  5
526F
331
522B
  5
5230
331
51A1
  5
51A4
331
5266
  5
526B
331
5227
  5
522C
331
5F78
  5
5F7A
331
5661
  5
5662
331
5223
  5
5228
331
5F74
  5
5F76
331
5F70
  5
5F72
  0
XRECORD
  5
6B37
102
{ACAD_REACTORS
330
6AF9
102
}
330
6AF9
100
AcDbXrecord
280
     1
340
1B
  0
XRECORD
  5
6B39
102
{ACAD_REACTORS
330
6AFB
102
}
330
6AFB
100
AcDbXrecord
280
     1
340
23
  0
SORTENTSTABLE
  5
6CFF
102
{ACAD_REACTORS
330
6CFE
102
}
330
6CFE
100
AcDbSortentsTable
330
6B58
  0
XRECORD
  5
70F3
102
{ACAD_REACTORS
330
70F2
102
}
330
70F2
100
AcDbXrecord
280
     1
 70
     1
  0
XRECORD
  5
70F5
102
{ACAD_REACTORS
330
70F2
102
}
330
70F2
100
AcDbXrecord
280
     1
340
14
  0
XRECORD
  5
70F6
102
{ACAD_REACTORS
330
70F2
102
}
330
70F2
100
AcDbXrecord
280
     1
340
14
  0
XRECORD
  5
70F4
102
{ACAD_REACTORS
330
70F2
102
}
330
70F2
100
AcDbXrecord
280
     1
340
14
  0
LAYOUT
  5
1E
102
{ACAD_REACTORS
330
1A
102
}
330
1A
100
AcDbPlotSettings
  1

  2
none_device
  4
Letter_(8.50_x_11.00_Inches)
  6

 40
6.349999904632568
 41
6.349999904632568
 42
6.350006103515625
 43
6.350006103515625
 44
215.8999938964844
 45
279.3999938964844
 46
0.0
 47
0.0
 48
0.0
 49
0.0
140
0.0
141
0.0
142
1.0
143
1.0
 70
 15024
 72
     1
 73
     1
 74
     5
  7
acad.ctb
 75
    16
147
1.0
 76
     0
 77
     2
 78
   300
148
0.0
149
0.0
100
AcDbLayout
  1
Layout1
 70
     1
 71
     1
 10
0.0
 20
0.0
 11
420.0
 21
297.0
 12
0.0
 22
0.0
 32
0.0
 14
1.000000000000000E+20
 24
1.000000000000000E+20
 34
1.000000000000000E+20
 15
-1.000000000000000E+20
 25
-1.000000000000000E+20
 35
-1.000000000000000E+20
146
0.0
 13
0.0
 23
0.0
 33
0.0
 16
1.0
 26
0.0
 36
0.0
 17
0.0
 27
1.0
 37
0.0
 76
     0
330
1B
  0
LAYOUT
  5
26
102
{ACAD_REACTORS
330
1A
102
}
330
1A
100
AcDbPlotSettings
  1

  2
none_device
  4
Letter_(8.50_x_11.00_Inches)
  6

 40
6.349999904632568
 41
6.349999904632568
 42
6.350006103515625
 43
6.350006103515625
 44
215.8999938964844
 45
279.3999938964844
 46
0.0
 47
0.0
 48
0.0
 49
0.0
140
0.0
141
0.0
142
1.0
143
1.0
 70
 15024
 72
     1
 73
     1
 74
     5
  7
acad.ctb
 75
    16
147
1.0
 76
     0
 77
     2
 78
   300
148
0.0
149
0.0
100
AcDbLayout
  1
Layout2
 70
     1
 71
     2
 10
0.0
 20
0.0
 11
12.0
 21
9.0
 12
0.0
 22
0.0
 32
0.0
 14
0.0
 24
0.0
 34
0.0
 15
0.0
 25
0.0
 35
0.0
146
0.0
 13
0.0
 23
0.0
 33
0.0
 16
1.0
 26
0.0
 36
0.0
 17
0.0
 27
1.0
 37
0.0
 76
     0
330
23
  0
LAYOUT
  5
22
102
{ACAD_XDICTIONARY
360
709C
102
}
102
{ACAD_REACTORS
330
1A
102
}
330
1A
100
AcDbPlotSettings
  1

  2
none_device
  4
none_user_media
  6

 40
3.174999952316284
 41
3.174999952316284
 42
3.17498779296875
 43
3.17498779296875
 44
593.97900390625
 45
840.9939575195313
 46
145.3145080804825
 47
207.3219848871231
 48
0.0
 49
0.0
140
0.0
141
0.0
142
1.0
143
1.0
 70
 11956
 72
     1
 73
     1
 74
     2
  7
monochrome.ctb
 75
    16
147
1.0
 76
     0
 77
     2
 78
   300
148
0.0
149
0.0
100
AcDbLayout
  1
Model
 70
     1
 71
     0
 10
0.0
 20
0.0
 11
12.0
 21
9.0
 12
0.0
 22
0.0
 32
0.0
 14
0.0
 24
0.0
 34
0.0
 15
0.0
 25
0.0
 35
0.0
146
0.0
 13
0.0
 23
0.0
 33
0.0
 16
1.0
 26
0.0
 36
0.0
 17
0.0
 27
1.0
 37
0.0
 76
     0
330
1F
331
6AF7
1001
ACAD_PSEXT
1000
なし
1000
なし
1000
適切ではありません
1000
新しいプロッタ環境設定名を選択しない限り、レイアウトは印刷されません。
1070
     0
  0
MATERIAL
  5
5AD
102
{ACAD_XDICTIONARY
360
70FA
102
}
102
{ACAD_REACTORS
330
51D
102
}
330
51D
100
AcDbMaterial
  1
ByBlock
 73
     1
 78
     1
172
     1
176
     1
270
     1
274
     1
  0
MATERIAL
  5
5AC
102
{ACAD_XDICTIONARY
360
70F8
102
}
102
{ACAD_REACTORS
330
51D
102
}
330
51D
100
AcDbMaterial
  1
ByLayer
 73
     1
 78
     1
172
     1
176
     1
270
     1
274
     1
  0
MATERIAL
  5
5AE
102
{ACAD_XDICTIONARY
360
70FC
102
}
102
{ACAD_REACTORS
330
51D
102
}
330
51D
100
AcDbMaterial
  1
Global
 73
     1
 78
     1
172
     1
176
     1
270
     1
274
     1
  0
MLEADERSTYLE
  5
606
102
{ACAD_REACTORS
330
605
102
}
330
605
100
AcDbMLeaderStyle
170
     2
171
     1
172
     0
 90
        2
 40
0.0
 41
0.0
173
     1
 91
-1056964608
340
14
 92
       -2
290
     1
 42
2.0
291
     1
 43
0.36
  3
Standard
 44
4.0
300

342
11
174
     1
178
     6
175
     1
176
     0
 93
-1056964608
 45
4.0
292
     0
297
     0
 46
4.0
 94
-1056964608
 47
1.0
 49
1.0
140
1.0
293
     1
141
0.0
294
     1
177
     0
142
1.0
295
     0
296
     0
143
0.125
1001
ACAD_MLEADERVER
1070
     2
  0
MLEADERSTYLE
  5
719
102
{ACAD_REACTORS
330
605
102
}
330
605
100
AcDbMLeaderStyle
170
     2
171
     1
172
     0
 90
        2
 40
0.0
 41
0.0
173
     1
 91
-1056964608
340
14
 92
        9
290
     1
 42
2.0
291
     1
 43
-5.0
  3
Standard
341
159
 44
3.5
300

342
146
174
     5
178
     5
175
     1
176
     0
 93
-1023410174
 45
3.5
292
     0
297
     0
 46
4.0
 94
-1056964608
 47
1.0
 49
1.0
140
1.0
293
     1
141
0.0
294
     1
177
     0
142
1.0
295
     0
296
     0
143
0.0
1001
ACAD_MLEADERVER
1070
     2
  0
MLINESTYLE
  5
18
102
{ACAD_REACTORS
330
17
102
}
330
17
100
AcDbMlineStyle
  2
STANDARD
 70
     0
  3

 62
   256
 51
90.0
 52
90.0
 71
     2
 49
0.5
 62
   256
  6
BYLAYER
 49
-0.5
 62
   256
  6
BYLAYER
  0
ACDBPLACEHOLDER
  5
F
102
{ACAD_REACTORS
330
E
102
}
330
E
  0
SCALE
  5
5E4
102
{ACAD_REACTORS
330
5E3
102
}
330
5E3
100
AcDbScale
 70
     0
300
1:1
140
1.0
141
1.0
290
     1
  0
SCALE
  5
5E5
102
{ACAD_REACTORS
330
5E3
102
}
330
5E3
100
AcDbScale
 70
     0
300
1:2
140
1.0
141
2.0
290
     0
  0
SCALE
  5
5E6
102
{ACAD_REACTORS
330
5E3
102
}
330
5E3
100
AcDbScale
 70
     0
300
1:4
140
1.0
141
4.0
290
     0
  0
SCALE
  5
5E7
102
{ACAD_REACTORS
330
5E3
102
}
330
5E3
100
AcDbScale
 70
     0
300
1:5
140
1.0
141
5.0
290
     0
  0
SCALE
  5
5E8
102
{ACAD_REACTORS
330
5E3
102
}
330
5E3
100
AcDbScale
 70
     0
300
1:8
140
1.0
141
8.0
290
     0
  0
SCALE
  5
5E9
102
{ACAD_REACTORS
330
5E3
102
}
330
5E3
100
AcDbScale
 70
     0
300
1:10
140
1.0
141
10.0
290
     0
  0
SCALE
  5
5EA
102
{ACAD_REACTORS
330
5E3
102
}
330
5E3
100
AcDbScale
 70
     0
300
1:16
140
1.0
141
16.0
290
     0
  0
SCALE
  5
5EB
102
{ACAD_REACTORS
330
5E3
102
}
330
5E3
100
AcDbScale
 70
     0
300
1:20
140
1.0
141
20.0
290
     0
  0
SCALE
  5
5EC
102
{ACAD_REACTORS
330
5E3
102
}
330
5E3
100
AcDbScale
 70
     0
300
1:30
140
1.0
141
30.0
290
     0
  0
SCALE
  5
5ED
102
{ACAD_REACTORS
330
5E3
102
}
330
5E3
100
AcDbScale
 70
     0
300
1:40
140
1.0
141
40.0
290
     0
  0
SCALE
  5
5EE
102
{ACAD_REACTORS
330
5E3
102
}
330
5E3
100
AcDbScale
 70
     0
300
1:50
140
1.0
141
50.0
290
     0
  0
SCALE
  5
5EF
102
{ACAD_REACTORS
330
5E3
102
}
330
5E3
100
AcDbScale
 70
     0
300
1:100
140
1.0
141
100.0
290
     0
  0
SCALE
  5
5F0
102
{ACAD_REACTORS
330
5E3
102
}
330
5E3
100
AcDbScale
 70
     0
300
2:1
140
2.0
141
1.0
290
     0
  0
SCALE
  5
5F1
102
{ACAD_REACTORS
330
5E3
102
}
330
5E3
100
AcDbScale
 70
     0
300
4:1
140
4.0
141
1.0
290
     0
  0
SCALE
  5
5F2
102
{ACAD_REACTORS
330
5E3
102
}
330
5E3
100
AcDbScale
 70
     0
300
8:1
140
8.0
141
1.0
290
     0
  0
SCALE
  5
5F3
102
{ACAD_REACTORS
330
5E3
102
}
330
5E3
100
AcDbScale
 70
     0
300
10:1
140
10.0
141
1.0
290
     0
  0
SCALE
  5
5F4
102
{ACAD_REACTORS
330
5E3
102
}
330
5E3
100
AcDbScale
 70
     0
300
100:1
140
100.0
141
1.0
290
     0
  0
SCALE
  5
5F5
102
{ACAD_REACTORS
330
5E3
102
}
330
5E3
100
AcDbScale
 70
     0
300
1/128" = 1'-0"
140
0.0078125
141
12.0
290
     0
  0
SCALE
  5
5F6
102
{ACAD_REACTORS
330
5E3
102
}
330
5E3
100
AcDbScale
 70
     0
300
1/64" = 1'-0"
140
0.015625
141
12.0
290
     0
  0
SCALE
  5
5F7
102
{ACAD_REACTORS
330
5E3
102
}
330
5E3
100
AcDbScale
 70
     0
300
1/32" = 1'-0"
140
0.03125
141
12.0
290
     0
  0
SCALE
  5
5F8
102
{ACAD_REACTORS
330
5E3
102
}
330
5E3
100
AcDbScale
 70
     0
300
1/16" = 1'-0"
140
0.0625
141
12.0
290
     0
  0
SCALE
  5
5F9
102
{ACAD_REACTORS
330
5E3
102
}
330
5E3
100
AcDbScale
 70
     0
300
3/32" = 1'-0"
140
0.09375
141
12.0
290
     0
  0
SCALE
  5
5FA
102
{ACAD_REACTORS
330
5E3
102
}
330
5E3
100
AcDbScale
 70
     0
300
1/8" = 1'-0"
140
0.125
141
12.0
290
     0
  0
SCALE
  5
5FB
102
{ACAD_REACTORS
330
5E3
102
}
330
5E3
100
AcDbScale
 70
     0
300
3/16" = 1'-0"
140
0.1875
141
12.0
290
     0
  0
SCALE
  5
5FC
102
{ACAD_REACTORS
330
5E3
102
}
330
5E3
100
AcDbScale
 70
     0
300
1/4" = 1'-0"
140
0.25
141
12.0
290
     0
  0
SCALE
  5
5FD
102
{ACAD_REACTORS
330
5E3
102
}
330
5E3
100
AcDbScale
 70
     0
300
3/8" = 1'-0"
140
0.375
141
12.0
290
     0
  0
SCALE
  5
5FE
102
{ACAD_REACTORS
330
5E3
102
}
330
5E3
100
AcDbScale
 70
     0
300
1/2" = 1'-0"
140
0.5
141
12.0
290
     0
  0
SCALE
  5
5FF
102
{ACAD_REACTORS
330
5E3
102
}
330
5E3
100
AcDbScale
 70
     0
300
3/4" = 1'-0"
140
0.75
141
12.0
290
     0
  0
SCALE
  5
600
102
{ACAD_REACTORS
330
5E3
102
}
330
5E3
100
AcDbScale
 70
     0
300
1" = 1'-0"
140
1.0
141
12.0
290
     0
  0
SCALE
  5
601
102
{ACAD_REACTORS
330
5E3
102
}
330
5E3
100
AcDbScale
 70
     0
300
1-1/2" = 1'-0"
140
1.5
141
12.0
290
     0
  0
SCALE
  5
602
102
{ACAD_REACTORS
330
5E3
102
}
330
5E3
100
AcDbScale
 70
     0
300
3" = 1'-0"
140
3.0
141
12.0
290
     0
  0
SCALE
  5
603
102
{ACAD_REACTORS
330
5E3
102
}
330
5E3
100
AcDbScale
 70
     0
300
6" = 1'-0"
140
6.0
141
12.0
290
     0
  0
SCALE
  5
604
102
{ACAD_REACTORS
330
5E3
102
}
330
5E3
100
AcDbScale
 70
     0
300
1'-0" = 1'-0"
140
12.0
141
12.0
290
     0
  0
TABLESTYLE
  5
520
102
{ACAD_XDICTIONARY
360
624
102
}
102
{ACAD_REACTORS
330
51F
102
}
330
51F
100
AcDbTableStyle
  3
Standard
 70
     0
 71
     0
 40
1.5
 41
1.5
280
     0
281
     0
  7
STANDARD
140
4.5
170
     2
 62
     0
 63
     7
283
     0
274
    -2
284
     1
 64
     0
275
    -2
285
     1
 65
     0
276
    -2
286
     1
 66
     0
277
    -2
287
     1
 67
     0
278
    -2
288
     1
 68
     0
279
    -2
289
     1
 69
     0
  7
STANDARD
140
6.0
170
     5
 62
     0
 63
     7
283
     0
274
    -2
284
     1
 64
     0
275
    -2
285
     1
 65
     0
276
    -2
286
     1
 66
     0
277
    -2
287
     1
 67
     0
278
    -2
288
     1
 68
     0
279
    -2
289
     1
 69
     0
  7
STANDARD
140
4.5
170
     5
 62
     0
 63
     7
283
     0
274
    -2
284
     1
 64
     0
275
    -2
285
     1
 65
     0
276
    -2
286
     1
 66
     0
277
    -2
287
     1
 67
     0
278
    -2
288
     1
 68
     0
279
    -2
289
     1
 69
     0
  0
VISUALSTYLE
  5
5B5
102
{ACAD_XDICTIONARY
360
7108
102
}
102
{ACAD_REACTORS
330
5AF
102
}
330
5AF
100
AcDbVisualStyle
  2
2dWireframe
 70
     4
 71
     0
 72
     2
 73
     0
 90
        0
 40
-0.6
 41
-30.0
 62
     5
 63
     7
 74
     1
 91
        4
 64
     7
 65
   257
 75
     1
175
     1
 42
1.0
 92
        0
 66
   257
 43
1.0
 76
     1
 77
     6
 78
     2
 67
     7
 79
     5
170
     0
171
     0
290
     0
174
     0
 93
        1
 44
0.0
173
     0
291
     0
 45
0.0
1001
ACAD
1000
AcDbSavedByObjectVersion
1070
     0
  0
VISUALSTYLE
  5
5B7
102
{ACAD_XDICTIONARY
360
710C
102
}
102
{ACAD_REACTORS
330
5AF
102
}
330
5AF
100
AcDbVisualStyle
  2
3D Hidden
 70
     6
 71
     1
 72
     2
 73
     2
 90
        0
 40
-0.6
 41
-30.0
 62
     5
 63
     7
 74
     2
 91
        2
 64
     7
 65
   257
 75
     2
175
     1
 42
40.0
 92
        0
 66
   257
 43
1.0
 76
     1
 77
     6
 78
     2
 67
     7
 79
     3
170
     0
171
     0
290
     0
174
     0
 93
        1
 44
0.0
173
     0
291
     0
 45
0.0
1001
ACAD
1000
AcDbSavedByObjectVersion
1070
     0
  0
VISUALSTYLE
  5
5B6
102
{ACAD_XDICTIONARY
360
710A
102
}
102
{ACAD_REACTORS
330
5AF
102
}
330
5AF
100
AcDbVisualStyle
  2
3dWireframe
 70
     5
 71
     0
 72
     2
 73
     0
 90
        0
 40
-0.6
 41
-30.0
 62
     5
 63
     7
 74
     1
 91
        4
 64
     7
 65
   257
 75
     1
175
     1
 42
1.0
 92
        0
 66
   257
 43
1.0
 76
     1
 77
     6
 78
     2
 67
     7
 79
     5
170
     0
171
     0
290
     0
174
     0
 93
        1
 44
0.0
173
     0
291
     0
 45
0.0
1001
ACAD
1000
AcDbSavedByObjectVersion
1070
     0
  0
VISUALSTYLE
  5
5B4
102
{ACAD_XDICTIONARY
360
7106
102
}
102
{ACAD_REACTORS
330
5AF
102
}
330
5AF
100
AcDbVisualStyle
  2
Basic
 70
     7
 71
     1
 72
     0
 73
     1
 90
        0
 40
-0.6
 41
-30.0
 62
     5
 63
     7
 74
     0
 91
        4
 64
     7
 65
   257
 75
     1
175
     1
 42
1.0
 92
        8
 66
     7
 43
1.0
 76
     1
 77
     6
 78
     2
 67
     7
 79
     5
170
     0
171
     0
290
     0
174
     0
 93
        1
 44
0.0
173
     0
291
     1
 45
0.0
1001
ACAD
1000
AcDbSavedByObjectVersion
1070
     0
  0
VISUALSTYLE
  5
5BB
102
{ACAD_XDICTIONARY
360
7114
102
}
102
{ACAD_REACTORS
330
5AF
102
}
330
5AF
100
AcDbVisualStyle
  2
Brighten
 70
    12
 71
     2
 72
     2
 73
     0
 90
        0
 40
-0.6
 41
-30.0
 62
     5
 63
     7
 74
     1
 91
        4
 64
     7
 65
   257
 75
     1
175
     1
 42
1.0
 92
        8
 66
     7
 43
1.0
 76
     1
 77
     6
 78
     2
 67
     7
 79
     5
170
     0
171
     0
290
     0
174
     0
 93
        1
 44
50.0
173
     0
291
     1
 45
0.0
1001
ACAD
1000
AcDbSavedByObjectVersion
1070
     0
  0
VISUALSTYLE
  5
5BF
102
{ACAD_XDICTIONARY
360
711C
102
}
102
{ACAD_REACTORS
330
5AF
102
}
330
5AF
100
AcDbVisualStyle
  2
ColorChange
 70
    16
 71
     2
 72
     2
 73
     3
 90
        0
 40
-0.6
 41
-30.0
 62
     5
 63
     8
 74
     1
 91
        4
 64
     7
 65
   257
 75
     1
175
     1
 42
1.0
 92
        8
 66
     8
 43
1.0
 76
     1
 77
     6
 78
     2
 67
     7
 79
     5
170
     0
171
     0
290
     0
174
     0
 93
        1
 44
0.0
173
     0
291
     1
 45
0.0
1001
ACAD
1000
AcDbSavedByObjectVersion
1070
     0
  0
VISUALSTYLE
  5
5B8
102
{ACAD_XDICTIONARY
360
710E
102
}
102
{ACAD_REACTORS
330
5AF
102
}
330
5AF
100
AcDbVisualStyle
  2
Conceptual
 70
     9
 71
     3
 72
     2
 73
     0
 90
        0
 40
-0.6
 41
-30.0
 62
     5
 63
     7
 74
     2
 91
        2
 64
     7
 65
   257
 75
     1
175
     1
 42
40.0
 92
        8
 66
     7
 43
1.0
 76
     1
 77
     6
 78
     2
 67
     7
 79
     3
170
     0
171
     0
290
     0
174
     0
 93
        1
 44
0.0
173
     0
291
     0
 45
0.0
1001
ACAD
1000
AcDbSavedByObjectVersion
1070
     0
  0
VISUALSTYLE
  5
5BA
102
{ACAD_XDICTIONARY
360
7112
102
}
102
{ACAD_REACTORS
330
5AF
102
}
330
5AF
100
AcDbVisualStyle
  2
Dim
 70
    11
 71
     2
 72
     2
 73
     0
 90
        0
 40
-0.6
 41
-30.0
 62
     5
 63
     7
 74
     1
 91
        4
 64
     7
 65
   257
 75
     1
175
     1
 42
1.0
 92
        8
 66
     7
 43
1.0
 76
     1
 77
     6
 78
     2
 67
     7
 79
     5
170
     0
171
     0
290
     0
174
     0
 93
        1
 44
-50.0
173
     0
291
     1
 45
0.0
1001
ACAD
1000
AcDbSavedByObjectVersion
1070
     0
  0
VISUALSTYLE
  5
6B53
102
{ACAD_XDICTIONARY
360
7130
102
}
102
{ACAD_REACTORS
330
5AF
102
}
330
5AF
100
AcDbVisualStyle
  2
EdgeColorOff
 70
    22
 71
     2
 72
     2
 73
     0
 90
        0
 40
-0.6
 41
-30.0
 62
     5
 63
     7
421
 16777215
 74
     1
 91
        4
 64
     7
 65
   257
 75
     1
175
     1
 42
1.0
 92
        8
 66
     7
 43
1.0
 76
     1
 77
     6
 78
     2
 67
     7
 79
     5
170
     0
171
     0
290
     0
174
     0
 93
        1
 44
0.0
173
     0
291
     1
 45
0.0
1001
ACAD
1000
AcDbSavedByObjectVersion
1070
     0
  0
VISUALSTYLE
  5
5BE
102
{ACAD_XDICTIONARY
360
711A
102
}
102
{ACAD_REACTORS
330
5AF
102
}
330
5AF
100
AcDbVisualStyle
  2
Facepattern
 70
    15
 71
     2
 72
     2
 73
     0
 90
        0
 40
-0.6
 41
-30.0
 62
     5
 63
     7
 74
     1
 91
        4
 64
     7
 65
   257
 75
     1
175
     1
 42
1.0
 92
        8
 66
     7
 43
1.0
 76
     1
 77
     6
 78
     2
 67
     7
 79
     5
170
     0
171
     0
290
     0
174
     0
 93
        1
 44
0.0
173
     0
291
     1
 45
0.0
1001
ACAD
1000
AcDbSavedByObjectVersion
1070
     0
  0
VISUALSTYLE
  5
5B0
102
{ACAD_XDICTIONARY
360
70FE
102
}
102
{ACAD_REACTORS
330
5AF
102
}
330
5AF
100
AcDbVisualStyle
  2
Flat
 70
     0
 71
     2
 72
     1
 73
     1
 90
        2
 40
-0.6
 41
30.0
 62
     5
 63
     7
 74
     0
 91
        4
 64
     7
 65
   257
 75
     1
175
     1
 42
1.0
 92
        8
 66
     7
 43
1.0
 76
     1
 77
     6
 78
     2
 67
     7
 79
     5
170
     0
171
     0
290
     0
174
     0
 93
       13
 44
0.0
173
     0
291
     1
 45
0.0
1001
ACAD
1000
AcDbSavedByObjectVersion
1070
     0
  0
VISUALSTYLE
  5
5B1
102
{ACAD_XDICTIONARY
360
7100
102
}
102
{ACAD_REACTORS
330
5AF
102
}
330
5AF
100
AcDbVisualStyle
  2
FlatWithEdges
 70
     1
 71
     2
 72
     1
 73
     1
 90
        2
 40
-0.6
 41
30.0
 62
     5
 63
     7
 74
     1
 91
        4
 64
     7
 65
   257
 75
     1
175
     1
 42
1.0
 92
        0
 66
   257
 43
1.0
 76
     1
 77
     6
 78
     2
 67
     7
 79
     5
170
     0
171
     0
290
     0
174
     0
 93
       13
 44
0.0
173
     0
291
     1
 45
0.0
1001
ACAD
1000
AcDbSavedByObjectVersion
1070
     0
  0
VISUALSTYLE
  5
5B2
102
{ACAD_XDICTIONARY
360
7102
102
}
102
{ACAD_REACTORS
330
5AF
102
}
330
5AF
100
AcDbVisualStyle
  2
Gouraud
 70
     2
 71
     2
 72
     2
 73
     1
 90
        2
 40
-0.6
 41
30.0
 62
     5
 63
     7
 74
     0
 91
        4
 64
     7
 65
   257
 75
     1
175
     1
 42
1.0
 92
        0
 66
     7
 43
1.0
 76
     1
 77
     6
 78
     2
 67
     7
 79
     5
170
     0
171
     0
290
     0
174
     0
 93
       13
 44
0.0
173
     0
291
     1
 45
0.0
1001
ACAD
1000
AcDbSavedByObjectVersion
1070
     0
  0
VISUALSTYLE
  5
5B3
102
{ACAD_XDICTIONARY
360
7104
102
}
102
{ACAD_REACTORS
330
5AF
102
}
330
5AF
100
AcDbVisualStyle
  2
GouraudWithEdges
 70
     3
 71
     2
 72
     2
 73
     1
 90
        2
 40
-0.6
 41
30.0
 62
     5
 63
     7
 74
     1
 91
        4
 64
     7
 65
   257
 75
     1
175
     1
 42
1.0
 92
        0
 66
   257
 43
1.0
 76
     1
 77
     6
 78
     2
 67
     7
 79
     5
170
     0
171
     0
290
     0
174
     0
 93
       13
 44
0.0
173
     0
291
     1
 45
0.0
1001
ACAD
1000
AcDbSavedByObjectVersion
1070
     0
  0
VISUALSTYLE
  5
6B4B
102
{ACAD_XDICTIONARY
360
7120
102
}
102
{ACAD_REACTORS
330
5AF
102
}
330
5AF
100
AcDbVisualStyle
  2
Hidden
 70
     6
 71
     1
 72
     2
 73
     2
 90
        0
 40
-0.6
 41
-30.0
 62
     5
 63
     7
421
 16777215
 74
     2
 91
        2
 64
     7
 65
   257
 75
     2
175
     1
 42
40.0
 92
        0
 66
   257
 43
1.0
 76
     1
 77
     6
 78
     2
 67
     7
 79
     3
170
     0
171
     0
290
     0
174
     0
 93
        1
 44
0.0
173
     0
291
     0
 45
0.0
1001
ACAD
1000
AcDbSavedByObjectVersion
1070
     0
  0
VISUALSTYLE
  5
6B51
102
{ACAD_XDICTIONARY
360
712C
102
}
102
{ACAD_REACTORS
330
5AF
102
}
330
5AF
100
AcDbVisualStyle
  2
JitterOff
 70
    20
 71
     2
 72
     2
 73
     0
 90
        0
 40
-0.6
 41
-30.0
 62
     5
 63
     7
421
 16777215
 74
     1
 91
        4
 64
     7
 65
   257
 75
     1
175
     1
 42
1.0
 92
       10
 66
     7
 43
1.0
 76
     1
 77
     6
 78
     2
 67
     7
 79
     5
170
     0
171
     0
290
     0
174
     0
 93
        1
 44
0.0
173
     0
291
     1
 45
0.0
1001
ACAD
1000
AcDbSavedByObjectVersion
1070
     0
  0
VISUALSTYLE
  5
5BD
102
{ACAD_XDICTIONARY
360
7118
102
}
102
{ACAD_REACTORS
330
5AF
102
}
330
5AF
100
AcDbVisualStyle
  2
Linepattern
 70
    14
 71
     2
 72
     2
 73
     0
 90
        0
 40
-0.6
 41
-30.0
 62
     5
 63
     7
 74
     1
 91
        4
 64
     7
 65
   257
 75
     7
175
     7
 42
1.0
 92
        8
 66
     7
 43
1.0
 76
     1
 77
     6
 78
     2
 67
     7
 79
     5
170
     0
171
     0
290
     0
174
     0
 93
        1
 44
0.0
173
     0
291
     1
 45
0.0
1001
ACAD
1000
AcDbSavedByObjectVersion
1070
     0
  0
VISUALSTYLE
  5
6B52
102
{ACAD_XDICTIONARY
360
712E
102
}
102
{ACAD_REACTORS
330
5AF
102
}
330
5AF
100
AcDbVisualStyle
  2
OverhangOff
 70
    21
 71
     2
 72
     2
 73
     0
 90
        0
 40
-0.6
 41
-30.0
 62
     5
 63
     7
421
 16777215
 74
     1
 91
        4
 64
     7
 65
   257
 75
     1
175
     1
 42
1.0
 92
        9
 66
     7
 43
1.0
 76
     1
 77
     6
 78
     2
 67
     7
 79
     5
170
     0
171
     0
290
     0
174
     0
 93
        1
 44
0.0
173
     0
291
     1
 45
0.0
1001
ACAD
1000
AcDbSavedByObjectVersion
1070
     0
  0
VISUALSTYLE
  5
5B9
102
{ACAD_XDICTIONARY
360
7110
102
}
102
{ACAD_REACTORS
330
5AF
102
}
330
5AF
100
AcDbVisualStyle
  2
Realistic
 70
     8
 71
     2
 72
     2
 73
     0
 90
        0
 40
-0.6
 41
-30.0
 62
     5
 63
     7
 74
     1
 91
        0
 64
     7
 65
   257
 75
     1
175
     1
 42
1.0
 92
        8
 66
     8
 43
1.0
 76
     1
 77
     6
 78
     2
 67
     7
 79
     5
170
     0
171
     0
290
     0
174
     0
 93
       13
 44
0.0
173
     0
291
     0
 45
0.0
1001
ACAD
1000
AcDbSavedByObjectVersion
1070
     0
  0
VISUALSTYLE
  5
6B50
102
{ACAD_XDICTIONARY
360
712A
102
}
102
{ACAD_REACTORS
330
5AF
102
}
330
5AF
100
AcDbVisualStyle
  2
Shaded
 70
    27
 71
     2
 72
     2
 73
     1
 90
        2
 40
-0.6
 41
30.0
 62
     5
 63
     7
421
 16777215
 74
     0
 91
        4
 64
     7
 65
   257
 75
     1
175
     1
 42
1.0
 92
        8
 66
   257
 43
1.0
 76
     1
 77
     6
 78
     2
 67
     8
425
  7895160
 79
     3
170
     0
171
     0
290
     0
174
     0
 93
        5
 44
0.0
173
     0
291
     0
 45
0.0
1001
ACAD
1000
AcDbSavedByObjectVersion
1070
     0
  0
VISUALSTYLE
  5
6B4F
102
{ACAD_XDICTIONARY
360
7128
102
}
102
{ACAD_REACTORS
330
5AF
102
}
330
5AF
100
AcDbVisualStyle
  2
Shaded with edges
 70
    26
 71
     2
 72
     2
 73
     1
 90
        2
 40
-0.6
 41
30.0
 62
     5
 63
     7
421
 16777215
 74
     1
 91
       10
 64
     7
 65
   257
 75
     2
175
     1
 42
1.0
 92
        8
 66
   257
 43
1.0
 76
     1
 77
     6
 78
     2
 67
     7
 79
     3
170
     0
171
     0
290
     0
174
     0
 93
        5
 44
0.0
173
     0
291
     0
 45
0.0
1001
ACAD
1000
AcDbSavedByObjectVersion
1070
     0
  0
VISUALSTYLE
  5
6B4C
102
{ACAD_XDICTIONARY
360
7122
102
}
102
{ACAD_REACTORS
330
5AF
102
}
330
5AF
100
AcDbVisualStyle
  2
Shades of Gray
 70
    23
 71
     2
 72
     2
 73
     3
 90
        0
 40
-0.6
 41
-30.0
 62
     5
 63
     7
421
 16777215
 74
     2
 91
        2
 64
     7
 65
     7
 75
     1
175
     1
 42
40.0
 92
        8
 66
     7
 43
1.0
 76
     1
 77
     6
 78
     2
 67
     7
 79
     3
170
     0
171
     0
290
     0
174
     0
 93
        1
 44
0.0
173
     0
291
     0
 45
0.0
1001
ACAD
1000
AcDbSavedByObjectVersion
1070
     0
  0
VISUALSTYLE
  5
6B4D
102
{ACAD_XDICTIONARY
360
7124
102
}
102
{ACAD_REACTORS
330
5AF
102
}
330
5AF
100
AcDbVisualStyle
  2
Sketchy
 70
    24
 71
     1
 72
     2
 73
     2
 90
        0
 40
-0.6
 41
-30.0
 62
     5
 63
     7
421
 16777215
 74
     2
 91
        2
 64
     7
 65
     7
 75
     1
175
     1
 42
40.0
 92
       11
 66
     7
 43
1.0
 76
     1
 77
     6
 78
     2
 67
     7
 79
     6
170
     0
171
     0
290
     0
174
     0
 93
        1
 44
0.0
173
     0
291
     0
 45
0.0
1001
ACAD
1000
AcDbSavedByObjectVersion
1070
     0
  0
VISUALSTYLE
  5
5BC
102
{ACAD_XDICTIONARY
360
7116
102
}
102
{ACAD_REACTORS
330
5AF
102
}
330
5AF
100
AcDbVisualStyle
  2
Thicken
 70
    13
 71
     2
 72
     2
 73
     0
 90
        0
 40
-0.6
 41
-30.0
 62
     5
 63
     7
 74
     1
 91
        4
 64
     7
 65
   257
 75
     1
175
     1
 42
1.0
 92
       12
 66
     7
 43
1.0
 76
     1
 77
     6
 78
     2
 67
     7
 79
     5
170
     0
171
     0
290
     0
174
     0
 93
        1
 44
0.0
173
     0
291
     1
 45
0.0
1001
ACAD
1000
AcDbSavedByObjectVersion
1070
     0
  0
VISUALSTYLE
  5
6B4A
102
{ACAD_XDICTIONARY
360
711E
102
}
102
{ACAD_REACTORS
330
5AF
102
}
330
5AF
100
AcDbVisualStyle
  2
Wireframe
 70
     5
 71
     0
 72
     2
 73
     0
 90
        0
 40
-0.6
 41
-30.0
 62
     5
 63
     7
421
 16777215
 74
     1
 91
        4
 64
     7
 65
   257
 75
     1
175
     1
 42
1.0
 92
        0
 66
   257
 43
1.0
 76
     1
 77
     6
 78
     2
 67
     7
 79
     3
170
     0
171
     0
290
     0
174
     0
 93
        1
 44
0.0
173
     0
291
     0
 45
0.0
1001
ACAD
1000
AcDbSavedByObjectVersion
1070
     0
  0
VISUALSTYLE
  5
6B4E
102
{ACAD_XDICTIONARY
360
7126
102
}
102
{ACAD_REACTORS
330
5AF
102
}
330
5AF
100
AcDbVisualStyle
  2
X-Ray
 70
    25
 71
     2
 72
     2
 73
     1
 90
        1
 40
0.5
 41
-30.0
 62
     5
 63
     7
421
 16777215
 74
     1
 91
        0
 64
     7
 65
   257
 75
     1
175
     1
 42
1.0
 92
        8
 66
     7
 43
1.0
 76
     1
 77
     6
 78
     2
 67
     7
 79
     3
170
     0
171
     0
290
     0
174
     0
 93
       13
 44
0.0
173
     0
291
     0
 45
0.0
1001
ACAD
1000
AcDbSavedByObjectVersion
1070
     0
  0
XRECORD
  5
6B1B
102
{ACAD_REACTORS
330
6B11
102
}
330
6B11
100
AcDbXrecord
280
     1
 90
        0
  0
XRECORD
  5
6B1C
102
{ACAD_REACTORS
330
6B11
102
}
330
6B11
100
AcDbXrecord
280
     1
  1
{07D2D85E-85AD-4BD6-8097-0176AB657E4F}
  0
XRECORD
  5
6B14
102
{ACAD_REACTORS
330
6B11
102
}
330
6B11
100
AcDbXrecord
280
     1
  1

  0
XRECORD
  5
6B1A
102
{ACAD_REACTORS
330
6B11
102
}
330
6B11
100
AcDbXrecord
280
     1
 90
        4
  0
XRECORD
  5
6B16
102
{ACAD_REACTORS
330
6B11
102
}
330
6B11
100
AcDbXrecord
280
     1
340
1A
  0
XRECORD
  5
6B19
102
{ACAD_REACTORS
330
6B11
102
}
330
6B11
100
AcDbXrecord
280
     1
 90
    10781
  0
XRECORD
  5
6B17
102
{ACAD_REACTORS
330
6B11
102
}
330
6B11
100
AcDbXrecord
280
     1
340
19
  0
XRECORD
  5
6B18
102
{ACAD_REACTORS
330
6B11
102
}
330
6B11
100
AcDbXrecord
280
     1
340
E
  0
XRECORD
  5
6B1E
102
{ACAD_REACTORS
330
6B11
102
}
330
6B11
100
AcDbXrecord
280
     1
 40
0.0
  0
XRECORD
  5
6B21
102
{ACAD_REACTORS
330
6B11
102
}
330
6B11
100
AcDbXrecord
280
     1
340
0
  0
XRECORD
  5
6B27
102
{ACAD_REACTORS
330
6B11
102
}
330
6B11
100
AcDbXrecord
280
     1
 10
0.0
 20
0.0
 30
0.0
  0
XRECORD
  5
6B23
102
{ACAD_REACTORS
330
6B11
102
}
330
6B11
100
AcDbXrecord
280
     1
 10
0.0
 20
0.0
 30
0.0
  0
XRECORD
  5
6B26
102
{ACAD_REACTORS
330
6B11
102
}
330
6B11
100
AcDbXrecord
280
     1
 10
0.0
 20
0.0
 30
0.0
  0
XRECORD
  5
6B24
102
{ACAD_REACTORS
330
6B11
102
}
330
6B11
100
AcDbXrecord
280
     1
 10
0.0
 20
0.0
 30
0.0
  0
XRECORD
  5
6B25
102
{ACAD_REACTORS
330
6B11
102
}
330
6B11
100
AcDbXrecord
280
     1
 10
0.0
 20
0.0
 30
0.0
  0
XRECORD
  5
6B22
102
{ACAD_REACTORS
330
6B11
102
}
330
6B11
100
AcDbXrecord
280
     1
 10
0.0
 20
0.0
 30
0.0
  0
XRECORD
  5
6B1F
102
{ACAD_REACTORS
330
6B11
102
}
330
6B11
100
AcDbXrecord
280
     1
340
0
  0
XRECORD
  5
6B20
102
{ACAD_REACTORS
330
6B11
102
}
330
6B11
100
AcDbXrecord
280
     1
 70
     0
  0
XRECORD
  5
6B15
102
{ACAD_REACTORS
330
6B11
102
}
330
6B11
100
AcDbXrecord
280
     1
  1
MPP.ctb
  0
XRECORD
  5
6B12
102
{ACAD_REACTORS
330
6B11
102
}
330
6B11
100
AcDbXrecord
280
     1
 90
        1
  0
XRECORD
  5
6B13
102
{ACAD_REACTORS
330
6B11
102
}
330
6B11
100
AcDbXrecord
280
     1
 90
       70
  0
XRECORD
  5
6B2A
102
{ACAD_REACTORS
330
6B11
102
}
330
6B11
100
AcDbXrecord
280
     1
340
0
  0
XRECORD
  5
6B30
102
{ACAD_REACTORS
330
6B11
102
}
330
6B11
100
AcDbXrecord
280
     1
 10
0.0
 20
0.0
 30
0.0
  0
XRECORD
  5
6B2C
102
{ACAD_REACTORS
330
6B11
102
}
330
6B11
100
AcDbXrecord
280
     1
 10
0.0
 20
0.0
 30
0.0
  0
XRECORD
  5
6B2F
102
{ACAD_REACTORS
330
6B11
102
}
330
6B11
100
AcDbXrecord
280
     1
 10
0.0
 20
0.0
 30
0.0
  0
XRECORD
  5
6B2D
102
{ACAD_REACTORS
330
6B11
102
}
330
6B11
100
AcDbXrecord
280
     1
 10
0.0
 20
0.0
 30
0.0
  0
XRECORD
  5
6B2E
102
{ACAD_REACTORS
330
6B11
102
}
330
6B11
100
AcDbXrecord
280
     1
 10
0.0
 20
0.0
 30
0.0
  0
XRECORD
  5
6B2B
102
{ACAD_REACTORS
330
6B11
102
}
330
6B11
100
AcDbXrecord
280
     1
 10
0.0
 20
0.0
 30
0.0
  0
XRECORD
  5
6B28
102
{ACAD_REACTORS
330
6B11
102
}
330
6B11
100
AcDbXrecord
280
     1
340
0
  0
XRECORD
  5
6B29
102
{ACAD_REACTORS
330
6B11
102
}
330
6B11
100
AcDbXrecord
280
     1
 70
     0
  0
XRECORD
  5
6B1D
102
{ACAD_REACTORS
330
6B11
102
}
330
6B11
100
AcDbXrecord
280
     1
  1
{B7702347-5D6C-413E-92DC-E94237DF6F40}
  0
DICTIONARYVAR
  5
629
102
{ACAD_REACTORS
330
34
102
}
330
34
100
DictionaryVariables
280
     0
  1
1:1
  0
DICTIONARYVAR
  5
627
102
{ACAD_REACTORS
330
34
102
}
330
34
100
DictionaryVariables
280
     0
  1
TSKE
  0
DICTIONARYVAR
  5
5AA
102
{ACAD_REACTORS
330
34
102
}
330
34
100
DictionaryVariables
280
     0
  1
STANDARD
  0
DICTIONARYVAR
  5
AC
102
{ACAD_REACTORS
330
34
102
}
330
34
100
DictionaryVariables
280
     0
  1
2
  0
DICTIONARYVAR
  5
35
102
{ACAD_REACTORS
330
34
102
}
330
34
100
DictionaryVariables
280
     0
  1
0
  0
DICTIONARYVAR
  5
6C0
102
{ACAD_REACTORS
330
34
102
}
330
34
100
DictionaryVariables
280
     0
  1
1
  0
DICTIONARYVAR
  5
6C1
102
{ACAD_REACTORS
330
34
102
}
330
34
100
DictionaryVariables
280
     0
  1
15
  0
DICTIONARYVAR
  5
62A
102
{ACAD_REACTORS
330
34
102
}
330
34
100
DictionaryVariables
280
     0
  1
0
  0
DICTIONARYVAR
  5
628
102
{ACAD_REACTORS
330
34
102
}
330
34
100
DictionaryVariables
280
     0
  1
0
  0
DICTIONARYVAR
  5
2E1E
102
{ACAD_REACTORS
330
34
102
}
330
34
100
DictionaryVariables
280
     0
  1
127
  0
DICTIONARYVAR
  5
70EF
102
{ACAD_REACTORS
330
34
102
}
330
34
100
DictionaryVariables
280
     0
  1
2
  0
DICTIONARY
  5
4A
102
{ACAD_REACTORS
330
49
102
}
330
49
100
AcDbDictionary
281
     1
  0
XRECORD
  5
56E
102
{ACAD_REACTORS
330
49
102
}
330
49
100
AcDbXrecord
280
     1
 90
-1023410169
  0
XRECORD
  5
2E9
102
{ACAD_REACTORS
330
2E7
102
}
330
2E7
100
AcDbXrecord
280
     1
330
0
330
0
330
0
330
0
  0
DICTIONARY
  5
709C
330
22
100
AcDbDictionary
280
     1
281
     1
  3
ADSK_XREC_LAYOUTTHUMBNAIL
360
709D
  0
DICTIONARY
  5
70FA
330
5AD
100
AcDbDictionary
280
     1
281
     1
  3
ACAD_XREC_ROUNDTRIP
360
70FB
  0
DICTIONARY
  5
70F8
330
5AC
100
AcDbDictionary
280
     1
281
     1
  3
ACAD_XREC_ROUNDTRIP
360
70F9
  0
DICTIONARY
  5
70FC
330
5AE
100
AcDbDictionary
280
     1
281
     1
  3
ACAD_XREC_ROUNDTRIP
360
70FD
  0
DICTIONARY
  5
624
330
520
100
AcDbDictionary
280
     1
281
     1
  3
ACAD_ROUNDTRIP_2008_TABLESTYLE_CELLSTYLEMAP
360
70F0
  3
ACAD_XREC_ROUNDTRIP
360
70F7
  0
DICTIONARY
  5
7108
330
5B5
100
AcDbDictionary
280
     1
281
     1
  3
ACAD_XREC_ROUNDTRIP
360
7109
  0
DICTIONARY
  5
710C
330
5B7
100
AcDbDictionary
280
     1
281
     1
  3
ACAD_XREC_ROUNDTRIP
360
710D
  0
DICTIONARY
  5
710A
330
5B6
100
AcDbDictionary
280
     1
281
     1
  3
ACAD_XREC_ROUNDTRIP
360
710B
  0
DICTIONARY
  5
7106
330
5B4
100
AcDbDictionary
280
     1
281
     1
  3
ACAD_XREC_ROUNDTRIP
360
7107
  0
DICTIONARY
  5
7114
330
5BB
100
AcDbDictionary
280
     1
281
     1
  3
ACAD_XREC_ROUNDTRIP
360
7115
  0
DICTIONARY
  5
711C
330
5BF
100
AcDbDictionary
280
     1
281
     1
  3
ACAD_XREC_ROUNDTRIP
360
711D
  0
DICTIONARY
  5
710E
330
5B8
100
AcDbDictionary
280
     1
281
     1
  3
ACAD_XREC_ROUNDTRIP
360
710F
  0
DICTIONARY
  5
7112
330
5BA
100
AcDbDictionary
280
     1
281
     1
  3
ACAD_XREC_ROUNDTRIP
360
7113
  0
DICTIONARY
  5
7130
330
6B53
100
AcDbDictionary
280
     1
281
     1
  3
ACAD_XREC_ROUNDTRIP
360
7131
  0
DICTIONARY
  5
711A
330
5BE
100
AcDbDictionary
280
     1
281
     1
  3
ACAD_XREC_ROUNDTRIP
360
711B
  0
DICTIONARY
  5
70FE
330
5B0
100
AcDbDictionary
280
     1
281
     1
  3
ACAD_XREC_ROUNDTRIP
360
70FF
  0
DICTIONARY
  5
7100
330
5B1
100
AcDbDictionary
280
     1
281
     1
  3
ACAD_XREC_ROUNDTRIP
360
7101
  0
DICTIONARY
  5
7102
330
5B2
100
AcDbDictionary
280
     1
281
     1
  3
ACAD_XREC_ROUNDTRIP
360
7103
  0
DICTIONARY
  5
7104
330
5B3
100
AcDbDictionary
280
     1
281
     1
  3
ACAD_XREC_ROUNDTRIP
360
7105
  0
DICTIONARY
  5
7120
330
6B4B
100
AcDbDictionary
280
     1
281
     1
  3
ACAD_XREC_ROUNDTRIP
360
7121
  0
DICTIONARY
  5
712C
330
6B51
100
AcDbDictionary
280
     1
281
     1
  3
ACAD_XREC_ROUNDTRIP
360
712D
  0
DICTIONARY
  5
7118
330
5BD
100
AcDbDictionary
280
     1
281
     1
  3
ACAD_XREC_ROUNDTRIP
360
7119
  0
DICTIONARY
  5
712E
330
6B52
100
AcDbDictionary
280
     1
281
     1
  3
ACAD_XREC_ROUNDTRIP
360
712F
  0
DICTIONARY
  5
7110
330
5B9
100
AcDbDictionary
280
     1
281
     1
  3
ACAD_XREC_ROUNDTRIP
360
7111
  0
DICTIONARY
  5
712A
330
6B50
100
AcDbDictionary
280
     1
281
     1
  3
ACAD_XREC_ROUNDTRIP
360
712B
  0
DICTIONARY
  5
7128
330
6B4F
100
AcDbDictionary
280
     1
281
     1
  3
ACAD_XREC_ROUNDTRIP
360
7129
  0
DICTIONARY
  5
7122
330
6B4C
100
AcDbDictionary
280
     1
281
     1
  3
ACAD_XREC_ROUNDTRIP
360
7123
  0
DICTIONARY
  5
7124
330
6B4D
100
AcDbDictionary
280
     1
281
     1
  3
ACAD_XREC_ROUNDTRIP
360
7125
  0
DICTIONARY
  5
7116
330
5BC
100
AcDbDictionary
280
     1
281
     1
  3
ACAD_XREC_ROUNDTRIP
360
7117
  0
DICTIONARY
  5
711E
330
6B4A
100
AcDbDictionary
280
     1
281
     1
  3
ACAD_XREC_ROUNDTRIP
360
711F
  0
DICTIONARY
  5
7126
330
6B4E
100
AcDbDictionary
280
     1
281
     1
  3
ACAD_XREC_ROUNDTRIP
360
7127
  0
XRECORD
  5
709D
102
{ACAD_REACTORS
330
709C
102
}
330
709C
100
AcDbXrecord
280
     1
310
280000000001000071000000010008000000000000710000000000000000000000010000000000003028210000000000FFFFFF000000000000000000000000000000000000000000000000000000000000000000330000006600000099000000CC000000FF00000000330000333300006633000099330000CC330000FF3300
310
0000660000336600006666000099660000CC660000FF66000000990000339900006699000099990000CC990000FF99000000CC000033CC000066CC000099CC0000CCCC0000FFCC000000FF000033FF000066FF000099FF0000CCFF0000FFFF000000003300330033006600330099003300CC003300FF003300003333003333
310
33006633330099333300CC333300FF33330000663300336633006666330099663300CC663300FF66330000993300339933006699330099993300CC993300FF99330000CC330033CC330066CC330099CC3300CCCC3300FFCC330000FF330033FF330066FF330099FF3300CCFF3300FFFF330000006600330066006600660099
310
006600CC006600FF00660000336600333366006633660099336600CC336600FF33660000666600336666006666660099666600CC666600FF66660000996600339966006699660099996600CC996600FF99660000CC660033CC660066CC660099CC6600CCCC6600FFCC660000FF660033FF660066FF660099FF6600CCFF6600
310
FFFF660000009900330099006600990099009900CC009900FF00990000339900333399006633990099339900CC339900FF33990000669900336699006666990099669900CC669900FF66990000999900339999006699990099999900CC999900FF99990000CC990033CC990066CC990099CC9900CCCC9900FFCC990000FF99
310
0033FF990066FF990099FF9900CCFF9900FFFF99000000CC003300CC006600CC009900CC00CC00CC00FF00CC000033CC003333CC006633CC009933CC00CC33CC00FF33CC000066CC003366CC006666CC009966CC00CC66CC00FF66CC000099CC003399CC006699CC009999CC00CC99CC00FF99CC0000CCCC0033CCCC0066CC
310
CC0099CCCC00CCCCCC00FFCCCC0000FFCC0033FFCC0066FFCC0099FFCC00CCFFCC00FFFFCC000000FF003300FF006600FF009900FF00CC00FF00FF00FF000033FF003333FF006633FF009933FF00CC33FF00FF33FF000066FF003366FF006666FF009966FF00CC66FF00FF66FF000099FF003399FF006699FF009999FF00CC
310
99FF00FF99FF0000CCFF0033CCFF0066CCFF0099CCFF00CCCCFF00FFCCFF0000FFFF0033FFFF0066FFFF0099FFFF00CCFFFF00FFFFFF00000000000D0D0D001A1A1A00282828003535350043434300505050005D5D5D006B6B6B00787878008686860093939300A1A1A100AEAEAE00BBBBBB00C9C9C900D6D6D600E4E4E400
310
F1F1F100FFFFFF000000000000000000000000000000000000000000000000000000000000000000000000000000000000000000000000000000000000000000000000000000000000000000000000000000000000000000000000000000000000000000000000000000000000000000000000000000000000000000000000
310
00000000000000000000000000000000000000000000000000000000000000000000000000000000000000000000000000000000000000000000000000000000000000000000000000000000000000000000000000000000000000000000000000000000000000000000000000000000000000000000000000000000000000
310
00000000000000000000000000000000000000000000000000000000000000000000000000000000000000000000000000000000000000000000000000000000000000000000000000000000000000000000000000000000000000000000000000000000000000000000000000000000000000000000000000000000000000
310
00000000000000000000000000000000000000000000000000000000000000000000000000000000000000000000000000000000000000000000000000000000000000000000000000000000000000000000000000000000000000000000000000000000000000000000000000000000000000000000000000000000000000
310
00000000000000000000000000000000000000000000000000000000000000000000000000000000000000000000000000000000000000000000000000000000000000000000000000000000000000000000000000000000000000000000000000000000000000000000000000000000000000000000000000000000000000
310
00000000000000000000000000000000000000000000000000000000000000000000000000000000000000000000000000000000000000000000000000000000000000000000000000000000000000000000000000000000000000000000000000000000000000000000000000000000000000000000000000000000000000
310
00000000000000000000000000000000000000000000000000000000000000000000000000000000000000000000000000000000000000000000000000000000000000000000000000000000000000000000000000000000000000000000000000000000000000000000000000000000000000000000000000000000000000
310
00000000000000000000000000000000000000000000000000000000000000000000000000000000000000000000000000000000000000000000000000000000000000000000000000000000000000000000000000000000000000000000000000000000000000000000000000000000000000000000000000000000000000
310
00000000000000000000000000000000000000000000000000000000000000000000000000000000000000000000000000000000000000000000000000000000000000000000000000000000000000000000000000000000000000000000000000000000000000000000000000000000000000000000000000000000000000
310
00000000000000000000000000000000000000000000000000000000000000000000000000000000000000000000000000000000000000000000000000000000000000000000000000000000000000000000000000000000000000000000000000000000000000000000000000000000000000000000000000000000000000
310
00000000000000000000000000000000000000000000000000000000000000000000000000000000000000000000000000000000000000000000000000000000000000000000000000000000000000000000000000000000000000000000000000000000000000000000000000000000000000000000000000000000000000
310
00000000000000000000000000000000000000000000000000000000000000000000000000000000000000000000000000000000000000000000000000000000000000000000000000000000000000000000000000000000000000000000000000000000000000000000000000000000000000000000000000000000000000
310
00000000000000000000000000000000000000000000000000000000000000000000000000000000000000000000000000000000000000000000000000000000000000000000000000000000000000000000000000000000000000000000000000000000000000000000000000000000000000000000000000000000000000
310
00000000000000000000000000000000000000000000000000000000000000000000000000000000000000000000000000000000000000000000000000000000000000000000000000000000000000000000000000000000000000000000000000000000000000000000000000000000000000000000000000000000000000
310
00000000000000000000000000000000000000000000000000000000000000000000000000000000000000000000000000000000000000000000000000000000000000000000000000000000000000000000000000000000000000000000000000000000000000000000000000000000000000000000000000000000000000
310
00000000000000000000000000000000000000000000000000000000000000000000000000000000000000000000000000000000000000000000000000000000000000000000000000000000000000000000000000000000000000000000000000000000000000000000000000000000000000000000000000000000000000
310
00000000000000000000000000000000000000000000000000000000000000000000000000000000000000000000000000000000000000000000000000000000000000000000000000000000000000000000000000000000000000000000000000000000000000000000000000000000000000000000000000000000000000
310
00000000000000000000000000000000000000000000000000000000000000000000000000000000000000000000000000000000000000000000000000000000000000000000000000000000000000000000000000000000000000000000000000000000000000000000000000000000000000000000000000000000000000
310
00000000000000000000000000000000000000000000000000000000000000000000000000000000000000000000000000000000000000000000000000000000000000000000000000000000000000000000000000000000000000000000000000000000000000000000000000000000000000000000000000000000000000
310
00000000000000000000000000000000000000000000000000000000000000000000000000000000000000000000000000000000000000000000000000000000000000000000000000000000000000000000000000000000000000000000000000000000000000000000000000000000000000000000000000000000000000
310
00000000000000000000000000000000000000000000000000000000000000000000000000000000000000000000000000000000000000000000000000000000000000000000000000000000000000000000000000000000000000000000000000000000000000000000000000000000000000000000000000000000000000
310
00000000000000000000000000000000000000000000000000000000000000000000000000000000000000000000000000000000000000000000000000000000000000000000000000000000000000000000000000000000000000000000000000000000000000000000000000000000000000000000000000000000000000
310
00000000000000000000000000000000000000000000000000000000000000000000000000000000000000000000000000000000000000000000000000000000000000000000000000000000000000000000000000000000000000000000000000000000000000000000000000000000000000000000000000000000000000
310
00000000000000000000000000000000000000000000000000000000000000000000000000000000000000000000000000000000000000000000000000000000000000000000000000000000000000000000000000000000000000000000000000000000000000000000000000000000000000000000000000000000000000
310
00000000000000000000000000000000000000000000000000000000000000000000000000000000000000000000000000000000000000000000000000000000000000000000000000000000000000000000000000000000000000000000000000000000000000000000000000000000000000000000000000000000000000
310
00000000000000000000000000000000000000000000000000000000000000000000000000000000000000000000000000000000000000000000000000000000000000000000000000000000000000000000000000000000000000000000000000000000000000000000000000000000000000000000000000000000000000
310
00000000000000000000000000000000000000000000000000000000000000000000000000000000000000000000000000000000000000000000000000000000000000000000000000000000000000000000000000000000000000000000000000000000000000000000000000000000000000000000000000000000000000
310
00000000000000000000000000000000000000000000000000000000000000000000000000000000000000000000000000000000000000000000000000000000000000000000000000000000000000000000000000000000000000000000000000000000000000000000000000000000000000000000000000000000000000
310
00000000000000000000000000000000000000000000000000000000000000000000000000000000000000000000000000000000000000000000000000000000000000000000000000000000000000000000000000000000000000000000000000000000000000000000000000000000000000000000000000000000000000
310
00000000000000000000000000000000000000000000000000000000000000000000000000000000000000000000000000000000000000000000000000000000000000000000000000000000000000000000000000000000000000000000000000000000000000000000000000000000000000000000000000000000000000
310
00000000000000000000000000000000000000000000000000000000000000000000000000000000000000000000000000000000000000000000000000000000000000000000000000000000000000000000000000000000000000000000000000000000000000000000000000000000000000000000000000000000000000
310
00000000000000000000000000000000000000000000000000000000000000000000000000000000000000000000000000000000000000000000000000000000000000000000000000000000000000000000000000000000000000000000000000000000000000000000000000000000000000000000000000000000000000
310
00000000000000000000000000000000000000000000000000000000000000000000000000000000000000000000000000000000000000000000000000000000000000000000000000000000000000000000000000000000000000000000000000000000000000000000000000000000000000000000000000000000000000
310
00000000000000000000000000000000000000000000000000000000000000000000000000000000000000000000000000000000000000000000000000000000000000000000000000000000000000000000000000000000000000000000000000000000000000000000000000000000000000000000000000000000000000
310
00000000000000000000000000000000000000000000000000000000000000000000000000000000000000000000000000000000000000000000000000000000000000000000000000000000000000000000000000000000000000000000000000000000000000000000000000000000000000000000000000000000000000
310
00000000000000000000000000000000000000000000000000000000000000000000000000000000000000000000000000000000000000000000000000000000000000000000000000000000000000000000000000000000000000000000000000000000000000000000000000000000000000000000000000000000000000
310
00000000000000000000000000000000000000000000000000000000000000000000000000000000000000000000000000000000000000000000000000000000000000000000000000000000000000000000000000000000000000000000000000000000000000000000000000000000000000000000000000000000000000
310
00000000000000000000000000000000000000000000000000000000000000000000000000000000000000000000000000000000000000000000000000000000000000000000000000000000000000000000000000000000000000000000000000000000000000000000000000000000000000000000000000000000000000
310
00000000000000000000000000000000000000000000000000000000000000000000000000000000000000000000000000000000000000000000000000000000000000000000000000000000000000000000000000000000000000000000000000000000000000000000000000000000000000000000000000000000000000
310
00000000000000000000000000000000000000000000000000000000000000000000000000000000000000000000000000000000000000000000000000000000000000000000000000000000000000000000000000000000000000000000000000000000000000000000000000000000000000000000000000000000000000
310
00000000000000000000000000000000000000000000000000000000000000000000000000000000000000000000000000000000000000000000000000000000000000000000000000000000000000000000000000000000000000000000000000000000000000000000000000000000000000000000000000000000000000
310
00000000000000000000000000000000000000000000000000000000000000000000000000000000000000000000000000000000000000000000000000000000000000000000000000000000000000000000000000000000000000000000000000000000000000000000000000000000000000000000000000000000000000
310
00000000000000000000000000000000000000000000000000000000000000000000000000000000000000000000000000000000000000000000000000000000000000000000000000000000000000000000000000000000000000000000000000000000000000000000000000000000000000000000000000000000000000
310
00000000000000000000000000000000000000000000000000000000000000000000000000000000000000000000000000000000000000000000000000000000000000000000000000000000000000000000000000000000000000000000000000000000000000000000000000000000000000000000000000000000000000
310
00000000000000000000000000000000000000000000000000000000000000000000000000000000000000000000000000000000000000000000000000000000000000000000000000000000000000000000000000000000000000000000000000000000000000000000000000000000000000000000000000000000000000
310
00000000000000000000000000000000000000000000000000000000000000000000000000000000000000000000000000000000000000000000000000000000000000000000000000000000000000000000000000000000000000000000000000000000000000000000000000000000000000000000000000000000000000
310
000000000000000000000000000000000000000000000000000000000000000000000000000000000000000000000000000000000000000000000000000000000000000000000000000000000000000000000000000000000000000000000000000000000000000000000000000000F5000000F50000F50000000000000000
310
000000000000000000000000000000F5000000F50000F50000000000000000000000000000000000000000000000000000000000000000000000000000000000000000000000000000000000000000000000000000000000000000000000000000000000000000000000000000000000000000000000000000000000000000
310
00000000000000000000000000000000000000000000000000000000000000000000000000000000000000000000000000000000000000000000000000000000000000000000000000000000000000000000000000000000000000000000000000000000000000000000000000000000F5F5F5F5F5F5F5F5F5F50000000000
310
00000000000000000000000000000000F5F5F5F5F5F5F5F5F5F5F500000000000000000000000000000000000000000000000000000000000000000000000000000000000000000000000000000000000000000000000000000000000000000000000000000000000000000000000000000000000000000000000000000000
310
000000000000000000000000000000000000000000000000000000000000000000000000000000000000000000000000000000000000000000000000000000000000000000000000000000000000000000000000000000000000000000000000000000000000000000000000000000000000F5F5F5F5F5F5F5F5F5F5000000
310
000000000000000000000000000000000000F5F5F5F5F5F5F5F5F5F5F50000000000000000000000000000000000000000000000000000000000000000000000000000000000000000000000000000000000000000000000000000000000000000000000000000000000000000000000000000000000000000000000000000
310
000000000000000000000000000000000000000000000000000000000000000000000000000000000000000000000000000000000000000000000000000000000000000000000000000000000000000000000000000000000000000000000000000000000000000000000000000000000000000000F500F500F5F500F50000
310
000000000000000000000000000000000000000000F50000F5F5F500F50000000000000000000000000000000000000000000000000000000000000000000000000000000000000000000000000000000000000000000000000000000000000000000000000000000000000000000000000000000000000000000000000000
310
00000000000000000000000000000000000000000000000000000000000000000000000000000000000000000000000000000000000000000000000000000000000000000000000000000000000000000000000000000000000000000000000000000000000000000000000000000000000000000000000000F5F5F5F50000
310
00000000000000000000000000000000000000F5F50000000000F5F5F50000000000000000000000000000000000000000000000000000000000000000000000000000000000000000000000000000000000000000000000000000000000000000000000000000000000000000000000000000000000000000000000000000
310
0000000000000000000000000000000000000000000000000000000000000000000000000000000000000000000000000000000000000000000000000000000000000000000000000000000000000000F5F500000000000000000000000000000000000000000000000000000000000000000000000000000000F5F5F5F5F5
310
F500000000000000000000000000000000000000F5F5F50000000000F5F5F5000000000000000000000000000000000000000000000000000000000000000000000000000000000000000000000000000000000000000000000000000000000000000000000000000000000000000000000000000000000000000000000000
310
000000000000000000000000000000000000000000000000000000000000000000000000000000000000000000000000000000000000000000000000000000000000000000000000000000000000000000F5F5F50000000000000000000000000000000000000000000000000000000000000000000000000000000000F5F5
310
F5F5000000000000000000000000000000000000000000F5F50000000000F5F5F5000000000000000000000000000000000000000000000000000000000000000000000000000000000000000000000000000000000000000000000000000000000000000000000000000000000000000000F5F5F5F5F5F5F5F50000000000
310
0000000000000000000000000000000000000000000000000000000000000000000000000000000000000000000000000000000000000000000000000000000000000000000000000000000000000000000000F5F5F500000000000000000000000000000000000000000000000000000000000000000000000000000000F5
310
F5F5F5F5F50000000000000000000000000000000000F5F5F5F5F5F5F5F5F5F5F5F5F5F5F5F5F5F5F5F5F5F5F5F5F5F5F5F5F5F5F5F5F5F5F5F5F5F5F5F5F5F5F5F5F5F5F5F5F5F5F5F5F5F5F5F5F5F5F5F5F5F5F5F5F5F5F5F5F5F5F5F5F5F5F5F5F5F5F5F5F5F5F5F5F5F5F5F5F5F5F5F5F5F5F5F5F5F5F5F5F5F5F5F5F5
310
F5F5F5F5F5F5F5F5F5F5F5F5F5F5F5F5F5F5F5F5F5F5F5F5F5F5F5F5F5F5F5F5F5F5F5F5F5F5F5F5F5F5F5F5F5F5F5F5F5F5F5F5F5F5F5F5F5F5F5F5F5F5F5F5F5F5F5F5F5F5F5F5F5F5F5F5F5F5F5F5F5F5F5F5F5F5F5F5F500F5000000000000000000000000000000000000000000000000000000000000000000000000
310
00F5F5F5F5F5F500000000000000000000000000000000F5F5F5F5F5F50000000000F5F500000000000000000000000000000000000000000000000000000000000000000000000000000000000000000000000000000000000000000000000000000000000000000000000000000000000000000000F5F5F5F5F5F5F5F500
310
000000000000000000000000000000000000000000000000000000000000000000000000000000000000000000000000000000000000000000000000000000000000000000000000000000000000000000000000000000F5F5F5F5F5F500000000000000000000000000000000000000000000000000000000000000000000
310
00F5F5F5F5F5F5F5F5F5F5000000000000000000000000000000F5F5F5F5F5F5F5F5F5F5F5F5F5F5F5F5F5F5F5F5F5F5F5F5F5F5F5F5F5F5F5F5F5F5F5F5F5F5F5F5F5F5F5F5F5F5F5F5F5F5F5F5F5F5F5F5F5F5F5F5F5F5F5F5F5F5F5F5F5F5F5F5F5F5F5F5F5F5F5F5F5F5F5F5F5F5F5F5F5F5F5F5F5F5F5F5F5F5F5F5F5
310
F5F5F5F5F5F5F5F5F5F5F5F5F5F5F5F5F5F5F5F5F5F5F5F5F5F5F5F5F5F5F5F5F5F5F5F5F5F5F5F5F5F5F5F5F5F5F5F5F5F5F5F5F5F5F5F5F5F5F5F5F5F5F5F5F5F5F5F5F5F5F5F5F5F5F5F5F5F5F5F5F5F5F5F5F5F5F5F5F5F5F5F5F5F5F50000000000000000000000000000000000000000000000000000000000000000
310
0000000000F5F5F5F5F5F50000000000000000000000000000000000F5F5F5F5F5F5F5F5F5F5F5F5F5F5F5F5F5F5F5F5F5F5F5F5F5F5F5F5F5F5F5F5F5F5F5F5F5F5F5F5F5F5F5F5F5F5F5F5F5F5F5F5F5F5F5F5F5F5F5F5F5F5F5F5F5F5F5F5F5F5F5F5F5F5F5F5F5F5F5F5F5F5F5F5F5F5F5F5F5F5F5F5F5F5F5F5F5F5F5
310
F5F5F5F5F5F5F5F5F5F5F5F5F5F5F5F5F5F5F5F5F5F5F5F5F5F5F5F5F5F5F5F5F5F5F5F5F5F5F5F5F5F5F5F5F5F5F5F5F5F5F5F5F5F5F5F5F5F5F5F5F5F5F5F5F5F5F5F5F5F5F5F5F5F5F5F5F5F5F5F5F5F5F5F5F5F5F5F5F5F5F5F5F5F5F5F5F5000000000000000000000000000000000000000000000000000000000000
310
00000000000000F5F5F5F5F5F50000000000000000000000000000000000000000F5F50000000000000000000000000000000000000000000000000000000000000000000000000000000000000000000000000000000000000000000000000000000000000000000000000000000000000000000000000000000000F5F5F5
310
F5F5F5F5F50000000000000000000000000000000000000000000000000000000000000000000000000000000000000000000000000000000000000000000000000000000000000000000000000000000000000000F500F5F500000000F5F5F50000F500000000000000000000000000000000000000000000000000000000
310
000000000000000000F5F5F5F5F5F500000000000000000000000000000000000000F5F5F50000000000000000000000000000000000000000000000000000000000000000000000000000000000000000000000000000000000000000000000000000000000000000000000000000000000000000000000000000000000F5
310
F5F5F5F5F5F5000000000000000000000000000000000000000000000000000000000000000000000000000000000000000000000000000000000000000000000000000000000000000000000000000000000000000000F500F5F500000000F5F5F50000000000000000000000000000000000000000000000000000000000
310
0000000000000000000000F5F5F5F5F5000000000000000000000000000000000000000000F5F500000000000000000000000000000000000000000000000000000000000000000000000000000000000000000000000000000000000000000000000000000000000000000000000000000000000000000000000000000000
310
0000000000000000000000000000000000000000000000000000000000000000000000000000000000000000000000000000000000000000000000000000000000000000000000000000000000000000000000000000000000F500F5F50000000000F5F5000000000000000000000000000000000000000000000000000000
310
000000000000000000000000F500F500F5F500F50000000000000000000000000000000000000000000000000000000000000000000000000000000000000000000000000000000000000000000000000000000000000000000000000000000000000000000000000000000000000000000000000000000000000000000000
310
0000000000000000000000000000000000000000000000000000000000000000000000000000000000000000000000000000000000000000000000000000000000000000000000000000000000000000000000000000000000F500F500F5F500F5000000000000000000000000000000000000000000000000000000000000
310
00000000000000000000000000F5F5F5F5F5F5F5F5F5F50000000000000000000000000000000000000000000000000000000000000000000000000000000000000000000000000000000000000000000000000000000000000000000000000000000000000000000000000000000000000000000000000000000000000000
310
000000000000000000000000000000000000000000000000000000000000000000000000000000000000000000000000000000000000000000000000000000000000000000000000000000000000000000000000000000000000F5F5F5F5F5F5F5F5F5F5000000000000000000000000000000000000000000000000000000
310
000000000000000000000000000000F5F5000000F50000F5F5000000000000000000000000000000000000000000000000000000000000000000000000000000000000000000000000000000000000000000000000000000000000000000000000000000000000000000000000000000000000000000000000000000000000
310
0000000000000000000000000000000000000000000000000000000000000000000000000000000000000000000000000000000000000000000000000000000000000000000000000000000000000000000000000000000000000000F5F5000000F50000F5F500000000000000000000000000000000000000000000000000
310
0000000000000000000000000000000000F5F5F5F5F5F5F5F5F5F500000000000000000000000000000000000000000000000000000000000000000000000000000000000000000000000000000000000000000000000000000000000000000000000000000000000000000000000000000000000000000000000000000000
310
00000000000000000000000000000000000000000000000000000000000000000000000000000000000000000000000000000000000000000000000000000000000000000000000000000000000000000000000000000000000000000000F5F5F5F5F5F5F5F5F5F50000000000000000000000000000000000000000000000
310
00000000000000000000000000000000000000000000000000000000000000000000000000000000000000000000000000000000000000000000000000000000000000000000000000000000000000000000000000000000000000000000000000000000000000000000000000000000000000000000000000000000000000
310
00000000000000000000000000000000000000000000000000000000000000000000000000000000000000000000000000000000000000000000000000000000000000000000000000000000000000000000000000000000000000000000000000000000000000000000000000000000000000000000000000000000000000
310
00000000000000000000000000000000000000000000000000000000000000000000000000000000000000000000000000000000000000000000000000000000000000000000000000000000000000000000000000000000000000000000000000000000000000000000000000000000000000000000000000000000000000
310
00000000000000000000000000000000000000000000000000000000000000000000000000000000000000000000000000000000000000000000000000000000000000000000000000000000000000000000000000000000000000000000000000000000000000000000000000000000000000000000000000000000000000
310
00000000000000000000000000000000000000000000000000000000000000000000000000000000000000000000000000000000000000000000000000000000000000000000000000000000000000000000000000000000000000000000000000000000000000000000000000000000000000000000000000000000000000
310
00000000000000000000000000000000000000000000000000000000000000000000000000000000000000000000000000000000000000000000000000000000000000000000000000000000000000000000000000000000000000000000000000000000000000000000000000000000000000000000000000000000000000
310
00000000000000000000000000000000000000000000000000000000000000000000000000000000000000000000000000000000000000000000000000000000000000000000000000000000000000000000000000000000000000000000000000000000000000000000000000000000000000000000000000000000000000
310
00000000000000000000000000000000000000000000000000000000000000000000000000000000000000000000000000000000000000000000000000000000000000000000000000000000000000000000000000000000000000000000000000000000000000000000000000000000000000000000000000000000000000
310
00000000000000000000000000000000000000000000000000000000000000000000000000000000000000000000000000000000000000000000000000000000000000000000000000000000000000000000000000000000000000000000000000000000000000000000000000000000000000000000000000000000000000
310
00000000000000000000000000000000000000000000000000000000000000000000000000000000000000000000000000000000000000000000000000000000000000000000000000000000000000000000000000000000000000000000000000000000000000000000000000000000000000000000000000000000000000
310
00000000000000000000000000000000000000000000000000000000000000000000000000000000000000000000000000000000000000000000000000000000000000000000000000000000000000000000000000000000000000000000000000000000000000000000000000000000000000000000000000000000000000
310
00000000000000000000000000000000000000000000000000000000000000000000000000000000000000000000000000000000000000000000000000000000000000000000000000000000000000000000000000000000000000000000000000000000000000000000000000000000000000000000000000000000000000
310
00000000000000000000000000000000000000000000000000000000000000000000000000000000000000000000000000000000000000000000000000000000000000000000000000000000000000000000000000000000000000000000000000000000000000000000000000000000000000000000000000000000000000
310
00000000000000000000000000000000000000000000000000000000000000000000000000000000000000000000000000000000000000000000000000000000000000000000000000000000000000000000000000000000000000000000000000000000000000000000000000000000000000000000000000000000000000
310
00000000000000000000000000000000000000000000000000000000000000000000000000000000000000000000000000000000000000000000000000000000000000000000000000000000000000000000000000000000000000000000000000000000000000000000000000000000000000000000000000000000000000
310
00000000000000000000000000000000000000000000000000000000000000000000000000000000000000000000000000000000000000000000000000000000000000000000000000000000000000000000000000000000000000000000000000000000000000000000000000000000000000000000000000000000000000
310
00000000000000000000000000000000000000000000000000000000000000000000000000000000000000000000000000000000000000000000000000000000000000000000000000000000000000000000000000000000000000000000000000000000000000000000000000000000000000000000000000000000000000
310
00000000000000000000000000000000000000000000000000000000000000000000000000000000000000000000000000000000000000000000000000000000000000000000000000000000000000000000000000000000000000000000000000000000000000000000000000000000000000000000000000000000000000
310
00000000000000000000000000000000000000000000000000000000000000000000000000000000000000000000000000000000000000000000000000000000000000000000000000000000000000000000000000000000000000000000000000000000000000000000000000000000000000000000000000000000000000
310
00000000000000000000000000000000000000000000000000000000000000000000000000000000000000000000000000000000000000000000000000000000000000000000000000000000000000000000000000000000000000000000000000000000000000000000000000000000000000000000000000000000000000
310
00000000000000000000000000000000000000000000000000000000000000000000000000000000000000000000000000000000000000000000000000000000000000000000000000000000000000000000000000000000000000000000000000000000000000000000000000000000000000000000000000000000000000
310
00000000000000000000000000000000000000000000000000000000000000000000000000000000000000000000000000000000000000000000000000000000000000000000000000000000000000000000000000000000000000000000000000000000000000000000000000000000000000000000000000000000000000
310
00000000000000000000000000000000000000000000000000000000000000000000000000000000000000000000000000000000000000000000000000000000000000000000000000000000000000000000000000000000000000000000000000000000000000000000000000000000000000000000000000000000000000
310
00000000000000000000000000000000000000000000000000000000000000000000000000000000000000000000000000000000000000000000000000000000000000000000000000000000000000000000000000000000000000000000000000000000000000000000000000000000000000000000000000000000000000
310
00000000000000000000000000000000000000000000000000000000000000000000000000000000000000000000000000000000000000000000000000000000000000000000000000000000000000000000000000000000000000000000000000000000000000000000000000000000000000000000000000000000000000
310
00000000000000000000000000000000000000000000000000000000000000000000000000000000000000000000000000000000000000000000000000000000000000000000000000000000000000000000000000000000000000000000000000000000000000000000000000000000000000000000000000000000000000
310
00000000000000000000000000000000000000000000000000000000000000000000000000000000000000000000000000000000000000000000000000000000000000000000000000000000000000000000000000000000000000000000000000000000000000000000000000000000000000000000000000000000000000
310
00000000000000000000000000000000000000000000000000000000000000000000000000000000000000000000000000000000000000000000000000000000000000000000000000000000000000000000000000000000000000000000000000000000000000000000000000000000000000000000000000000000000000
310
00000000000000000000000000000000000000000000000000000000000000000000000000000000000000000000000000000000000000000000000000000000000000000000000000000000000000000000000000000000000000000000000000000000000000000000000000000000000000000000000000000000000000
310
00000000000000000000000000000000000000000000000000000000000000000000000000000000000000000000000000000000000000000000000000000000000000000000000000000000000000000000000000000000000000000000000000000000000000000000000000000000000000000000000000000000000000
310
00000000000000000000000000000000000000000000000000000000000000000000000000000000000000000000000000000000000000000000000000000000000000000000000000000000000000000000000000000000000000000000000000000000000000000000000000000000000000000000000000000000000000
310
00000000000000000000000000000000000000000000000000000000000000000000000000000000000000000000000000000000000000000000000000000000000000000000000000000000000000000000000000000000000000000000000000000000000000000000000000000000000000000000000000000000000000
310
00000000000000000000000000000000000000000000000000000000000000000000000000000000000000000000000000000000000000000000000000000000000000000000000000000000000000000000000000000000000000000000000000000000000000000000000000000000000000000000000000000000000000
310
00000000000000000000000000000000000000000000000000000000000000000000000000000000000000000000000000000000000000000000000000000000000000000000000000000000000000000000000000000000000000000000000000000000000000000000000000000000000000000000000000000000000000
310
00000000000000000000000000000000000000000000000000000000000000000000000000000000000000000000000000000000000000000000000000000000000000000000000000000000000000000000000000000000000000000000000000000000000000000000000000000000000000000000000000000000000000
310
00000000000000000000000000000000000000000000000000000000000000000000000000000000000000000000000000000000000000000000000000000000000000000000000000000000000000000000000000000000000000000000000000000000000000000000000000000000000000000000000000000000000000
310
00000000000000000000000000000000000000000000000000000000000000000000000000000000000000000000000000000000000000000000000000000000000000000000000000000000000000000000000000000000000000000000000000000000000000000000000000000000000000000000000000000000000000
310
00000000000000000000000000000000000000000000000000000000000000000000000000000000000000000000000000000000000000000000000000000000000000000000000000000000000000000000000000000000000000000000000000000000000000000000000000000000000000000000000000000000000000
310
00000000000000000000000000000000000000000000000000000000000000000000000000000000000000000000000000000000000000000000000000000000000000000000000000000000000000000000000000000000000000000000000000000000000000000000000000000000000000000000000000000000000000
310
00000000000000000000000000000000000000000000000000000000000000000000000000000000000000000000000000000000000000000000000000000000000000000000000000000000000000000000000000000000000000000000000000000000000000000000000000000000000000000000000000000000000000
310
00000000000000000000000000000000000000000000000000000000000000000000000000000000000000000000000000000000000000000000000000000000000000000000000000000000000000000000000000000000000000000000000000000000000000000000000000000000000000000000000000000000000000
310
00000000000000000000000000000000000000000000000000000000000000000000000000000000000000000000000000000000000000000000000000000000000000000000000000000000000000000000000000000000000000000000000000000000000000000000000000000000000000000000000000000000000000
310
00000000000000000000000000000000000000000000000000000000000000000000000000000000000000000000000000000000000000000000000000000000000000000000000000000000000000000000000000000000000000000000000000F50000000000000000000000000000000000000000000000000000000000
310
00000000000000000000000000000000000000000000000000000000000000000000000000000000000000000000000000000000000000000000000000000000000000000000000000000000000000000000000000000000000000000000000000000000000000000000000000000000000000000000000000000000000000
310
00000000000000000000000000000000F500000000000000000000000000000000000000000000000000000000000000000000000000000000000000000000000000000000000000000000000000000000000000000000000000000000000000000000F5000000000000000000000000000000000000000000000000000000
310
00000000000000000000000000000000000000000000000000000000000000000000000000000000000000000000000000000000000000000000000000000000000000000000000000000000000000000000000000000000000000000000000000000000000000000000000000000000000000000000000000000000000000
310
000000000000000000000000000000000000F500000000000000000000000000000000000000000000000000000000000000000000000000000000000000000000000000000000000000000000000000000000000000000000000000000000000000000000F500000000000000000000000000000000000000000000000000
310
00000000000000000000000000000000000000000000000000000000000000000000000000000000000000000000000000000000000000000000000000000000000000000000000000000000000000000000000000000000000000000000000000000000000000000000000000000000000000000000000000000000000000
310
0000000000000000000000000000000000000000F50000000000000000000000000000000000000000000000000000000000000000000000000000000000000000000000000000000000000000000000000000000000000000000000000000000000000000F5F5F5F500000000000000000000000000000000000000000000
310
00000000000000000000000000000000000000000000000000000000000000000000000000000000000000000000000000000000000000000000000000000000000000000000000000000000000000000000000000000000000000000000000000000000000000000000000000000000000000000000000000000000000000
310
0000000000000000000000000000000000000000F5F5F5F50000000000000000000000000000000000000000000000000000000000000000000000000000000000000000000000000000000000000000000000000000000000000000000000000000000000F5F5F5F5F5F5F5F5000000000000000000000000000000000000
310
00000000000000000000000000000000000000000000000000000000000000000000000000000000000000000000000000000000000000000000000000000000000000000000000000000000000000000000000000000000000000000000000000000000000000000000000000000000000000000000000000000000000000
310
0000000000000000000000000000000000000000F5F5F5F5F5F5F5F50000000000000000000000000000000000000000000000000000000000000000000000000000000000000000000000000000000000000000000000000000000000000000000000F5F50000F5F5F5F5F5F5F5F5F5000000000000000000000000000000
310
000000000000000000000000000000000000000000000000000000000000000000000000000000000000000000000000000000000000000000000000000000F5F5F5F5F5F5F5F50000000000000000000000000000000000000000000000000000000000000000000000000000000000000000000000000000000000000000
310
00000000000000000000000000000000000000000000F5F5F5F5F5F5F5F5F50000F5F5000000000000000000000000000000000000000000000000000000000000000000000000000000000000000000000000000000000000000000000000000000F5F5F5F5F5F5F5F5F5F5F5F5F5F5F5F5F5F5F5F5F5F5F5F5F5F5F5F5F5
310
F5F5F5F5F5F5F5F5F5F5F5F5F5F5F5F5F5F5F5F5F5F5F5F5F5F5F5F5F5F5F5F5F5F5F5F5F5F5F5F5F5F5F5F5F5F5F5F5F5F5F5F5F5F5F5F5F5F5F5F5F5F5F5F5F5F5F5F5F5F5F5F5F5F5F5F5F5F5F5F5F5F5F5F5F5F5F5F5F5F5F5F5F5F5F5F5F5F5F5F5F5F5F5F5F5F5F5F5F5F5F5F5F5F5F5F5F5F5F5F5F5F5F5F5F5F5F5
310
F5F5F5F5F5F5F5F5F5F5F5F5F5F5F5F5F5F5F5F5F5F5F5F5F5F5F500F5F5F5F5F5F5F5F5F5F500F5000000000000000000000000000000000000000000000000000000000000000000000000000000000000000000000000000000000000000000000000F5F500F5F500F50000F500F5F50000F50000000000000000000000
310
00000000000000000000000000000000000000000000000000000000000000000000000000000000000000000000000000000000000000000000000000000000000000F5F5F5F5F5F5F5F500000000000000000000000000000000000000000000000000000000000000000000000000000000000000000000000000000000
310
00000000000000000000000000000000000000000000000000F5F500F5F5F5F500F5F500F5F5F5F5F5F50000000000000000000000000000000000000000000000000000000000000000000000000000000000000000000000000000000000000000000000F5F5F5F5F5F5F5F5F5F5F5F5F5F5F5F5F5F5F5F5F5F5F5F5F5F5
310
F5F5F5F5F5F5F5F5F5F5F5F5F5F5F5F5F5F5F5F5F5F5F5F5F5F5F5F5F5F5F5F5F5F5F5F5F5F5F5F5F5F5F5F5F5F5F5F5F5F5F5F5F5F5F5F5F5F5F5F5F5F5F5F5F5F5F5F5F5F5F5F5F5F5F5F5F5F5F5F5F5F5F5F5F5F5F5F5F5F5F5F5F5F5F5F5F5F5F5F5F5F5F5F5F5F5F5F5F5F5F5F5F5F5F5F5F5F5F5F5F5F5F5F5F5F5F5
310
F5F5F5F5F5F5F5F5F5F5F5F5F5F5F5F5F5F5F5F5F5F5F5F5F5F5F5F5F5F5F5F5F5F5F5F5F5F5F5F5F5F5F5F5000000000000000000000000000000000000000000000000000000000000000000000000000000000000000000000000000000000000000000000000F5F500F5F500F50000F500F5F50000F500000000000000
310
0000000000000000000000000000000000000000000000000000000000000000000000000000000000000000000000000000000000000000000000000000000000000000000000F5F5F5F5F5F5F5F5000000000000000000000000000000000000000000000000000000000000000000000000000000000000000000000000
310
0000000000000000000000000000000000000000000000000000000000F5F5F5F5F5F5F500F5F500F5F5F5F5F5F500000000000000000000000000000000000000000000000000000000000000000000000000000000000000000000000000000000000000000000000000F5F5F5F5F5F5F5F5F5F5F5F5F5F5F5F5F5F5F5F5
310
F5F5F5F5F5F5F5F5F5F5F5F5F5F5F5F5F5F5F5F5F5F5F5F5F5F5F5F5F5F5F5F5F5F5F5F5F5F5F5F5F5F5F5F5F5F5F5F5F5F5F5F5F5F5F5F5F5F5F5F5F5F5F5F5F5F5F5F5F5F5F5F5F5F5F5F5F5F5F5F5F5F5F5F5F5F5F5F5F5F5F5F5F5F5F5F5F5F5F5F5F5F5F5F5F5F5F5F5F5F5F5F5F5F5F5F5F5F5F5F5F5F5F5F5F5F5F5
310
F5F5F5F5F5F5F5F5F5F5F5F5F5F5F5F5F5F5F5F5F5F5F5F5F5F5F5F5F5F5F5F5F5F5F500F5F5F5F5F5F5F5F5F5F50000000000000000000000000000000000000000000000000000000000000000000000000000000000000000000000000000000000000000000000000000000000F5F50000F5F5F5F5F5F5F5F5F5000000
310
000000000000000000000000000000000000000000000000000000000000000000000000000000000000000000000000000000000000000000000000000000000000000000000000000000F5F5F5F5F5F5F5000000000000000000000000000000000000000000000000000000000000000000000000000000000000000000
310
00000000000000000000000000000000000000000000000000000000000000000000F5F5F5F5F5F5F5F5000000F5F50000000000000000000000000000000000000000000000000000000000000000000000000000000000000000000000000000000000000000000000000000000000000000000000F5F5F5F5F5F5F50000
310
00000000000000000000000000000000000000000000000000000000000000000000000000000000000000000000000000000000000000000000000000000000000000000000000000000000000000000000000000000000000000000000000000000000000000000000000000000000000000000000000000000000000000
310
00000000000000000000000000000000000000000000000000000000000000000000000000F5F5F5F5F5F5F500000000000000000000000000000000000000000000000000000000000000000000000000000000000000000000000000000000000000000000000000000000000000000000000000000000000000F5000000
310
00000000000000000000000000000000000000000000000000000000000000000000000000000000000000000000000000000000000000000000000000000000000000000000000000000000000000000000000000000000000000000000000000000000000000000000000000000000000000000000000000000000000000
310
0000000000000000000000000000000000000000000000000000000000000000000000000000000000F5F500000000000000000000000000000000000000000000000000000000000000000000000000000000000000000000000000000000000000000000000000000000000000000000000000000000000000000000F500
310
00000000000000000000000000000000000000000000000000000000000000000000000000000000000000000000000000000000000000000000000000000000000000000000000000000000000000000000000000000000000000000000000000000000000000000000000000000000000000000000000000000000000000
310
0000000000000000000000000000000000000000000000000000000000000000000000000000000000000000F500000000000000000000000000000000000000000000000000000000000000000000000000000000000000000000000000000000000000000000000000000000000000000000000000000000000000000000
310
F5000000000000000000000000000000000000000000000000000000000000000000000000000000000000000000000000000000000000000000000000000000000000000000000000000000000000000000000000000000000000000000000000000000000000000000000000000000000000000000000000000000000000
310
00000000000000000000000000000000000000000000000000000000000000000000000000000000000000000000F50000000000000000000000000000000000000000000000000000000000000000000000000000000000000000000000000000000000000000000000000000000000000000000000000000000000000000
310
0000F500000000000000000000000000000000000000000000000000000000000000000000000000000000000000000000000000000000000000000000000000000000000000000000000000000000000000000000000000000000000000000000000000000000000000000000000000000000000000000000000000000000
310
000000000000000000000000000000000000000000000000000000000000000000000000000000000000000000000000F5000000000000000000000000000000000000000000000000000000000000000000000000000000000000000000000000000000000000000000000000000000000000000000000000000000000000
310
00000000000000000000000000000000000000000000000000000000000000000000000000000000000000000000000000000000000000000000000000000000000000000000000000000000000000000000000000000000000000000000000000000000000000000000000000000000000000000000000000000000000000
310
00000000000000000000000000000000000000000000000000000000000000000000000000000000000000000000000000000000000000000000000000000000000000000000000000000000000000000000000000000000000000000000000000000000000000000000000000000000000000000000000000000000000000
310
00000000000000000000000000000000000000000000000000000000000000000000000000000000000000000000000000000000000000000000000000000000000000000000000000000000000000000000000000000000000000000000000000000000000000000000000000000000000000000000000000000000000000
310
00000000000000000000000000000000000000000000000000000000000000000000000000000000000000000000000000000000000000000000000000000000000000000000000000000000000000000000000000000000000000000000000000000000000000000000000000000000000000000000000000000000000000
310
000000000000000000000000000000000000000000000000000000000000000000000000000000000000000000000000000000000000000000F50000F500F5F5F5F500F5F5F5F5F50000F5F5F5F5F5F500F5F50000F5F5F50000F5F50000F5F5F5000000000000F5F5F5F500F5F5F5F5000000F5F50000F50000F50000F5F5
310
F5F5F50000F500000000000000000000000000000000000000000000000000000000000000000000000000000000000000000000000000000000000000000000000000000000000000000000000000000000000000000000000000000000000000000000000000000000000000000000000000000000000000000000000000
310
0000000000000000000000000000000000000000000000000000000000000000000000000000000000000000000000000000000000000000000000F500000000F50000F500000000F500F5F50000F5F50000F50000F500F500F500F50000F500F5000000000000000000F5000000F500F500F5F5F5F500F5F5000000F50000
310
F50000F500F5F5F50000000000000000000000000000000000000000000000000000000000000000000000000000000000000000000000000000000000000000000000000000000000000000000000000000000000000000000000000000000000000000000000000000000000000000000000000000000000000000000000
310
00000000000000000000000000000000000000000000000000000000000000000000000000000000000000000000000000000000000000000000000000F500000000F50000F500F5F5F5000000F500000000F500F50000F5F5000000F5F50000F500F50000F5F5F5F5F5000000F500F5000000F5F500F5000000F5000000F5
310
0000F50000F500F500F5000000000000000000000000000000000000000000000000000000000000000000000000000000000000000000000000000000000000000000000000000000000000000000000000000000000000000000000000000000000000000000000000000000000000000000000000000000000000000000
310
000000000000000000000000000000000000000000000000000000000000000000000000000000000000000000000000000000000000000000000000000000F50000000000F5F5F500F500000000F5F50000F500F500F50000F500F50000F5F50000F500F50000000000000000F50000F500F50000F500F5F50000F5F50000
310
00F50000F5F5F5000000F50000000000000000000000000000000000000000000000000000000000000000000000000000000000000000000000000000000000000000000000000000000000000000000000000000000000000000000000000000000000000000000000000000000000000000000000000000000000000000
310
00000000000000000000000000000000000000000000000000000000000000000000000000000000000000000000000000000000000000000000000000000000F5F50000000000F5F5F500F5F5F5F5F50000F500F5F5F500F5F5F5F500F5F5F500F5F5F5F500F50000000000000000F5F5F5F500F5F5F50000F50000F50000
310
F500F5F50000F5F5F5F50000F5000000000000000000000000000000000000000000000000000000000000000000000000000000000000000000000000000000000000000000000000000000000000000000000000000000000000000000000000000000000000000000000000000000000000000000000000000000000000
310
00000000000000000000000000000000000000000000000000000000000000000000000000000000000000000000000000000000000000000000000000000000000000000000000000000000000000000000000000000000000000000000000000000000000000000000000000000000000000000000000000000000000000
310
00000000000000000000000000000000000000000000000000000000000000000000000000000000000000000000000000000000000000000000000000000000000000000000000000000000000000000000000000000000000000000000000000000000000000000000000000000000000000000000000000000000000000
310
00000000000000000000000000000000000000000000000000000000000000000000000000000000000000000000000000000000000000000000000000000000000000000000000000000000000000000000000000000000000000000000000000000000000000000000000000000000000000000000000000000000000000
310
00000000000000000000000000000000000000000000000000000000000000000000000000000000000000000000000000000000000000000000000000000000000000000000000000000000000000000000000000000000000000000000000000000000000000000000000000000000000000000000000000000000000000
310
00000000000000000000000000000000000000000000000000000000000000000000000000000000000000000000000000000000000000000000000000000000000000000000000000000000000000000000000000000000000000000000000000000000000000000000000000000000000000000000000000000000000000
310
00000000000000000000000000000000000000000000000000000000000000000000000000000000000000000000000000000000000000000000000000000000000000000000000000000000000000000000000000000000000000000000000000000000000000000000000000000000000000000000000000000000000000
310
00000000000000000000000000000000000000000000000000000000000000000000000000000000000000000000000000000000000000000000000000000000000000000000000000000000000000000000000000000000000000000000000000000000000000000000000000000000000000000000000000000000000000
310
00000000000000000000000000000000000000000000000000000000000000000000000000000000000000000000000000000000000000000000000000000000000000000000000000000000000000000000000000000000000000000000000000000000000000000000000000000000000000000000000000000000000000
310
00000000000000000000000000000000000000000000000000000000000000000000000000000000000000000000000000000000000000000000000000000000000000000000000000000000000000000000000000000000000000000000000000000000000000000000000000000000000000000000000000000000000000
310
00000000000000000000000000000000000000000000000000000000000000000000000000000000000000000000000000000000000000000000000000000000000000000000000000000000000000000000000000000000000000000000000000000000000000000000000000000000000000000000000000000000000000
310
00000000000000000000000000000000000000000000000000000000000000000000000000000000000000000000000000000000000000000000000000000000000000000000000000000000000000000000000000000000000000000000000000000000000000000000000000000000000000000000000000000000000000
310
00000000000000000000000000000000000000000000000000000000000000000000000000000000000000000000000000000000000000000000000000000000000000000000000000000000000000000000000000000000000000000000000000000000000000000000000000000000000000000000000000000000000000
310
00000000000000000000000000000000000000000000000000000000000000000000000000000000000000000000000000000000000000000000000000000000000000000000000000000000000000000000000000000000000000000000000000000000000000000000000000000000000000000000000000000000000000
310
00000000000000000000000000000000000000000000000000000000000000000000000000000000000000000000000000000000000000000000000000000000000000000000000000000000000000000000000000000000000000000000000000000000000000000000000000000000000000000000000000000000000000
310
00000000000000000000000000000000000000000000000000000000000000000000000000000000000000000000000000000000000000000000000000000000000000000000000000000000000000000000000000000000000000000000000000000000000000000000000000000000000000000000000000000000000000
310
00000000000000000000000000000000000000000000000000000000000000000000000000000000000000000000000000000000000000000000000000000000000000000000000000000000000000000000000000000000000000000000000000000000000000000000000000000000000000000000000000000000000000
310
00000000000000000000000000000000000000000000000000000000000000000000000000000000000000000000000000000000000000000000000000000000000000000000000000000000000000000000000000000000000000000000000000000000000000000000000000000000000000000000000000000000000000
310
00000000000000000000000000000000000000000000000000000000000000000000000000000000000000000000000000000000000000000000000000000000000000000000000000000000000000000000000000000000000000000000000000000000000000000000000000000000000000000000000000000000000000
310
00000000000000000000000000000000000000000000000000000000000000000000000000000000000000000000000000000000000000000000000000000000000000000000000000000000000000000000000000000000000000000000000000000000000000000000000000000000000000000000000000000000000000
310
00000000000000000000000000000000000000000000000000000000000000000000000000000000000000000000000000000000000000000000000000000000000000000000000000000000000000000000000000000000000000000000000000000000000000000000000000000000000000000000000000000000000000
310
00000000000000000000000000000000000000000000000000000000000000000000000000000000000000000000000000000000000000000000000000000000000000000000000000000000000000000000000000000000000000000000000000000000000000000000000000000000000000000000000000000000000000
310
00000000000000000000000000000000000000000000000000000000000000000000000000000000000000000000000000000000000000000000000000000000000000000000000000000000000000000000000000000000000000000000000000000000000000000000000000000000000000000000000000000000000000
310
00000000000000000000000000000000000000000000000000000000000000000000000000000000000000000000000000000000000000000000000000000000000000000000000000000000000000000000000000000000000000000000000000000000000000000000000000000000000000000000000000000000000000
310
00000000000000000000000000000000000000000000000000000000000000000000000000000000000000000000000000000000000000000000000000000000000000000000000000000000000000000000000000000000000000000000000000000000000000000000000000000000000000000000000000000000000000
310
00000000000000000000000000000000000000000000000000000000000000000000000000000000000000000000000000000000000000000000000000000000000000000000000000000000000000000000000000000000000000000000000000000000000000000000000000000000000000000000000000000000000000
310
00000000000000000000000000000000000000000000000000000000000000000000000000000000000000000000000000000000000000000000000000000000000000000000000000000000000000000000000000000000000000000000000000000000000000000000000000000000000000000000000000000000000000
310
00000000000000000000000000000000000000000000000000000000000000000000000000000000000000000000000000000000000000000000000000000000000000000000000000000000000000000000000000000000000000000000000000000000000000000000000000000000000000000000000000000000000000
310
00000000000000000000000000000000000000000000000000000000000000000000000000000000000000000000000000000000000000000000000000000000000000000000000000000000000000000000000000000000000000000000000000000000000000000000000000000000000000000000000000000000000000
310
00000000000000000000000000000000000000000000000000000000000000000000000000000000000000000000000000000000000000000000000000000000000000000000000000000000000000000000000000000000000000000000000000000000000000000000000000000000000000000000000000000000000000
310
00000000000000000000000000000000000000000000000000000000000000000000000000000000000000000000000000000000000000000000000000000000000000000000000000000000000000000000000000000000000000000000000000000000000000000000000000000000000000000000000000000000000000
310
00000000000000000000000000000000000000000000000000000000000000000000000000000000000000000000000000000000000000000000000000000000000000000000000000000000000000000000000000000000000000000000000000000000000000000000000000000000000000000000000000000000000000
310
00000000000000000000000000000000000000000000000000000000000000000000000000000000000000000000000000000000000000000000000000000000000000000000000000000000000000000000000000000000000000000000000000000000000000000000000000000000000000000000000000000000000000
310
00000000000000000000000000000000000000000000000000000000000000000000000000000000000000000000000000000000000000000000000000000000000000000000000000000000000000000000000000000000000000000000000000000000000000000000000000000000000000000000000000000000000000
310
00000000000000000000000000000000000000000000000000000000000000000000000000000000000000000000000000000000000000000000000000000000000000000000000000000000000000000000000000000000000000000000000000000000000000000000000000000000000000000000000000000000000000
310
00000000000000000000000000000000000000000000000000000000000000000000000000000000000000000000000000000000000000000000000000000000000000000000000000000000000000000000000000000000000000000000000000000000000000000000000000000000000000000000000000000000000000
310
00000000000000000000000000000000000000000000000000000000000000000000000000000000000000000000000000000000000000000000000000000000000000000000000000000000000000000000000000000000000000000000000000000000000000000000000000000000000000000000000000000000000000
310
00000000000000000000000000000000000000000000000000000000000000000000000000000000000000000000000000000000000000000000000000000000000000000000000000000000000000000000000000000000000000000000000000000000000000000000000000000000000000000000000000000000000000
310
00000000000000000000000000000000000000000000000000000000000000000000000000000000000000000000000000000000000000000000000000000000000000000000000000000000000000000000000000000000000000000000000000000000000000000000000000000000000000000000000000000000000000
310
00000000000000000000000000000000000000000000000000000000000000000000000000000000000000000000000000000000000000000000000000000000000000000000000000000000000000000000000000000000000000000000000000000000000000000000000000000000000000000000000000000000000000
310
00000000000000000000000000000000000000000000000000000000000000000000000000000000000000000000000000000000000000000000000000000000000000000000000000000000000000000000000000000000000000000000000000000000000000000000000000000000000000000000000000000000000000
310
00000000000000000000000000000000000000000000000000000000000000000000000000000000000000000000000000000000000000000000000000000000000000000000000000000000000000000000000000000000000000000000000000000000000000000000000000000000000000000000000000000000000000
310
00000000000000000000000000000000000000000000000000000000000000000000000000000000000000000000000000000000000000000000000000000000000000000000000000000000000000000000000000000000000000000000000000000000000000000000000000000000000000000000000000000000000000
310
00000000000000000000000000000000000000000000000000000000000000000000000000000000000000000000000000000000000000000000000000000000000000000000000000000000000000000000000000000000000000000000000000000000000000000000000000000000000000000000000000000000000000
310
00000000000000000000000000000000000000000000000000000000000000000000000000000000000000000000000000000000000000000000000000000000000000000000000000000000000000000000000000000000000000000000000000000000000000000000000000000000000000000000000000000000000000
310
00000000000000000000000000000000000000000000000000000000000000000000000000000000000000000000000000000000000000000000000000000000000000000000000000000000000000000000000000000000000000000000000000000000000000000000000000000000000000000000000000000000000000
310
00000000000000000000000000000000000000000000000000000000000000000000000000000000000000000000000000000000000000000000000000000000000000000000000000000000000000000000000000000000000000000000000000000000000000000000000000000000000000000000000000000000000000
310
00000000000000000000000000000000000000000000000000000000000000000000000000000000000000000000000000000000000000000000000000000000000000000000000000000000000000000000000000000000000000000000000000000000000000000000000000000000000000000000000000000000000000
310
00000000000000000000000000000000000000000000000000000000000000000000000000000000000000000000000000000000000000000000000000000000000000000000000000000000000000000000000000000000000000000000000000000000000000000000000000000000000000000000000000000000000000
310
00000000000000000000000000000000000000000000000000000000000000000000000000000000000000000000000000000000000000000000000000000000000000000000000000000000000000000000000000000000000000000000000000000000000000000000000000000000000000000000000000000000000000
310
00000000000000000000000000000000000000000000000000000000000000000000000000000000000000000000000000000000000000000000000000000000000000000000000000000000000000000000000000000000000000000000000000000000000000000000000000000000000000000000000000000000000000
310
00000000000000000000000000000000000000000000000000000000000000000000000000000000000000000000000000000000000000000000000000000000000000000000000000000000000000000000000000000000000000000000000000000000000000000000000000000000000000000000000000000000000000
310
00000000000000000000000000000000000000000000000000000000000000000000000000000000000000000000000000000000000000000000000000000000000000000000000000000000000000000000000000000000000000000000000000000000000000000000000000000000000000000000000000000000000000
310
00000000000000000000000000000000000000000000000000000000000000000000000000000000000000000000000000000000000000000000000000000000000000000000000000000000000000000000000000000000000000000000000000000000000000000000000000000000000000000000000000000000000000
310
00000000000000000000000000000000000000000000000000000000000000000000000000000000000000000000000000000000000000000000000000000000000000000000000000000000000000000000000000000000000000000000000000000000000000000000000000000000000000000000000000000000000000
310
0000000000000000000000000000000000000000
  0
XRECORD
  5
70FB
102
{ACAD_REACTORS
330
70FA
102
}
330
70FA
100
AcDbXrecord
280
     1
102
MATERIAL
148
0.0
149
0.0
149
0.0
 93
        0
 94
       63
282
     0
 72
     1
 77
     1
171
     1
175
     1
179
     1
273
     0
  0
XRECORD
  5
70F9
102
{ACAD_REACTORS
330
70F8
102
}
330
70F8
100
AcDbXrecord
280
     1
102
MATERIAL
148
0.0
149
0.0
149
0.0
 93
        0
 94
       63
282
     0
 72
     1
 77
     1
171
     1
175
     1
179
     1
273
     0
  0
XRECORD
  5
70FD
102
{ACAD_REACTORS
330
70FC
102
}
330
70FC
100
AcDbXrecord
280
     1
102
MATERIAL
148
0.0
149
0.0
149
0.0
 93
        0
 94
       63
282
     0
 72
     1
 77
     1
171
     1
175
     1
179
     1
273
     0
  0
CELLSTYLEMAP
  5
70F0
102
{ACAD_REACTORS
330
624
102
}
330
624
100
AcDbCellStyleMap
 90
        3
300
CELLSTYLE
  1
TABLEFORMAT_BEGIN
 90
        5
170
     1
 91
        0
 92
    32768
 62
   257
 93
        1
300
CONTENTFORMAT
  1
CONTENTFORMAT_BEGIN
 90
        0
 91
        0
 92
        4
 93
        0
300

 40
0.0
140
1.0
 94
        5
 62
     0
340
11
144
6.0
309
CONTENTFORMAT_END
171
     1
301
MARGIN
  1
CELLMARGIN_BEGIN
 40
1.5
 40
1.5
 40
1.5
 40
1.5
 40
0.18
 40
0.18
309
CELLMARGIN_END
 94
        6
 95
        1
302
GRIDFORMAT
  1
GRIDFORMAT_BEGIN
 90
        0
 91
        1
 62
     0
 92
       -2
340
0
 93
        0
 40
0.045
309
GRIDFORMAT_END
 95
        2
302
GRIDFORMAT
  1
GRIDFORMAT_BEGIN
 90
        0
 91
        1
 62
     0
 92
       -2
340
0
 93
        0
 40
0.045
309
GRIDFORMAT_END
 95
        4
302
GRIDFORMAT
  1
GRIDFORMAT_BEGIN
 90
        0
 91
        1
 62
     0
 92
       -2
340
0
 93
        0
 40
0.045
309
GRIDFORMAT_END
 95
        8
302
GRIDFORMAT
  1
GRIDFORMAT_BEGIN
 90
        0
 91
        1
 62
     0
 92
       -2
340
0
 93
        0
 40
0.045
309
GRIDFORMAT_END
 95
       16
302
GRIDFORMAT
  1
GRIDFORMAT_BEGIN
 90
        0
 91
        1
 62
     0
 92
       -2
340
0
 93
        0
 40
0.045
309
GRIDFORMAT_END
 95
       32
302
GRIDFORMAT
  1
GRIDFORMAT_BEGIN
 90
        0
 91
        1
 62
     0
 92
       -2
340
0
 93
        0
 40
0.045
309
GRIDFORMAT_END
309
TABLEFORMAT_END
  1
CELLSTYLE_BEGIN
 90
        1
 91
        1
300
_TITLE
309
CELLSTYLE_END
300
CELLSTYLE
  1
TABLEFORMAT_BEGIN
 90
        5
170
     1
 91
        0
 92
        0
 62
   257
 93
        1
300
CONTENTFORMAT
  1
CONTENTFORMAT_BEGIN
 90
        0
 91
        0
 92
        4
 93
        0
300

 40
0.0
140
1.0
 94
        5
 62
     0
340
11
144
4.5
309
CONTENTFORMAT_END
171
     1
301
MARGIN
  1
CELLMARGIN_BEGIN
 40
1.5
 40
1.5
 40
1.5
 40
1.5
 40
0.18
 40
0.18
309
CELLMARGIN_END
 94
        6
 95
        1
302
GRIDFORMAT
  1
GRIDFORMAT_BEGIN
 90
        0
 91
        1
 62
     0
 92
       -2
340
0
 93
        0
 40
0.045
309
GRIDFORMAT_END
 95
        2
302
GRIDFORMAT
  1
GRIDFORMAT_BEGIN
 90
        0
 91
        1
 62
     0
 92
       -2
340
0
 93
        0
 40
0.045
309
GRIDFORMAT_END
 95
        4
302
GRIDFORMAT
  1
GRIDFORMAT_BEGIN
 90
        0
 91
        1
 62
     0
 92
       -2
340
0
 93
        0
 40
0.045
309
GRIDFORMAT_END
 95
        8
302
GRIDFORMAT
  1
GRIDFORMAT_BEGIN
 90
        0
 91
        1
 62
     0
 92
       -2
340
0
 93
        0
 40
0.045
309
GRIDFORMAT_END
 95
       16
302
GRIDFORMAT
  1
GRIDFORMAT_BEGIN
 90
        0
 91
        1
 62
     0
 92
       -2
340
0
 93
        0
 40
0.045
309
GRIDFORMAT_END
 95
       32
302
GRIDFORMAT
  1
GRIDFORMAT_BEGIN
 90
        0
 91
        1
 62
     0
 92
       -2
340
0
 93
        0
 40
0.045
309
GRIDFORMAT_END
309
TABLEFORMAT_END
  1
CELLSTYLE_BEGIN
 90
        2
 91
        1
300
_HEADER
309
CELLSTYLE_END
300
CELLSTYLE
  1
TABLEFORMAT_BEGIN
 90
        5
170
     1
 91
        0
 92
        0
 62
   257
 93
        1
300
CONTENTFORMAT
  1
CONTENTFORMAT_BEGIN
 90
        0
 91
        0
 92
        4
 93
        0
300

 40
0.0
140
1.0
 94
        2
 62
     0
340
11
144
4.5
309
CONTENTFORMAT_END
171
     1
301
MARGIN
  1
CELLMARGIN_BEGIN
 40
1.5
 40
1.5
 40
1.5
 40
1.5
 40
0.18
 40
0.18
309
CELLMARGIN_END
 94
        6
 95
        1
302
GRIDFORMAT
  1
GRIDFORMAT_BEGIN
 90
        0
 91
        1
 62
     0
 92
       -2
340
0
 93
        0
 40
0.045
309
GRIDFORMAT_END
 95
        2
302
GRIDFORMAT
  1
GRIDFORMAT_BEGIN
 90
        0
 91
        1
 62
     0
 92
       -2
340
0
 93
        0
 40
0.045
309
GRIDFORMAT_END
 95
        4
302
GRIDFORMAT
  1
GRIDFORMAT_BEGIN
 90
        0
 91
        1
 62
     0
 92
       -2
340
0
 93
        0
 40
0.045
309
GRIDFORMAT_END
 95
        8
302
GRIDFORMAT
  1
GRIDFORMAT_BEGIN
 90
        0
 91
        1
 62
     0
 92
       -2
340
0
 93
        0
 40
0.045
309
GRIDFORMAT_END
 95
       16
302
GRIDFORMAT
  1
GRIDFORMAT_BEGIN
 90
        0
 91
        1
 62
     0
 92
       -2
340
0
 93
        0
 40
0.045
309
GRIDFORMAT_END
 95
       32
302
GRIDFORMAT
  1
GRIDFORMAT_BEGIN
 90
        0
 91
        1
 62
     0
 92
       -2
340
0
 93
        0
 40
0.045
309
GRIDFORMAT_END
309
TABLEFORMAT_END
  1
CELLSTYLE_BEGIN
 90
        3
 91
        2
300
_DATA
309
CELLSTYLE_END
  0
XRECORD
  5
70F7
102
{ACAD_REACTORS
330
624
102
}
330
624
100
AcDbXrecord
280
     1
102
ACAD_ROUNDTRIP_PRE2007_TABLESTYLE
 90
        4
 91
        0
  1

 92
        4
 93
        0
  2

 94
        4
 95
        0
  3

  0
XRECORD
  5
7109
102
{ACAD_REACTORS
330
7108
102
}
330
7108
100
AcDbXrecord
280
     1
102
RTVSPropertyOp0
 70
     1
102
RTVSPropertyOp1
 70
     1
102
RTVSPropertyOp2
 70
     1
102
RTVSPropertyOp3
 70
     1
102
RTVSPropertyOp4
 70
     1
102
RTVSPropertyOp5
 70
     1
102
RTVSPropertyOp6
 70
     1
102
RTVSPropertyOp7
 70
     1
102
RTVSPropertyOp8
 70
     1
102
RTVSPropertyOp9
 70
     1
102
RTVSPropertyOp10
 70
     1
102
RTVSPropertyOp11
 70
     1
102
RTVSPropertyOp12
 70
     1
102
RTVSPropertyOp13
 70
     1
102
RTVSPropertyOp14
 70
     1
102
RTVSPropertyOp15
 70
     1
102
RTVSPropertyOp16
 70
     1
102
RTVSPropertyOp17
 70
     1
102
RTVSPropertyOp18
 70
     1
102
RTVSPropertyOp19
 70
     1
102
RTVSPropertyOp20
 70
     1
102
RTVSPropertyOp21
 70
     1
102
RTVSPropertyOp22
 70
     1
102
RTVSPropertyOp23
 70
     1
102
RTVSPropertyOp24
 70
     1
102
RTVSPropertyOp25
 70
     1
102
RTVSPropertyOp26
 70
     1
102
RTVSPropertyOp27
 70
     1
102
RTVSPropertyOp28
 70
     1
102
RTVSPropertyOp29
 70
     1
102
RTVSPropertyOp30
 70
     1
102
RTVSPropertyOp31
 70
     1
102
RTVSPropertyOp32
 70
     1
  0
XRECORD
  5
710D
102
{ACAD_REACTORS
330
710C
102
}
330
710C
100
AcDbXrecord
280
     1
102
RTVSPropertyOp0
 70
     1
102
RTVSPropertyOp1
 70
     1
102
RTVSPropertyOp2
 70
     1
102
RTVSPropertyOp3
 70
     1
102
RTVSPropertyOp4
 70
     1
102
RTVSPropertyOp5
 70
     1
102
RTVSPropertyOp6
 70
     1
102
RTVSPropertyOp7
 70
     1
102
RTVSPropertyOp8
 70
     1
102
RTVSPropertyOp9
 70
     1
102
RTVSPropertyOp10
 70
     1
102
RTVSPropertyOp11
 70
     1
102
RTVSPropertyOp12
 70
     1
102
RTVSPropertyOp13
 70
     1
102
RTVSPropertyOp14
 70
     1
102
RTVSPropertyOp15
 70
     1
102
RTVSPropertyOp16
 70
     1
102
RTVSPropertyOp17
 70
     1
102
RTVSPropertyOp18
 70
     1
102
RTVSPropertyOp19
 70
     1
102
RTVSPropertyOp20
 70
     1
102
RTVSPropertyOp21
 70
     1
102
RTVSPropertyOp22
 70
     1
102
RTVSPropertyOp23
 70
     1
102
RTVSPropertyOp24
 70
     1
102
RTVSPropertyOp25
 70
     1
102
RTVSPropertyOp26
 70
     1
102
RTVSPropertyOp27
 70
     1
102
RTVSPropertyOp28
 70
     1
102
RTVSPropertyOp29
 70
     1
102
RTVSPropertyOp30
 70
     1
102
RTVSPropertyOp31
 70
     1
102
RTVSPropertyOp32
 70
     1
  0
XRECORD
  5
710B
102
{ACAD_REACTORS
330
710A
102
}
330
710A
100
AcDbXrecord
280
     1
102
RTVSPropertyOp0
 70
     1
102
RTVSPropertyOp1
 70
     1
102
RTVSPropertyOp2
 70
     1
102
RTVSPropertyOp3
 70
     1
102
RTVSPropertyOp4
 70
     1
102
RTVSPropertyOp5
 70
     1
102
RTVSPropertyOp6
 70
     1
102
RTVSPropertyOp7
 70
     1
102
RTVSPropertyOp8
 70
     1
102
RTVSPropertyOp9
 70
     1
102
RTVSPropertyOp10
 70
     1
102
RTVSPropertyOp11
 70
     1
102
RTVSPropertyOp12
 70
     1
102
RTVSPropertyOp13
 70
     1
102
RTVSPropertyOp14
 70
     1
102
RTVSPropertyOp15
 70
     1
102
RTVSPropertyOp16
 70
     1
102
RTVSPropertyOp17
 70
     1
102
RTVSPropertyOp18
 70
     1
102
RTVSPropertyOp19
 70
     1
102
RTVSPropertyOp20
 70
     1
102
RTVSPropertyOp21
 70
     1
102
RTVSPropertyOp22
 70
     1
102
RTVSPropertyOp23
 70
     1
102
RTVSPropertyOp24
 70
     1
102
RTVSPropertyOp25
 70
     1
102
RTVSPropertyOp26
 70
     1
102
RTVSPropertyOp27
 70
     1
102
RTVSPropertyOp28
 70
     1
102
RTVSPropertyOp29
 70
     1
102
RTVSPropertyOp30
 70
     1
102
RTVSPropertyOp31
 70
     1
102
RTVSPropertyOp32
 70
     1
  0
XRECORD
  5
7107
102
{ACAD_REACTORS
330
7106
102
}
330
7106
100
AcDbXrecord
280
     1
102
RTVSPropertyOp0
 70
     1
102
RTVSPropertyOp1
 70
     1
102
RTVSPropertyOp2
 70
     1
102
RTVSPropertyOp3
 70
     1
102
RTVSPropertyOp4
 70
     1
102
RTVSPropertyOp5
 70
     1
102
RTVSPropertyOp6
 70
     1
102
RTVSPropertyOp7
 70
     1
102
RTVSPropertyOp8
 70
     1
102
RTVSPropertyOp9
 70
     1
102
RTVSPropertyOp10
 70
     1
102
RTVSPropertyOp11
 70
     1
102
RTVSPropertyOp12
 70
     1
102
RTVSPropertyOp13
 70
     1
102
RTVSPropertyOp14
 70
     1
102
RTVSPropertyOp15
 70
     1
102
RTVSPropertyOp16
 70
     1
102
RTVSPropertyOp17
 70
     1
102
RTVSPropertyOp18
 70
     1
102
RTVSPropertyOp19
 70
     1
102
RTVSPropertyOp20
 70
     1
102
RTVSPropertyOp21
 70
     1
102
RTVSPropertyOp22
 70
     1
102
RTVSPropertyOp23
 70
     1
102
RTVSPropertyOp24
 70
     1
102
RTVSPropertyOp25
 70
     1
102
RTVSPropertyOp26
 70
     1
102
RTVSPropertyOp27
 70
     1
102
RTVSPropertyOp28
 70
     1
102
RTVSPropertyOp29
 70
     1
102
RTVSPropertyOp30
 70
     1
102
RTVSPropertyOp31
 70
     1
102
RTVSPropertyOp32
 70
     1
  0
XRECORD
  5
7115
102
{ACAD_REACTORS
330
7114
102
}
330
7114
100
AcDbXrecord
280
     1
102
RTVSPropertyOp0
 70
     1
102
RTVSPropertyOp1
 70
     1
102
RTVSPropertyOp2
 70
     1
102
RTVSPropertyOp3
 70
     1
102
RTVSPropertyOp4
 70
     1
102
RTVSPropertyOp5
 70
     1
102
RTVSPropertyOp6
 70
     1
102
RTVSPropertyOp7
 70
     1
102
RTVSPropertyOp8
 70
     1
102
RTVSPropertyOp9
 70
     1
102
RTVSPropertyOp10
 70
     1
102
RTVSPropertyOp11
 70
     1
102
RTVSPropertyOp12
 70
     1
102
RTVSPropertyOp13
 70
     1
102
RTVSPropertyOp14
 70
     1
102
RTVSPropertyOp15
 70
     1
102
RTVSPropertyOp16
 70
     1
102
RTVSPropertyOp17
 70
     1
102
RTVSPropertyOp18
 70
     1
102
RTVSPropertyOp19
 70
     1
102
RTVSPropertyOp20
 70
     1
102
RTVSPropertyOp21
 70
     1
102
RTVSPropertyOp22
 70
     1
102
RTVSPropertyOp23
 70
     1
102
RTVSPropertyOp24
 70
     1
102
RTVSPropertyOp25
 70
     1
102
RTVSPropertyOp26
 70
     1
102
RTVSPropertyOp27
 70
     1
102
RTVSPropertyOp28
 70
     1
102
RTVSPropertyOp29
 70
     1
102
RTVSPropertyOp30
 70
     1
102
RTVSPropertyOp31
 70
     1
102
RTVSPropertyOp32
 70
     1
  0
XRECORD
  5
711D
102
{ACAD_REACTORS
330
711C
102
}
330
711C
100
AcDbXrecord
280
     1
102
RTVSPropertyOp0
 70
     1
102
RTVSPropertyOp1
 70
     1
102
RTVSPropertyOp2
 70
     1
102
RTVSPropertyOp3
 70
     1
102
RTVSPropertyOp4
 70
     1
102
RTVSPropertyOp5
 70
     1
102
RTVSPropertyOp6
 70
     1
102
RTVSPropertyOp7
 70
     1
102
RTVSPropertyOp8
 70
     1
102
RTVSPropertyOp9
 70
     1
102
RTVSPropertyOp10
 70
     1
102
RTVSPropertyOp11
 70
     1
102
RTVSPropertyOp12
 70
     1
102
RTVSPropertyOp13
 70
     1
102
RTVSPropertyOp14
 70
     1
102
RTVSPropertyOp15
 70
     1
102
RTVSPropertyOp16
 70
     1
102
RTVSPropertyOp17
 70
     1
102
RTVSPropertyOp18
 70
     1
102
RTVSPropertyOp19
 70
     1
102
RTVSPropertyOp20
 70
     1
102
RTVSPropertyOp21
 70
     1
102
RTVSPropertyOp22
 70
     1
102
RTVSPropertyOp23
 70
     1
102
RTVSPropertyOp24
 70
     1
102
RTVSPropertyOp25
 70
     1
102
RTVSPropertyOp26
 70
     1
102
RTVSPropertyOp27
 70
     1
102
RTVSPropertyOp28
 70
     1
102
RTVSPropertyOp29
 70
     1
102
RTVSPropertyOp30
 70
     1
102
RTVSPropertyOp31
 70
     1
102
RTVSPropertyOp32
 70
     1
  0
XRECORD
  5
710F
102
{ACAD_REACTORS
330
710E
102
}
330
710E
100
AcDbXrecord
280
     1
102
RTVSPropertyOp0
 70
     1
102
RTVSPropertyOp1
 70
     1
102
RTVSPropertyOp2
 70
     1
102
RTVSPropertyOp3
 70
     1
102
RTVSPropertyOp4
 70
     1
102
RTVSPropertyOp5
 70
     1
102
RTVSPropertyOp6
 70
     1
102
RTVSPropertyOp7
 70
     1
102
RTVSPropertyOp8
 70
     1
102
RTVSPropertyOp9
 70
     1
102
RTVSPropertyOp10
 70
     1
102
RTVSPropertyOp11
 70
     1
102
RTVSPropertyOp12
 70
     1
102
RTVSPropertyOp13
 70
     1
102
RTVSPropertyOp14
 70
     1
102
RTVSPropertyOp15
 70
     1
102
RTVSPropertyOp16
 70
     1
102
RTVSPropertyOp17
 70
     1
102
RTVSPropertyOp18
 70
     1
102
RTVSPropertyOp19
 70
     1
102
RTVSPropertyOp20
 70
     1
102
RTVSPropertyOp21
 70
     1
102
RTVSPropertyOp22
 70
     1
102
RTVSPropertyOp23
 70
     1
102
RTVSPropertyOp24
 70
     1
102
RTVSPropertyOp25
 70
     1
102
RTVSPropertyOp26
 70
     1
102
RTVSPropertyOp27
 70
     1
102
RTVSPropertyOp28
 70
     1
102
RTVSPropertyOp29
 70
     1
102
RTVSPropertyOp30
 70
     1
102
RTVSPropertyOp31
 70
     1
102
RTVSPropertyOp32
 70
     1
  0
XRECORD
  5
7113
102
{ACAD_REACTORS
330
7112
102
}
330
7112
100
AcDbXrecord
280
     1
102
RTVSPropertyOp0
 70
     1
102
RTVSPropertyOp1
 70
     1
102
RTVSPropertyOp2
 70
     1
102
RTVSPropertyOp3
 70
     1
102
RTVSPropertyOp4
 70
     1
102
RTVSPropertyOp5
 70
     1
102
RTVSPropertyOp6
 70
     1
102
RTVSPropertyOp7
 70
     1
102
RTVSPropertyOp8
 70
     1
102
RTVSPropertyOp9
 70
     1
102
RTVSPropertyOp10
 70
     1
102
RTVSPropertyOp11
 70
     1
102
RTVSPropertyOp12
 70
     1
102
RTVSPropertyOp13
 70
     1
102
RTVSPropertyOp14
 70
     1
102
RTVSPropertyOp15
 70
     1
102
RTVSPropertyOp16
 70
     1
102
RTVSPropertyOp17
 70
     1
102
RTVSPropertyOp18
 70
     1
102
RTVSPropertyOp19
 70
     1
102
RTVSPropertyOp20
 70
     1
102
RTVSPropertyOp21
 70
     1
102
RTVSPropertyOp22
 70
     1
102
RTVSPropertyOp23
 70
     1
102
RTVSPropertyOp24
 70
     1
102
RTVSPropertyOp25
 70
     1
102
RTVSPropertyOp26
 70
     1
102
RTVSPropertyOp27
 70
     1
102
RTVSPropertyOp28
 70
     1
102
RTVSPropertyOp29
 70
     1
102
RTVSPropertyOp30
 70
     1
102
RTVSPropertyOp31
 70
     1
102
RTVSPropertyOp32
 70
     1
  0
XRECORD
  5
7131
102
{ACAD_REACTORS
330
7130
102
}
330
7130
100
AcDbXrecord
280
     1
102
RTVSPropertyOp0
 70
     0
102
RTVSPropertyOp1
 70
     0
102
RTVSPropertyOp2
 70
     0
102
RTVSPropertyOp3
 70
     0
102
RTVSPropertyOp4
 70
     0
102
RTVSPropertyOp5
 70
     0
102
RTVSPropertyOp6
 70
     0
102
RTVSPropertyOp7
 70
     0
102
RTVSPropertyOp8
 70
     0
102
RTVSPropertyOp9
 70
     0
102
RTVSPropertyOp10
 70
     0
102
RTVSPropertyOp11
 70
     0
102
RTVSPropertyOp12
 70
     0
102
RTVSPropertyOp13
 70
     0
102
RTVSPropertyOp14
 70
     2
102
RTVSPropertyOp15
 70
     0
102
RTVSPropertyOp16
 70
     0
102
RTVSPropertyOp17
 70
     0
102
RTVSPropertyOp18
 70
     0
102
RTVSPropertyOp19
 70
     0
102
RTVSPropertyOp20
 70
     0
102
RTVSPropertyOp21
 70
     0
102
RTVSPropertyOp22
 70
     0
102
RTVSPropertyOp23
 70
     0
102
RTVSPropertyOp24
 70
     0
102
RTVSPropertyOp25
 70
     0
102
RTVSPropertyOp26
 70
     0
102
RTVSPropertyOp27
 70
     0
102
RTVSPropertyOp28
 70
     1
102
RTVSPropertyOp29
 70
     1
102
RTVSPropertyOp30
 70
     1
102
RTVSPropertyOp31
 70
     1
102
RTVSPropertyOp32
 70
     1
  0
XRECORD
  5
711B
102
{ACAD_REACTORS
330
711A
102
}
330
711A
100
AcDbXrecord
280
     1
102
RTVSPropertyOp0
 70
     1
102
RTVSPropertyOp1
 70
     1
102
RTVSPropertyOp2
 70
     1
102
RTVSPropertyOp3
 70
     1
102
RTVSPropertyOp4
 70
     1
102
RTVSPropertyOp5
 70
     1
102
RTVSPropertyOp6
 70
     1
102
RTVSPropertyOp7
 70
     1
102
RTVSPropertyOp8
 70
     1
102
RTVSPropertyOp9
 70
     1
102
RTVSPropertyOp10
 70
     1
102
RTVSPropertyOp11
 70
     1
102
RTVSPropertyOp12
 70
     1
102
RTVSPropertyOp13
 70
     1
102
RTVSPropertyOp14
 70
     1
102
RTVSPropertyOp15
 70
     1
102
RTVSPropertyOp16
 70
     1
102
RTVSPropertyOp17
 70
     1
102
RTVSPropertyOp18
 70
     1
102
RTVSPropertyOp19
 70
     1
102
RTVSPropertyOp20
 70
     1
102
RTVSPropertyOp21
 70
     1
102
RTVSPropertyOp22
 70
     1
102
RTVSPropertyOp23
 70
     1
102
RTVSPropertyOp24
 70
     1
102
RTVSPropertyOp25
 70
     1
102
RTVSPropertyOp26
 70
     1
102
RTVSPropertyOp27
 70
     1
102
RTVSPropertyOp28
 70
     1
102
RTVSPropertyOp29
 70
     1
102
RTVSPropertyOp30
 70
     1
102
RTVSPropertyOp31
 70
     1
102
RTVSPropertyOp32
 70
     1
  0
XRECORD
  5
70FF
102
{ACAD_REACTORS
330
70FE
102
}
330
70FE
100
AcDbXrecord
280
     1
102
RTVSPropertyOp0
 70
     1
102
RTVSPropertyOp1
 70
     1
102
RTVSPropertyOp2
 70
     1
102
RTVSPropertyOp3
 70
     1
102
RTVSPropertyOp4
 70
     1
102
RTVSPropertyOp5
 70
     1
102
RTVSPropertyOp6
 70
     1
102
RTVSPropertyOp7
 70
     1
102
RTVSPropertyOp8
 70
     1
102
RTVSPropertyOp9
 70
     1
102
RTVSPropertyOp10
 70
     1
102
RTVSPropertyOp11
 70
     1
102
RTVSPropertyOp12
 70
     1
102
RTVSPropertyOp13
 70
     1
102
RTVSPropertyOp14
 70
     1
102
RTVSPropertyOp15
 70
     1
102
RTVSPropertyOp16
 70
     1
102
RTVSPropertyOp17
 70
     1
102
RTVSPropertyOp18
 70
     1
102
RTVSPropertyOp19
 70
     1
102
RTVSPropertyOp20
 70
     1
102
RTVSPropertyOp21
 70
     1
102
RTVSPropertyOp22
 70
     1
102
RTVSPropertyOp23
 70
     1
102
RTVSPropertyOp24
 70
     1
102
RTVSPropertyOp25
 70
     1
102
RTVSPropertyOp26
 70
     1
102
RTVSPropertyOp27
 70
     1
102
RTVSPropertyOp28
 70
     1
102
RTVSPropertyOp29
 70
     1
102
RTVSPropertyOp30
 70
     1
102
RTVSPropertyOp31
 70
     1
102
RTVSPropertyOp32
 70
     1
  0
XRECORD
  5
7101
102
{ACAD_REACTORS
330
7100
102
}
330
7100
100
AcDbXrecord
280
     1
102
RTVSPropertyOp0
 70
     1
102
RTVSPropertyOp1
 70
     1
102
RTVSPropertyOp2
 70
     1
102
RTVSPropertyOp3
 70
     1
102
RTVSPropertyOp4
 70
     1
102
RTVSPropertyOp5
 70
     1
102
RTVSPropertyOp6
 70
     1
102
RTVSPropertyOp7
 70
     1
102
RTVSPropertyOp8
 70
     1
102
RTVSPropertyOp9
 70
     1
102
RTVSPropertyOp10
 70
     1
102
RTVSPropertyOp11
 70
     1
102
RTVSPropertyOp12
 70
     1
102
RTVSPropertyOp13
 70
     1
102
RTVSPropertyOp14
 70
     1
102
RTVSPropertyOp15
 70
     1
102
RTVSPropertyOp16
 70
     1
102
RTVSPropertyOp17
 70
     1
102
RTVSPropertyOp18
 70
     1
102
RTVSPropertyOp19
 70
     1
102
RTVSPropertyOp20
 70
     1
102
RTVSPropertyOp21
 70
     1
102
RTVSPropertyOp22
 70
     1
102
RTVSPropertyOp23
 70
     1
102
RTVSPropertyOp24
 70
     1
102
RTVSPropertyOp25
 70
     1
102
RTVSPropertyOp26
 70
     1
102
RTVSPropertyOp27
 70
     1
102
RTVSPropertyOp28
 70
     1
102
RTVSPropertyOp29
 70
     1
102
RTVSPropertyOp30
 70
     1
102
RTVSPropertyOp31
 70
     1
102
RTVSPropertyOp32
 70
     1
  0
XRECORD
  5
7103
102
{ACAD_REACTORS
330
7102
102
}
330
7102
100
AcDbXrecord
280
     1
102
RTVSPropertyOp0
 70
     1
102
RTVSPropertyOp1
 70
     1
102
RTVSPropertyOp2
 70
     1
102
RTVSPropertyOp3
 70
     1
102
RTVSPropertyOp4
 70
     1
102
RTVSPropertyOp5
 70
     1
102
RTVSPropertyOp6
 70
     1
102
RTVSPropertyOp7
 70
     1
102
RTVSPropertyOp8
 70
     1
102
RTVSPropertyOp9
 70
     1
102
RTVSPropertyOp10
 70
     1
102
RTVSPropertyOp11
 70
     1
102
RTVSPropertyOp12
 70
     1
102
RTVSPropertyOp13
 70
     1
102
RTVSPropertyOp14
 70
     1
102
RTVSPropertyOp15
 70
     1
102
RTVSPropertyOp16
 70
     1
102
RTVSPropertyOp17
 70
     1
102
RTVSPropertyOp18
 70
     1
102
RTVSPropertyOp19
 70
     1
102
RTVSPropertyOp20
 70
     1
102
RTVSPropertyOp21
 70
     1
102
RTVSPropertyOp22
 70
     1
102
RTVSPropertyOp23
 70
     1
102
RTVSPropertyOp24
 70
     1
102
RTVSPropertyOp25
 70
     1
102
RTVSPropertyOp26
 70
     1
102
RTVSPropertyOp27
 70
     1
102
RTVSPropertyOp28
 70
     1
102
RTVSPropertyOp29
 70
     1
102
RTVSPropertyOp30
 70
     1
102
RTVSPropertyOp31
 70
     1
102
RTVSPropertyOp32
 70
     1
  0
XRECORD
  5
7105
102
{ACAD_REACTORS
330
7104
102
}
330
7104
100
AcDbXrecord
280
     1
102
RTVSPropertyOp0
 70
     1
102
RTVSPropertyOp1
 70
     1
102
RTVSPropertyOp2
 70
     1
102
RTVSPropertyOp3
 70
     1
102
RTVSPropertyOp4
 70
     1
102
RTVSPropertyOp5
 70
     1
102
RTVSPropertyOp6
 70
     1
102
RTVSPropertyOp7
 70
     1
102
RTVSPropertyOp8
 70
     1
102
RTVSPropertyOp9
 70
     1
102
RTVSPropertyOp10
 70
     1
102
RTVSPropertyOp11
 70
     1
102
RTVSPropertyOp12
 70
     1
102
RTVSPropertyOp13
 70
     1
102
RTVSPropertyOp14
 70
     1
102
RTVSPropertyOp15
 70
     1
102
RTVSPropertyOp16
 70
     1
102
RTVSPropertyOp17
 70
     1
102
RTVSPropertyOp18
 70
     1
102
RTVSPropertyOp19
 70
     1
102
RTVSPropertyOp20
 70
     1
102
RTVSPropertyOp21
 70
     1
102
RTVSPropertyOp22
 70
     1
102
RTVSPropertyOp23
 70
     1
102
RTVSPropertyOp24
 70
     1
102
RTVSPropertyOp25
 70
     1
102
RTVSPropertyOp26
 70
     1
102
RTVSPropertyOp27
 70
     1
102
RTVSPropertyOp28
 70
     1
102
RTVSPropertyOp29
 70
     1
102
RTVSPropertyOp30
 70
     1
102
RTVSPropertyOp31
 70
     1
102
RTVSPropertyOp32
 70
     1
  0
XRECORD
  5
7121
102
{ACAD_REACTORS
330
7120
102
}
330
7120
100
AcDbXrecord
280
     1
102
RTVSPropertyOp0
 70
     1
102
RTVSPropertyOp1
 70
     1
102
RTVSPropertyOp2
 70
     1
102
RTVSPropertyOp3
 70
     1
102
RTVSPropertyOp4
 70
     1
102
RTVSPropertyOp5
 70
     1
102
RTVSPropertyOp6
 70
     1
102
RTVSPropertyOp7
 70
     1
102
RTVSPropertyOp8
 70
     1
102
RTVSPropertyOp9
 70
     1
102
RTVSPropertyOp10
 70
     1
102
RTVSPropertyOp11
 70
     1
102
RTVSPropertyOp12
 70
     1
102
RTVSPropertyOp13
 70
     1
102
RTVSPropertyOp14
 70
     1
102
RTVSPropertyOp15
 70
     1
102
RTVSPropertyOp16
 70
     1
102
RTVSPropertyOp17
 70
     1
102
RTVSPropertyOp18
 70
     1
102
RTVSPropertyOp19
 70
     1
102
RTVSPropertyOp20
 70
     1
102
RTVSPropertyOp21
 70
     1
102
RTVSPropertyOp22
 70
     1
102
RTVSPropertyOp23
 70
     1
102
RTVSPropertyOp24
 70
     1
102
RTVSPropertyOp25
 70
     1
102
RTVSPropertyOp26
 70
     1
102
RTVSPropertyOp27
 70
     1
102
RTVSPropertyOp28
 70
     1
102
RTVSPropertyOp29
 70
     1
102
RTVSPropertyOp30
 70
     1
102
RTVSPropertyOp31
 70
     1
102
RTVSPropertyOp32
 70
     1
  0
XRECORD
  5
712D
102
{ACAD_REACTORS
330
712C
102
}
330
712C
100
AcDbXrecord
280
     1
102
RTVSPropertyOp0
 70
     0
102
RTVSPropertyOp1
 70
     0
102
RTVSPropertyOp2
 70
     0
102
RTVSPropertyOp3
 70
     0
102
RTVSPropertyOp4
 70
     0
102
RTVSPropertyOp5
 70
     0
102
RTVSPropertyOp6
 70
     0
102
RTVSPropertyOp7
 70
     0
102
RTVSPropertyOp8
 70
     0
102
RTVSPropertyOp9
 70
     0
102
RTVSPropertyOp10
 70
     0
102
RTVSPropertyOp11
 70
     0
102
RTVSPropertyOp12
 70
     0
102
RTVSPropertyOp13
 70
     0
102
RTVSPropertyOp14
 70
     2
102
RTVSPropertyOp15
 70
     0
102
RTVSPropertyOp16
 70
     0
102
RTVSPropertyOp17
 70
     0
102
RTVSPropertyOp18
 70
     0
102
RTVSPropertyOp19
 70
     0
102
RTVSPropertyOp20
 70
     0
102
RTVSPropertyOp21
 70
     0
102
RTVSPropertyOp22
 70
     0
102
RTVSPropertyOp23
 70
     0
102
RTVSPropertyOp24
 70
     0
102
RTVSPropertyOp25
 70
     0
102
RTVSPropertyOp26
 70
     0
102
RTVSPropertyOp27
 70
     0
102
RTVSPropertyOp28
 70
     1
102
RTVSPropertyOp29
 70
     1
102
RTVSPropertyOp30
 70
     1
102
RTVSPropertyOp31
 70
     1
102
RTVSPropertyOp32
 70
     1
  0
XRECORD
  5
7119
102
{ACAD_REACTORS
330
7118
102
}
330
7118
100
AcDbXrecord
280
     1
102
RTVSPropertyOp0
 70
     1
102
RTVSPropertyOp1
 70
     1
102
RTVSPropertyOp2
 70
     1
102
RTVSPropertyOp3
 70
     1
102
RTVSPropertyOp4
 70
     1
102
RTVSPropertyOp5
 70
     1
102
RTVSPropertyOp6
 70
     1
102
RTVSPropertyOp7
 70
     1
102
RTVSPropertyOp8
 70
     1
102
RTVSPropertyOp9
 70
     1
102
RTVSPropertyOp10
 70
     1
102
RTVSPropertyOp11
 70
     1
102
RTVSPropertyOp12
 70
     1
102
RTVSPropertyOp13
 70
     1
102
RTVSPropertyOp14
 70
     1
102
RTVSPropertyOp15
 70
     1
102
RTVSPropertyOp16
 70
     1
102
RTVSPropertyOp17
 70
     1
102
RTVSPropertyOp18
 70
     1
102
RTVSPropertyOp19
 70
     1
102
RTVSPropertyOp20
 70
     1
102
RTVSPropertyOp21
 70
     1
102
RTVSPropertyOp22
 70
     1
102
RTVSPropertyOp23
 70
     1
102
RTVSPropertyOp24
 70
     1
102
RTVSPropertyOp25
 70
     1
102
RTVSPropertyOp26
 70
     1
102
RTVSPropertyOp27
 70
     1
102
RTVSPropertyOp28
 70
     1
102
RTVSPropertyOp29
 70
     1
102
RTVSPropertyOp30
 70
     1
102
RTVSPropertyOp31
 70
     1
102
RTVSPropertyOp32
 70
     1
  0
XRECORD
  5
712F
102
{ACAD_REACTORS
330
712E
102
}
330
712E
100
AcDbXrecord
280
     1
102
RTVSPropertyOp0
 70
     0
102
RTVSPropertyOp1
 70
     0
102
RTVSPropertyOp2
 70
     0
102
RTVSPropertyOp3
 70
     0
102
RTVSPropertyOp4
 70
     0
102
RTVSPropertyOp5
 70
     0
102
RTVSPropertyOp6
 70
     0
102
RTVSPropertyOp7
 70
     0
102
RTVSPropertyOp8
 70
     0
102
RTVSPropertyOp9
 70
     0
102
RTVSPropertyOp10
 70
     0
102
RTVSPropertyOp11
 70
     0
102
RTVSPropertyOp12
 70
     0
102
RTVSPropertyOp13
 70
     0
102
RTVSPropertyOp14
 70
     2
102
RTVSPropertyOp15
 70
     0
102
RTVSPropertyOp16
 70
     0
102
RTVSPropertyOp17
 70
     0
102
RTVSPropertyOp18
 70
     0
102
RTVSPropertyOp19
 70
     0
102
RTVSPropertyOp20
 70
     0
102
RTVSPropertyOp21
 70
     0
102
RTVSPropertyOp22
 70
     0
102
RTVSPropertyOp23
 70
     0
102
RTVSPropertyOp24
 70
     0
102
RTVSPropertyOp25
 70
     0
102
RTVSPropertyOp26
 70
     0
102
RTVSPropertyOp27
 70
     0
102
RTVSPropertyOp28
 70
     1
102
RTVSPropertyOp29
 70
     1
102
RTVSPropertyOp30
 70
     1
102
RTVSPropertyOp31
 70
     1
102
RTVSPropertyOp32
 70
     1
  0
XRECORD
  5
7111
102
{ACAD_REACTORS
330
7110
102
}
330
7110
100
AcDbXrecord
280
     1
102
RTVSPropertyOp0
 70
     1
102
RTVSPropertyOp1
 70
     1
102
RTVSPropertyOp2
 70
     1
102
RTVSPropertyOp3
 70
     1
102
RTVSPropertyOp4
 70
     1
102
RTVSPropertyOp5
 70
     1
102
RTVSPropertyOp6
 70
     1
102
RTVSPropertyOp7
 70
     1
102
RTVSPropertyOp8
 70
     1
102
RTVSPropertyOp9
 70
     1
102
RTVSPropertyOp10
 70
     1
102
RTVSPropertyOp11
 70
     1
102
RTVSPropertyOp12
 70
     1
102
RTVSPropertyOp13
 70
     1
102
RTVSPropertyOp14
 70
     1
102
RTVSPropertyOp15
 70
     1
102
RTVSPropertyOp16
 70
     1
102
RTVSPropertyOp17
 70
     1
102
RTVSPropertyOp18
 70
     1
102
RTVSPropertyOp19
 70
     1
102
RTVSPropertyOp20
 70
     1
102
RTVSPropertyOp21
 70
     1
102
RTVSPropertyOp22
 70
     1
102
RTVSPropertyOp23
 70
     1
102
RTVSPropertyOp24
 70
     1
102
RTVSPropertyOp25
 70
     1
102
RTVSPropertyOp26
 70
     1
102
RTVSPropertyOp27
 70
     1
102
RTVSPropertyOp28
 70
     1
102
RTVSPropertyOp29
 70
     1
102
RTVSPropertyOp30
 70
     1
102
RTVSPropertyOp31
 70
     1
102
RTVSPropertyOp32
 70
     1
  0
XRECORD
  5
712B
102
{ACAD_REACTORS
330
712A
102
}
330
712A
100
AcDbXrecord
280
     1
102
RTVSPropertyOp0
 70
     1
102
RTVSPropertyOp1
 70
     1
102
RTVSPropertyOp2
 70
     1
102
RTVSPropertyOp3
 70
     1
102
RTVSPropertyOp4
 70
     1
102
RTVSPropertyOp5
 70
     1
102
RTVSPropertyOp6
 70
     1
102
RTVSPropertyOp7
 70
     1
102
RTVSPropertyOp8
 70
     1
102
RTVSPropertyOp9
 70
     1
102
RTVSPropertyOp10
 70
     1
102
RTVSPropertyOp11
 70
     1
102
RTVSPropertyOp12
 70
     1
102
RTVSPropertyOp13
 70
     1
102
RTVSPropertyOp14
 70
     1
102
RTVSPropertyOp15
 70
     1
102
RTVSPropertyOp16
 70
     1
102
RTVSPropertyOp17
 70
     1
102
RTVSPropertyOp18
 70
     1
102
RTVSPropertyOp19
 70
     1
102
RTVSPropertyOp20
 70
     1
102
RTVSPropertyOp21
 70
     1
102
RTVSPropertyOp22
 70
     1
102
RTVSPropertyOp23
 70
     1
102
RTVSPropertyOp24
 70
     1
102
RTVSPropertyOp25
 70
     1
102
RTVSPropertyOp26
 70
     1
102
RTVSPropertyOp27
 70
     1
102
RTVSPropertyOp28
 70
     1
102
RTVSPropertyOp29
 70
     1
102
RTVSPropertyOp30
 70
     1
102
RTVSPropertyOp31
 70
     1
102
RTVSPropertyOp32
 70
     1
  0
XRECORD
  5
7129
102
{ACAD_REACTORS
330
7128
102
}
330
7128
100
AcDbXrecord
280
     1
102
RTVSPropertyOp0
 70
     1
102
RTVSPropertyOp1
 70
     1
102
RTVSPropertyOp2
 70
     1
102
RTVSPropertyOp3
 70
     1
102
RTVSPropertyOp4
 70
     1
102
RTVSPropertyOp5
 70
     1
102
RTVSPropertyOp6
 70
     1
102
RTVSPropertyOp7
 70
     1
102
RTVSPropertyOp8
 70
     1
102
RTVSPropertyOp9
 70
     1
102
RTVSPropertyOp10
 70
     1
102
RTVSPropertyOp11
 70
     1
102
RTVSPropertyOp12
 70
     1
102
RTVSPropertyOp13
 70
     1
102
RTVSPropertyOp14
 70
     1
102
RTVSPropertyOp15
 70
     1
102
RTVSPropertyOp16
 70
     1
102
RTVSPropertyOp17
 70
     1
102
RTVSPropertyOp18
 70
     1
102
RTVSPropertyOp19
 70
     1
102
RTVSPropertyOp20
 70
     1
102
RTVSPropertyOp21
 70
     1
102
RTVSPropertyOp22
 70
     1
102
RTVSPropertyOp23
 70
     1
102
RTVSPropertyOp24
 70
     1
102
RTVSPropertyOp25
 70
     1
102
RTVSPropertyOp26
 70
     1
102
RTVSPropertyOp27
 70
     1
102
RTVSPropertyOp28
 70
     1
102
RTVSPropertyOp29
 70
     1
102
RTVSPropertyOp30
 70
     1
102
RTVSPropertyOp31
 70
     1
102
RTVSPropertyOp32
 70
     1
  0
XRECORD
  5
7123
102
{ACAD_REACTORS
330
7122
102
}
330
7122
100
AcDbXrecord
280
     1
102
RTVSPropertyOp0
 70
     1
102
RTVSPropertyOp1
 70
     1
102
RTVSPropertyOp2
 70
     1
102
RTVSPropertyOp3
 70
     1
102
RTVSPropertyOp4
 70
     1
102
RTVSPropertyOp5
 70
     1
102
RTVSPropertyOp6
 70
     1
102
RTVSPropertyOp7
 70
     1
102
RTVSPropertyOp8
 70
     1
102
RTVSPropertyOp9
 70
     1
102
RTVSPropertyOp10
 70
     1
102
RTVSPropertyOp11
 70
     1
102
RTVSPropertyOp12
 70
     1
102
RTVSPropertyOp13
 70
     1
102
RTVSPropertyOp14
 70
     1
102
RTVSPropertyOp15
 70
     1
102
RTVSPropertyOp16
 70
     1
102
RTVSPropertyOp17
 70
     1
102
RTVSPropertyOp18
 70
     1
102
RTVSPropertyOp19
 70
     1
102
RTVSPropertyOp20
 70
     1
102
RTVSPropertyOp21
 70
     1
102
RTVSPropertyOp22
 70
     1
102
RTVSPropertyOp23
 70
     1
102
RTVSPropertyOp24
 70
     1
102
RTVSPropertyOp25
 70
     1
102
RTVSPropertyOp26
 70
     1
102
RTVSPropertyOp27
 70
     1
102
RTVSPropertyOp28
 70
     1
102
RTVSPropertyOp29
 70
     1
102
RTVSPropertyOp30
 70
     1
102
RTVSPropertyOp31
 70
     1
102
RTVSPropertyOp32
 70
     1
  0
XRECORD
  5
7125
102
{ACAD_REACTORS
330
7124
102
}
330
7124
100
AcDbXrecord
280
     1
102
RTVSPropertyOp0
 70
     1
102
RTVSPropertyOp1
 70
     1
102
RTVSPropertyOp2
 70
     1
102
RTVSPropertyOp3
 70
     1
102
RTVSPropertyOp4
 70
     1
102
RTVSPropertyOp5
 70
     1
102
RTVSPropertyOp6
 70
     1
102
RTVSPropertyOp7
 70
     1
102
RTVSPropertyOp8
 70
     1
102
RTVSPropertyOp9
 70
     1
102
RTVSPropertyOp10
 70
     1
102
RTVSPropertyOp11
 70
     1
102
RTVSPropertyOp12
 70
     1
102
RTVSPropertyOp13
 70
     1
102
RTVSPropertyOp14
 70
     1
102
RTVSPropertyOp15
 70
     1
102
RTVSPropertyOp16
 70
     1
102
RTVSPropertyOp17
 70
     1
102
RTVSPropertyOp18
 70
     1
102
RTVSPropertyOp19
 70
     1
102
RTVSPropertyOp20
 70
     1
102
RTVSPropertyOp21
 70
     1
102
RTVSPropertyOp22
 70
     1
102
RTVSPropertyOp23
 70
     1
102
RTVSPropertyOp24
 70
     1
102
RTVSPropertyOp25
 70
     1
102
RTVSPropertyOp26
 70
     1
102
RTVSPropertyOp27
 70
     1
102
RTVSPropertyOp28
 70
     1
102
RTVSPropertyOp29
 70
     1
102
RTVSPropertyOp30
 70
     1
102
RTVSPropertyOp31
 70
     1
102
RTVSPropertyOp32
 70
     1
  0
XRECORD
  5
7117
102
{ACAD_REACTORS
330
7116
102
}
330
7116
100
AcDbXrecord
280
     1
102
RTVSPropertyOp0
 70
     1
102
RTVSPropertyOp1
 70
     1
102
RTVSPropertyOp2
 70
     1
102
RTVSPropertyOp3
 70
     1
102
RTVSPropertyOp4
 70
     1
102
RTVSPropertyOp5
 70
     1
102
RTVSPropertyOp6
 70
     1
102
RTVSPropertyOp7
 70
     1
102
RTVSPropertyOp8
 70
     1
102
RTVSPropertyOp9
 70
     1
102
RTVSPropertyOp10
 70
     1
102
RTVSPropertyOp11
 70
     1
102
RTVSPropertyOp12
 70
     1
102
RTVSPropertyOp13
 70
     1
102
RTVSPropertyOp14
 70
     1
102
RTVSPropertyOp15
 70
     1
102
RTVSPropertyOp16
 70
     1
102
RTVSPropertyOp17
 70
     1
102
RTVSPropertyOp18
 70
     1
102
RTVSPropertyOp19
 70
     1
102
RTVSPropertyOp20
 70
     1
102
RTVSPropertyOp21
 70
     1
102
RTVSPropertyOp22
 70
     1
102
RTVSPropertyOp23
 70
     1
102
RTVSPropertyOp24
 70
     1
102
RTVSPropertyOp25
 70
     1
102
RTVSPropertyOp26
 70
     1
102
RTVSPropertyOp27
 70
     1
102
RTVSPropertyOp28
 70
     1
102
RTVSPropertyOp29
 70
     1
102
RTVSPropertyOp30
 70
     1
102
RTVSPropertyOp31
 70
     1
102
RTVSPropertyOp32
 70
     1
  0
XRECORD
  5
711F
102
{ACAD_REACTORS
330
711E
102
}
330
711E
100
AcDbXrecord
280
     1
102
RTVSPropertyOp0
 70
     1
102
RTVSPropertyOp1
 70
     1
102
RTVSPropertyOp2
 70
     1
102
RTVSPropertyOp3
 70
     1
102
RTVSPropertyOp4
 70
     1
102
RTVSPropertyOp5
 70
     1
102
RTVSPropertyOp6
 70
     1
102
RTVSPropertyOp7
 70
     1
102
RTVSPropertyOp8
 70
     1
102
RTVSPropertyOp9
 70
     1
102
RTVSPropertyOp10
 70
     1
102
RTVSPropertyOp11
 70
     1
102
RTVSPropertyOp12
 70
     1
102
RTVSPropertyOp13
 70
     1
102
RTVSPropertyOp14
 70
     1
102
RTVSPropertyOp15
 70
     1
102
RTVSPropertyOp16
 70
     1
102
RTVSPropertyOp17
 70
     1
102
RTVSPropertyOp18
 70
     1
102
RTVSPropertyOp19
 70
     1
102
RTVSPropertyOp20
 70
     1
102
RTVSPropertyOp21
 70
     1
102
RTVSPropertyOp22
 70
     1
102
RTVSPropertyOp23
 70
     1
102
RTVSPropertyOp24
 70
     1
102
RTVSPropertyOp25
 70
     1
102
RTVSPropertyOp26
 70
     1
102
RTVSPropertyOp27
 70
     1
102
RTVSPropertyOp28
 70
     1
102
RTVSPropertyOp29
 70
     1
102
RTVSPropertyOp30
 70
     1
102
RTVSPropertyOp31
 70
     1
102
RTVSPropertyOp32
 70
     1
  0
XRECORD
  5
7127
102
{ACAD_REACTORS
330
7126
102
}
330
7126
100
AcDbXrecord
280
     1
102
RTVSPropertyOp0
 70
     1
102
RTVSPropertyOp1
 70
     1
102
RTVSPropertyOp2
 70
     1
102
RTVSPropertyOp3
 70
     1
102
RTVSPropertyOp4
 70
     1
102
RTVSPropertyOp5
 70
     1
102
RTVSPropertyOp6
 70
     1
102
RTVSPropertyOp7
 70
     1
102
RTVSPropertyOp8
 70
     1
102
RTVSPropertyOp9
 70
     1
102
RTVSPropertyOp10
 70
     1
102
RTVSPropertyOp11
 70
     1
102
RTVSPropertyOp12
 70
     1
102
RTVSPropertyOp13
 70
     1
102
RTVSPropertyOp14
 70
     1
102
RTVSPropertyOp15
 70
     1
102
RTVSPropertyOp16
 70
     1
102
RTVSPropertyOp17
 70
     1
102
RTVSPropertyOp18
 70
     1
102
RTVSPropertyOp19
 70
     1
102
RTVSPropertyOp20
 70
     1
102
RTVSPropertyOp21
 70
     1
102
RTVSPropertyOp22
 70
     1
102
RTVSPropertyOp23
 70
     1
102
RTVSPropertyOp24
 70
     1
102
RTVSPropertyOp25
 70
     1
102
RTVSPropertyOp26
 70
     1
102
RTVSPropertyOp27
 70
     1
102
RTVSPropertyOp28
 70
     1
102
RTVSPropertyOp29
 70
     1
102
RTVSPropertyOp30
 70
     1
102
RTVSPropertyOp31
 70
     1
102
RTVSPropertyOp32
 70
     1
  0
ENDSEC
  0
EOF
