  0
SECTION
  2
HEADER
  9
$ACADVER
  1
AC1018
  9
$ACADMAINTVER
 70
   104
  9
$DWGCODEPAGE
  3
ANSI_932
  9
$LASTSAVEDBY
  1
h-mizoguchi
  9
$CUSTOMPROPERTYTAG
  1
AmdtFileType
  9
$CUSTOMPROPERTY
  1
84
  9
$INSBASE
 10
0.0
 20
0.0
 30
0.0
  9
$EXTMIN
 10
-112.6236656295004
 20
-160.0000000001027
 30
0.0
  9
$EXTMAX
 10
2423.10570958986
 20
976.5632838052207
 30
0.0
  9
$LIMMIN
 10
0.0
 20
0.0
  9
$LIMMAX
 10
420.0
 20
297.0
  9
$ORTHOMODE
 70
     1
  9
$REGENMODE
 70
     1
  9
$FILLMODE
 70
     1
  9
$QTEXTMODE
 70
     0
  9
$MIRRTEXT
 70
     1
  9
$LTSCALE
 40
1.0
  9
$ATTMODE
 70
     1
  9
$TEXTSIZE
 40
73.98571745357912
  9
$TRACEWID
 40
1.0
  9
$TEXTSTYLE
  7
STANDARD
  9
$CLAYER
  8
0
  9
$CELTYPE
  6
ByLayer
  9
$CECOLOR
 62
   256
  9
$CELTSCALE
 40
1.0
  9
$DISPSILH
 70
     0
  9
$DIMSCALE
 40
1.0
  9
$DIMASZ
 40
3.0
  9
$DIMEXO
 40
1.0
  9
$DIMDLI
 40
10.0
  9
$DIMRND
 40
0.0
  9
$DIMDLE
 40
0.0
  9
$DIMEXE
 40
1.0
  9
$DIMTP
 40
0.1
  9
$DIMTM
 40
0.1
  9
$DIMTXT
 40
3.0
  9
$DIMCEN
 40
0.0
  9
$DIMTSZ
 40
0.0
  9
$DIMTOL
 70
     0
  9
$DIMLIM
 70
     0
  9
$DIMTIH
 70
     0
  9
$DIMTOH
 70
     0
  9
$DIMSE1
 70
     0
  9
$DIMSE2
 70
     0
  9
$DIMTAD
 70
     3
  9
$DIMZIN
 70
     8
  9
$DIMBLK
  1
Open
  9
$DIMASO
 70
     1
  9
$DIMSHO
 70
     1
  9
$DIMPOST
  1

  9
$DIMAPOST
  1
"
  9
$DIMALT
 70
     0
  9
$DIMALTD
 70
     2
  9
$DIMALTF
 40
0.0393701
  9
$DIMLFAC
 40
1.0
  9
$DIMTOFL
 70
     1
  9
$DIMTVP
 40
0.0
  9
$DIMTIX
 70
     0
  9
$DIMSOXD
 70
     0
  9
$DIMSAH
 70
     0
  9
$DIMBLK1
  1

  9
$DIMBLK2
  1

  9
$DIMSTYLE
  2
TSK
  9
$DIMCLRD
 70
   256
  9
$DIMCLRE
 70
   256
  9
$DIMCLRT
 70
     2
  9
$DIMTFAC
 40
0.71
  9
$DIMGAP
 40
1.5
  9
$DIMJUST
 70
     0
  9
$DIMSD1
 70
     0
  9
$DIMSD2
 70
     0
  9
$DIMTOLJ
 70
     1
  9
$DIMTZIN
 70
     8
  9
$DIMALTZ
 70
     0
  9
$DIMALTTZ
 70
     0
  9
$DIMUPT
 70
     0
  9
$DIMDEC
 70
     2
  9
$DIMTDEC
 70
     2
  9
$DIMALTU
 70
     2
  9
$DIMALTTD
 70
     2
  9
$DIMTXSTY
  7
TSKDIM
  9
$DIMAUNIT
 70
     0
  9
$DIMADEC
 70
     0
  9
$DIMALTRND
 40
0.0
  9
$DIMAZIN
 70
     2
  9
$DIMDSEP
 70
    46
  9
$DIMATFIT
 70
     3
  9
$DIMFRAC
 70
     0
  9
$DIMLDRBLK
  1
Open
  9
$DIMLUNIT
 70
     2
  9
$DIMLWD
 70
     9
  9
$DIMLWE
 70
     9
  9
$DIMTMOVE
 70
     0
  9
$LUNITS
 70
     2
  9
$LUPREC
 70
     8
  9
$SKETCHINC
 40
1.0
  9
$FILLETRAD
 40
0.0
  9
$AUNITS
 70
     0
  9
$AUPREC
 70
     8
  9
$MENU
  1
.
  9
$ELEVATION
 40
0.0
  9
$PELEVATION
 40
0.0
  9
$THICKNESS
 40
0.0
  9
$LIMCHECK
 70
     0
  9
$CHAMFERA
 40
2.5
  9
$CHAMFERB
 40
2.5
  9
$CHAMFERC
 40
20.0
  9
$CHAMFERD
 40
0.0
  9
$SKPOLY
 70
     0
  9
$TDCREATE
 40
2454739.398931562
  9
$TDUCREATE
 40
2454739.023931562
  9
$TDUPDATE
 40
2456169.482660498
  9
$TDUUPDATE
 40
2456169.107660497
  9
$TDINDWG
 40
0.3542858912
  9
$TDUSRTIMER
 40
0.3542855324
  9
$USRTIMER
 70
     1
  9
$ANGBASE
 50
0.0
  9
$ANGDIR
 70
     1
  9
$PDMODE
 70
     0
  9
$PDSIZE
 40
0.0
  9
$PLINEWID
 40
0.0
  9
$SPLFRAME
 70
     0
  9
$SPLINETYPE
 70
     6
  9
$SPLINESEGS
 70
     8
  9
$HANDSEED
  5
5D05
  9
$SURFTAB1
 70
     6
  9
$SURFTAB2
 70
     6
  9
$SURFTYPE
 70
     6
  9
$SURFU
 70
     6
  9
$SURFV
 70
     6
  9
$UCSBASE
  2

  9
$UCSNAME
  2

  9
$UCSORG
 10
0.0
 20
0.0
 30
0.0
  9
$UCSXDIR
 10
1.0
 20
0.0
 30
0.0
  9
$UCSYDIR
 10
0.0
 20
1.0
 30
0.0
  9
$UCSORTHOREF
  2

  9
$UCSORTHOVIEW
 70
     0
  9
$UCSORGTOP
 10
0.0
 20
0.0
 30
0.0
  9
$UCSORGBOTTOM
 10
0.0
 20
0.0
 30
0.0
  9
$UCSORGLEFT
 10
0.0
 20
0.0
 30
0.0
  9
$UCSORGRIGHT
 10
0.0
 20
0.0
 30
0.0
  9
$UCSORGFRONT
 10
0.0
 20
0.0
 30
0.0
  9
$UCSORGBACK
 10
0.0
 20
0.0
 30
0.0
  9
$PUCSBASE
  2

  9
$PUCSNAME
  2

  9
$PUCSORG
 10
0.0
 20
0.0
 30
0.0
  9
$PUCSXDIR
 10
1.0
 20
0.0
 30
0.0
  9
$PUCSYDIR
 10
0.0
 20
1.0
 30
0.0
  9
$PUCSORTHOREF
  2

  9
$PUCSORTHOVIEW
 70
     0
  9
$PUCSORGTOP
 10
0.0
 20
0.0
 30
0.0
  9
$PUCSORGBOTTOM
 10
0.0
 20
0.0
 30
0.0
  9
$PUCSORGLEFT
 10
0.0
 20
0.0
 30
0.0
  9
$PUCSORGRIGHT
 10
0.0
 20
0.0
 30
0.0
  9
$PUCSORGFRONT
 10
0.0
 20
0.0
 30
0.0
  9
$PUCSORGBACK
 10
0.0
 20
0.0
 30
0.0
  9
$USERI1
 70
     0
  9
$USERI2
 70
     0
  9
$USERI3
 70
     0
  9
$USERI4
 70
     0
  9
$USERI5
 70
     0
  9
$USERR1
 40
0.0
  9
$USERR2
 40
0.0
  9
$USERR3
 40
0.0
  9
$USERR4
 40
0.0
  9
$USERR5
 40
0.0
  9
$WORLDVIEW
 70
     1
  9
$SHADEDGE
 70
     3
  9
$SHADEDIF
 70
    70
  9
$TILEMODE
 70
     1
  9
$MAXACTVP
 70
    48
  9
$PINSBASE
 10
0.0
 20
0.0
 30
0.0
  9
$PLIMCHECK
 70
     0
  9
$PEXTMIN
 10
1.000000000000000E+20
 20
1.000000000000000E+20
 30
1.000000000000000E+20
  9
$PEXTMAX
 10
-1.000000000000000E+20
 20
-1.000000000000000E+20
 30
-1.000000000000000E+20
  9
$PLIMMIN
 10
0.0
 20
0.0
  9
$PLIMMAX
 10
420.0
 20
297.0
  9
$UNITMODE
 70
     0
  9
$VISRETAIN
 70
     1
  9
$PLINEGEN
 70
     0
  9
$PSLTSCALE
 70
     1
  9
$TREEDEPTH
 70
  3020
  9
$CMLSTYLE
  2
Standard
  9
$CMLJUST
 70
     0
  9
$CMLSCALE
 40
20.0
  9
$PROXYGRAPHICS
 70
     1
  9
$MEASUREMENT
 70
     1
  9
$CELWEIGHT
370
    -1
  9
$ENDCAPS
280
     0
  9
$JOINSTYLE
280
     0
  9
$LWDISPLAY
290
     0
  9
$INSUNITS
 70
     4
  9
$HYPERLINKBASE
  1

  9
$STYLESHEET
  1
MPP.ctb
  9
$XEDIT
290
     1
  9
$CEPSNTYPE
380
     0
  9
$PSTYLEMODE
290
     1
  9
$FINGERPRINTGUID
  2
{E2EE2984-40DB-4795-A236-B944694F9C34}
  9
$VERSIONGUID
  2
{1DE8B229-679D-4DC6-8B75-FAC8EC1773C4}
  9
$EXTNAMES
290
     1
  9
$PSVPSCALE
 40
0.0
  9
$OLESTARTUP
290
     0
  9
$SORTENTS
280
   127
  9
$INDEXCTL
280
     0
  9
$HIDETEXT
280
     0
  9
$XCLIPFRAME
290
     0
  9
$HALOGAP
280
     0
  9
$OBSCOLOR
 70
   257
  9
$OBSLTYPE
280
     0
  9
$INTERSECTIONDISPLAY
280
     0
  9
$INTERSECTIONCOLOR
 70
   257
  9
$DIMASSOC
280
     2
  9
$PROJECTNAME
  1

  0
ENDSEC
  0
SECTION
  2
CLASSES
  0
CLASS
  1
ACDBDICTIONARYWDFLT
  2
AcDbDictionaryWithDefault
  3
ObjectDBX Classes
 90
        0
 91
        1
280
     0
281
     0
  0
CLASS
  1
ACDBPLACEHOLDER
  2
AcDbPlaceHolder
  3
ObjectDBX Classes
 90
        0
 91
        1
280
     0
281
     0
  0
CLASS
  1
LAYOUT
  2
AcDbLayout
  3
ObjectDBX Classes
 90
        0
 91
        3
280
     0
281
     0
  0
CLASS
  1
AMGSETTINGSOBJ
  2
AmgSettingsObj
  3
"AcadM|Product Description: AutoCAD Mechanical|Company: Autodesk, Inc."
 90
     1024
 91
        0
280
     0
281
     0
  0
CLASS
  1
ACME_DOCUMENT
  2
AcMeDbDoc
  3
AcMeServices
 90
     1024
 91
        0
280
     0
281
     0
  0
CLASS
  1
ACMESCOPE
  2
AcMeScope
  3
AcMeServices
 90
     1024
 91
        0
280
     0
281
     0
  0
CLASS
  1
ACMECOMMANDHISTORY
  2
AcMeCommandHistory
  3
AcMeServices
 90
     1024
 91
        0
280
     0
281
     0
  0
CLASS
  1
DICTIONARYVAR
  2
AcDbDictionaryVar
  3
ObjectDBX Classes
 90
        0
 91
       12
280
     0
281
     0
  0
CLASS
  1
ACIMSYSVARMAN
  2
AcImSysVarManager
  3
AcMeServices
 90
     1024
 91
        2
280
     0
281
     0
  0
CLASS
  1
ACIMREALSYSVAR
  2
AcImRealSysVar
  3
AcMeServices
 90
     1024
 91
        0
280
     0
281
     0
  0
CLASS
  1
ACIMINTSYSVAR
  2
AcImIntSysVar
  3
AcMeServices
 90
     1024
 91
        0
280
     0
281
     0
  0
CLASS
  1
ACMEDRAWINGMAN
  2
AcMeDrawingMan
  3
AcMeServices
 90
     1024
 91
        0
280
     0
281
     0
  0
CLASS
  1
ACMEVIEW
  2
AcMeView
  3
AcMeServices
 90
     1024
 91
        0
280
     0
281
     0
  0
CLASS
  1
ACDBENTITYCACHE
  2
AcMeEntityCache
  3
AcMeServices
 90
     1024
 91
        0
280
     0
281
     0
  0
CLASS
  1
GSMANAGER
  2
AcMeGSManager
  3
AcMeServices
 90
     1024
 91
        0
280
     0
281
     0
  0
CLASS
  1
AMDTINTERNALREACTOR
  2
AmdtInternalReactor
  3
AcMeServices
 90
     1024
 91
        0
280
     0
281
     0
  0
CLASS
  1
ACMESTATEMGR
  2
AcMeStateMgr
  3
AcMeServices
 90
     1024
 91
        0
280
     0
281
     0
  0
CLASS
  1
ACGREFMASTER
  2
AcGrefMaster
  3
AcAttribServices
 90
     1024
 91
        0
280
     0
281
     0
  0
CLASS
  1
ACME_DATABASE
  2
AcMeDbDatabase
  3
AcMeServices
 90
     1024
 91
        0
280
     0
281
     0
  0
CLASS
  1
ACRFINSADJUSTERMGR
  2
AcRfInsAdjusterMgr
  3
AcMeServices
 90
     1024
 91
        0
280
     0
281
     0
  0
CLASS
  1
ACGREFACADMASTER
  2
AcGrefacadMaster
  3
AcGrefServices
 90
     1024
 91
        0
280
     0
281
     0
  0
CLASS
  1
AMIMASTER
  2
AmiMaster
  3
AmiServices
 90
     1024
 91
        0
280
     0
281
     0
  0
CLASS
  1
ACIMSTRSYSVAR
  2
AcImStrSysVar
  3
AcMeServices
 90
     1024
 91
        0
280
     0
281
     0
  0
CLASS
  1
ACMSTANDARDJIS
  2
AcmStandardJIS
  3
"Amdt_StdImp|Product Description: AutoCAD Mechanical|Company: Autodesk, Inc."
 90
     1024
 91
        0
280
     0
281
     0
  0
CLASS
  1
AMGOBJPROPCFG
  2
AmgObjPropCfg
  3
"AmgLay|Product Description: AutoCAD Mechanical|Company: Autodesk, Inc."
 90
     1025
 91
        0
280
     0
281
     0
  0
CLASS
  1
ACMSURFSTANDARDJIS
  2
AcmSurfTextStdJIS
  3
"Amdt_StdImp|Product Description: AutoCAD Mechanical|Company: Autodesk, Inc."
 90
     1024
 91
        0
280
     0
281
     0
  0
CLASS
  1
ACMFCFSTANDARDJIS
  2
AcmFCFStdJIS
  3
"Amdt_StdImp|Product Description: AutoCAD Mechanical|Company: Autodesk, Inc."
 90
     1024
 91
        0
280
     0
281
     0
  0
CLASS
  1
ACMWELDSTANDARDJIS
  2
AcmWeldingStdJIS
  3
"Amdt_StdImp|Product Description: AutoCAD Mechanical|Company: Autodesk, Inc."
 90
     1024
 91
        0
280
     0
281
     0
  0
CLASS
  1
ACMIDSTANDARDJIS
  2
AcmIdStdJIS
  3
"Amdt_StdImp|Product Description: AutoCAD Mechanical|Company: Autodesk, Inc."
 90
     1024
 91
        0
280
     0
281
     0
  0
CLASS
  1
ACMDATUMSTANDARDJIS
  2
AcmDatumStdJIS
  3
"Amdt_StdImp|Product Description: AutoCAD Mechanical|Company: Autodesk, Inc."
 90
     1024
 91
        0
280
     0
281
     0
  0
CLASS
  1
ACMBOMSTANDARDJIS
  2
AcmBOMStdJIS
  3
"Amdt_StdImp|Product Description: AutoCAD Mechanical|Company: Autodesk, Inc."
 90
     1024
 91
        0
280
     0
281
     0
  0
CLASS
  1
ACMDETAILSTANDARDJIS
  2
AmdtDetailSymStdJIS
  3
"Amdt_StdImp|Product Description: AutoCAD Mechanical|Company: Autodesk, Inc."
 90
     1024
 91
        0
280
     0
281
     0
  0
CLASS
  1
ACMSECTIONSTANDARDJIS
  2
AmdtSectionSymStdJIS
  3
"Amdt_StdImp|Product Description: AutoCAD Mechanical|Company: Autodesk, Inc."
 90
     1024
 91
        0
280
     0
281
     0
  0
CLASS
  1
ACMCENTERLINESTANDARDJIS
  2
AmdtCenterLineStdJIS
  3
"Amdt_StdImp|Product Description: AutoCAD Mechanical|Company: Autodesk, Inc."
 90
     1024
 91
        0
280
     0
281
     0
  0
CLASS
  1
ACMTHREADLINESTANDARDJIS
  2
AmdtThreadLineStdJIS
  3
"Amdt_StdImp|Product Description: AutoCAD Mechanical|Company: Autodesk, Inc."
 90
     1024
 91
        0
280
     0
281
     0
  0
CLASS
  1
ACAMGLAYSTD
  2
AcAmgLayStd
  3
"AmgLay|Product Description: AutoCAD Mechanical|Company: Autodesk, Inc."
 90
     1024
 91
        0
280
     0
281
     0
  0
CLASS
  1
ACAMGDIMSTD
  2
AcAmgDimStd
  3
"AmgDim|Product Description: AutoCAD Mechanical|Company: Autodesk, Inc."
 90
     1024
 91
        0
280
     0
281
     0
  0
CLASS
  1
ACAMGTITLESTD
  2
AcAmgTitleStd
  3
"AmgTitle|Product Description: AutoCAD Mechanical|Company: Autodesk, Inc."
 90
     4095
 91
        0
280
     0
281
     0
  0
CLASS
  1
ACMDATADICTIONARY
  2
AcmDataDictionary
  3
"AcmSymBB|Product Description: AutoCAD Mechanical|Company: Autodesk, Inc."
 90
     1024
 91
        0
280
     0
281
     0
  0
CLASS
  1
ACMDATAENTRYBLOCK
  2
AcmDataEntryBlock
  3
AcmSymBB|Product Description: AutoCAD Mechanical|Company: Autodesk, Inc.
 90
     1024
 91
        0
280
     0
281
     0
  0
CLASS
  1
LAYER_INDEX
  2
AcDbLayerIndex
  3
ObjectDBX Classes
 90
        0
 91
        0
280
     0
281
     0
  0
CLASS
  1
IDBUFFER
  2
AcDbIdBuffer
  3
ObjectDBX Classes
 90
        0
 91
        0
280
     0
281
     0
  0
CLASS
  1
ACMNOTESTANDARDJIS
  2
AmdtNoteStdJIS
  3
"Amdt_StdImp|Product Description: AutoCAD Mechanical|Company: Autodesk, Inc."
 90
     1024
 91
        0
280
     0
281
     0
  0
CLASS
  1
ACAMGHOLECHARTSTDJIS
  2
AcAmgHoleChartStdJIS
  3
AmgDim|Product Description: AutoCAD Mechanical|Company: Autodesk, Inc.
 90
     1024
 91
        0
280
     0
281
     0
  0
CLASS
  1
ACAMGFILTERDAT
  2
AcAmgFilterDat
  3
"AcadM|Product Description: AutoCAD Mechanical|Company: Autodesk, Inc."
 90
     1024
 91
        0
280
     0
281
     0
  0
CLASS
  1
ACMFCFSTANDARDJIS98
  2
AcmFCFStdJIS98
  3
"Amdt_StdImp|Product Description: AutoCAD Mechanical|Company: Autodesk, Inc."
 90
     1024
 91
        0
280
     0
281
     0
  0
CLASS
  1
AMDTNOTE
  2
AmdtNote
  3
"AcmSymBB|Product Description: AutoCAD Mechanical|Company: Autodesk, Inc."
 90
     4095
 91
        0
280
     0
281
     1
  0
CLASS
  1
AMDTFORMULAUPDATEDISPATCHER
  2
AmdtFormulaUpdateDispatcher
  3
AcMeServices
 90
     1024
 91
        0
280
     0
281
     0
  0
CLASS
  1
ACMSTANDARDISO
  2
AcmStandardISO
  3
"Amdt_StdImp|Product Description: AutoCAD Mechanical|Company: Autodesk, Inc."
 90
     1024
 91
        0
280
     0
281
     0
  0
CLASS
  1
AMDTEDGESTANDARDISO
  2
AmdtEdgeStdISO
  3
"Amdt_StdImp|Product Description: AutoCAD Mechanical|Company: Autodesk, Inc."
 90
     1024
 91
        0
280
     0
281
     0
  0
CLASS
  1
ACMSURFSTANDARDISO
  2
AcmSurfTextStdISO
  3
"Amdt_StdImp|Product Description: AutoCAD Mechanical|Company: Autodesk, Inc."
 90
     1024
 91
        0
280
     0
281
     0
  0
CLASS
  1
ACMFCFSTANDARDISO
  2
AcmFCFStdISO
  3
"Amdt_StdImp|Product Description: AutoCAD Mechanical|Company: Autodesk, Inc."
 90
     1024
 91
        0
280
     0
281
     0
  0
CLASS
  1
ACMWELDSTANDARDISO
  2
AcmWeldingStdISO
  3
"Amdt_StdImp|Product Description: AutoCAD Mechanical|Company: Autodesk, Inc."
 90
     1024
 91
        0
280
     0
281
     0
  0
CLASS
  1
ACMIDSTANDARDISO
  2
AcmIdStdISO
  3
"Amdt_StdImp|Product Description: AutoCAD Mechanical|Company: Autodesk, Inc."
 90
     1024
 91
        0
280
     0
281
     0
  0
CLASS
  1
ACMDATUMSTANDARDISO
  2
AcmDatumStdISO
  3
"Amdt_StdImp|Product Description: AutoCAD Mechanical|Company: Autodesk, Inc."
 90
     1024
 91
        0
280
     0
281
     0
  0
CLASS
  1
ACMBOMSTANDARDISO
  2
AcmBOMStdISO
  3
"Amdt_StdImp|Product Description: AutoCAD Mechanical|Company: Autodesk, Inc."
 90
     1024
 91
        0
280
     0
281
     0
  0
CLASS
  1
ACMDETAILSTANDARDISO
  2
AmdtDetailSymStdISO
  3
"Amdt_StdImp|Product Description: AutoCAD Mechanical|Company: Autodesk, Inc."
 90
     1024
 91
        0
280
     0
281
     0
  0
CLASS
  1
ACMSECTIONSTANDARDISO
  2
AmdtSectionSymStdISO
  3
"Amdt_StdImp|Product Description: AutoCAD Mechanical|Company: Autodesk, Inc."
 90
     1024
 91
        0
280
     0
281
     0
  0
CLASS
  1
ACMCENTERLINESTANDARDISO
  2
AmdtCenterLineStdISO
  3
"Amdt_StdImp|Product Description: AutoCAD Mechanical|Company: Autodesk, Inc."
 90
     1024
 91
        0
280
     0
281
     0
  0
CLASS
  1
ACMNOTESTANDARDISO
  2
AmdtNoteStdISO
  3
"Amdt_StdImp|Product Description: AutoCAD Mechanical|Company: Autodesk, Inc."
 90
     1024
 91
        0
280
     0
281
     0
  0
CLASS
  1
ACAMGHOLECHARTSTDISO
  2
AcAmgHoleChartStdISO
  3
AmgDim|Product Description: AutoCAD Mechanical|Company: Autodesk, Inc.
 90
     1024
 91
        0
280
     0
281
     0
  0
CLASS
  1
ACMSTANDARDGB
  2
AcmStandardGB
  3
"Amdt_StdImp|Product Description: AutoCAD Mechanical|Company: Autodesk, Inc."
 90
     1024
 91
        0
280
     0
281
     0
  0
CLASS
  1
ACMSURFSTANDARDGB
  2
AcmSurfTextStdGB
  3
"Amdt_StdImp|Product Description: AutoCAD Mechanical|Company: Autodesk, Inc."
 90
     1024
 91
        0
280
     0
281
     0
  0
CLASS
  1
ACMFCFSTANDARDGB
  2
AcmFCFStdGB
  3
"Amdt_StdImp|Product Description: AutoCAD Mechanical|Company: Autodesk, Inc."
 90
     1024
 91
        0
280
     0
281
     0
  0
CLASS
  1
ACMWELDSTANDARDGB
  2
AcmWeldingStdGB
  3
"Amdt_StdImp|Product Description: AutoCAD Mechanical|Company: Autodesk, Inc."
 90
     1024
 91
        0
280
     0
281
     0
  0
CLASS
  1
ACMIDSTANDARDGB
  2
AcmIdStdGB
  3
"Amdt_StdImp|Product Description: AutoCAD Mechanical|Company: Autodesk, Inc."
 90
     1024
 91
        0
280
     0
281
     0
  0
CLASS
  1
ACMDATUMSTANDARDGB
  2
AcmDatumStdGB
  3
"Amdt_StdImp|Product Description: AutoCAD Mechanical|Company: Autodesk, Inc."
 90
     1024
 91
        0
280
     0
281
     0
  0
CLASS
  1
ACMBOMSTANDARDGB
  2
AcmBOMStdGB
  3
"Amdt_StdImp|Product Description: AutoCAD Mechanical|Company: Autodesk, Inc."
 90
     1024
 91
        0
280
     0
281
     0
  0
CLASS
  1
ACMDETAILSTANDARDGB
  2
AmdtDetailSymStdGB
  3
"Amdt_StdImp|Product Description: AutoCAD Mechanical|Company: Autodesk, Inc."
 90
     1024
 91
        0
280
     0
281
     0
  0
CLASS
  1
ACMSECTIONSTANDARDGB
  2
AmdtSectionSymStdGB
  3
"Amdt_StdImp|Product Description: AutoCAD Mechanical|Company: Autodesk, Inc."
 90
     1024
 91
        0
280
     0
281
     0
  0
CLASS
  1
ACMCENTERLINESTANDARDGB
  2
AmdtCenterLineStdGB
  3
"Amdt_StdImp|Product Description: AutoCAD Mechanical|Company: Autodesk, Inc."
 90
     1024
 91
        0
280
     0
281
     0
  0
CLASS
  1
ACMNOTESTANDARDGB
  2
AmdtNoteStdGB
  3
"Amdt_StdImp|Product Description: AutoCAD Mechanical|Company: Autodesk, Inc."
 90
     1024
 91
        0
280
     0
281
     0
  0
CLASS
  1
ACAMGHOLECHARTSTDGB
  2
AcAmgHoleChartStdGB
  3
AmgDim|Product Description: AutoCAD Mechanical|Company: Autodesk, Inc.
 90
     1024
 91
        0
280
     0
281
     0
  0
CLASS
  1
TABLESTYLE
  2
AcDbTableStyle
  3
ObjectDBX Classes
 90
     4095
 91
        1
280
     0
281
     0
  0
CLASS
  1
AM_DRAWING_MGR
  2
AcDmDwgMgr
  3
AcMechDwgViewMgmt
 90
     1024
 91
        0
280
     0
281
     0
  0
CLASS
  1
AM_DWG_DOCUMENT
  2
AcDmDwgDocument
  3
AcMechDwgViewMgmt
 90
     1024
 91
        0
280
     0
281
     0
  0
CLASS
  1
AM_DWG_SHEET
  2
AcDmSheet
  3
AcMechDwgViewMgmt
 90
     1024
 91
        0
280
     0
281
     0
  0
CLASS
  1
AM_VIEWDIMPARMAP
  2
AcDmViewDimParMap
  3
AcMechDwgViewMgmt
 90
     1024
 91
        0
280
     0
281
     0
  0
CLASS
  1
AM_DWGMGR_NAME
  2
AcDmDwgMgrName
  3
AcMechDwgViewMgmt
 90
     1024
 91
        0
280
     0
281
     0
  0
CLASS
  1
AMDTMENUSTATEMGR
  2
AmdtMenuStateMgr
  3
McadcomServices
 90
     1024
 91
        0
280
     0
281
     0
  0
CLASS
  1
AMDTMCOMMENUSTATE
  2
AmdtMcomMenuState
  3
McadcomServices
 90
     1024
 91
        0
280
     0
281
     0
  0
CLASS
  1
MAPIAMMOUDLE
  2
MApiAmModule
  3
MApiAmServices
 90
     1024
 91
        0
280
     0
281
     0
  0
CLASS
  1
AMDTADMENUSTATE
  2
AmdtAdMenuState
  3
DesignerServices
 90
     1024
 91
        0
280
     0
281
     0
  0
CLASS
  1
ADAPPL
  2
AcAdAppl
  3
DesignerServices
 90
     1024
 91
        0
280
     0
281
     0
  0
CLASS
  1
DEPMGR
  2
AcAdDepMgr
  3
DesignerServices
 90
     1024
 91
        0
280
     0
281
     0
  0
CLASS
  1
PARAMMGR
  2
AcAdParamMgr
  3
DesignerServices
 90
     1024
 91
        0
280
     0
281
     0
  0
CLASS
  1
PARAMSCOPE
  2
AcAdParamScope
  3
DesignerServices
 90
     1024
 91
        0
280
     0
281
     0
  0
CLASS
  1
NAMEDAPPL
  2
AcAdNamedAppl
  3
DesignerServices
 90
     1024
 91
        0
280
     0
281
     0
  0
CLASS
  1
AMDTDMMENUSTATE
  2
AmdtDmMenuState
  3
AcMechDwgViewMgmt
 90
     1024
 91
        0
280
     0
281
     0
  0
CLASS
  1
AMDTAMMENUSTATE
  2
AmdtAmMenuState
  3
DesignerAssemblies
 90
     1024
 91
        0
280
     0
281
     0
  0
CLASS
  1
ACAMPROJECT
  2
AcAmProject
  3
DesignerAssemblies
 90
     1024
 91
        0
280
     0
281
     0
  0
CLASS
  1
ACAMGRCOMPDEF
  2
AcAmGrCompDef
  3
DesignerAssemblies
 90
     1024
 91
        0
280
     0
281
     0
  0
CLASS
  1
ACCMCONTEXT
  2
AcCmContext
  3
DesignerAssemblies
 90
     1024
 91
        0
280
     0
281
     0
  0
CLASS
  1
ACAMCOMPDEF
  2
AcAmCompDef
  3
DesignerAssemblies
 90
     1024
 91
        0
280
     0
281
     0
  0
CLASS
  1
ACAMCOMPDEFMGR
  2
AcAmCompDefMgr
  3
DesignerAssemblies
 90
     1024
 91
        0
280
     0
281
     0
  0
CLASS
  1
AMCONTEXTMGR
  2
AcAmContextMgr
  3
DesignerAssemblies
 90
     1024
 91
        0
280
     0
281
     0
  0
CLASS
  1
ACAMCONTEXTMODELER
  2
AcAmContextModeler
  3
DesignerAssemblies
 90
     1024
 91
        0
280
     0
281
     0
  0
CLASS
  1
CATALOGSTATE
  2
AcAmCatalogState
  3
DesignerAssemblies
 90
     1024
 91
        0
280
     0
281
     0
  0
CLASS
  1
ACAMGRCOMPDEFSET
  2
AcAmGrCompDefSet
  3
DesignerAssemblies
 90
     1024
 91
        0
280
     0
281
     0
  0
CLASS
  1
AMDTBROWSERDBTAB
  2
AmdtBrowserDbTab
  3
McadcomServices
 90
     1024
 91
        0
280
     0
281
     0
  0
CLASS
  1
CBROWSERAPPOBJECT
  2
CBrowserAppObject
  3
McadcomServices
 90
     1024
 91
        0
280
     0
281
     0
  0
CLASS
  1
DM_PLACEHOLDER
  2
AcDmSelsetPlaceholder
  3
AcMechDwgViewMgmt
 90
     1024
 91
        0
280
     0
281
     0
  0
CLASS
  1
MATERIAL
  2
AcDbMaterial
  3
ObjectDBX Classes
 90
     1153
 91
        3
280
     0
281
     0
  0
CLASS
  1
VISUALSTYLE
  2
AcDbVisualStyle
  3
ObjectDBX Classes
 90
     4095
 91
       26
280
     0
281
     0
  0
CLASS
  1
ACRFATTGENMGR
  2
AcRfAttGeneralMgr
  3
AcAttribServices
 90
     1024
 91
        0
280
     0
281
     0
  0
CLASS
  1
ACRFOBJATTMGR
  2
AcRfObjAttGroupMgr
  3
AcAttribServices
 90
     1024
 91
        0
280
     0
281
     0
  0
CLASS
  1
ACRFMCADAPIATTHOLDER
  2
AcRfMCADAPIAttHolder
  3
AcAttribServices
 90
     1024
 91
        0
280
     0
281
     0
  0
CLASS
  1
AMDTSYSATTR
  2
AmdtSystemAttribute
  3
AcAttribServices
 90
     1024
 91
        0
280
     0
281
     0
  0
CLASS
  1
ACMTAPERSTANDARDJIS
  2
AcmTaperStdJIS
  3
"Amdt_StdImp|Product Description: AutoCAD Mechanical|Company: Autodesk, Inc."
 90
     1024
 91
        0
280
     0
281
     0
  0
CLASS
  1
CAMSSTRUCTBTNSTATE
  2
StructBtnState
  3
DesignerAssemblies
 90
     1024
 91
        0
280
     0
281
     0
  0
CLASS
  1
SCALE
  2
AcDbScale
  3
ObjectDBX Classes
 90
     1153
 91
       33
280
     0
281
     0
  0
CLASS
  1
MLEADERSTYLE
  2
AcDbMLeaderStyle
  3
ACDB_MLEADERSTYLE_CLASS
 90
     4095
 91
        2
280
     0
281
     0
  0
CLASS
  1
ACMANOOTATIONVIEWSTANDARDJIS
  2
AmdtAnViewStdJIS
  3
"Amdt_StdImp|Product Description: AutoCAD Mechanical|Company: Autodesk, Inc."
 90
     1024
 91
        0
280
     0
281
     0
  0
CLASS
  1
CELLSTYLEMAP
  2
AcDbCellStyleMap
  3
ObjectDBX Classes
 90
     1152
 91
        2
280
     0
281
     0
  0
CLASS
  1
AMDTEDGESTANDARDJIS
  2
AmdtEdgeStdJIS
  3
"Amdt_StdImp|Product Description: AutoCAD Mechanical|Company: Autodesk, Inc."
 90
     1024
 91
        0
280
     0
281
     0
  0
CLASS
  1
EXACXREFPANELOBJECT
  2
ExAcXREFPanelObject
  3
EXAC_ESW
 90
     1025
 91
        0
280
     0
281
     0
  0
CLASS
  1
NPOCOLLECTION
  2
AcDbImpNonPersistentObjectsCollection
  3
ObjectDBX Classes
 90
     1153
 91
        0
280
     0
281
     0
  0
CLASS
  1
MULTILEADER
  2
AcDbMLeader
  3
ACDB_MLEADER_CLASS
 90
     1025
 91
        0
280
     0
281
     1
  0
CLASS
  1
SORTENTSTABLE
  2
AcDbSortentsTable
  3
ObjectDBX Classes
 90
        0
 91
        2
280
     0
281
     0
  0
CLASS
  1
ACMSTANDARDANSI
  2
AcmStandardANSI
  3
"Amdt_StdImp|Product Description: AutoCAD Mechanical|Company: Autodesk, Inc."
 90
     1024
 91
        0
280
     0
281
     0
  0
CLASS
  1
ACMSURFSTANDARDANSI
  2
AcmSurfTextStdANSI
  3
"Amdt_StdImp|Product Description: AutoCAD Mechanical|Company: Autodesk, Inc."
 90
     1024
 91
        0
280
     0
281
     0
  0
CLASS
  1
ACMFCFSTANDARDANSI
  2
AcmFCFStdANSI
  3
"Amdt_StdImp|Product Description: AutoCAD Mechanical|Company: Autodesk, Inc."
 90
     1024
 91
        0
280
     0
281
     0
  0
CLASS
  1
ACMWELDSTANDARDANSI
  2
AcmWeldingStdANSI
  3
"Amdt_StdImp|Product Description: AutoCAD Mechanical|Company: Autodesk, Inc."
 90
     1024
 91
        0
280
     0
281
     0
  0
CLASS
  1
ACMIDSTANDARDANSI
  2
AcmIdStdANSI
  3
"Amdt_StdImp|Product Description: AutoCAD Mechanical|Company: Autodesk, Inc."
 90
     1024
 91
        0
280
     0
281
     0
  0
CLASS
  1
ACMDATUMSTANDARDANSI
  2
AcmDatumStdANSI
  3
"Amdt_StdImp|Product Description: AutoCAD Mechanical|Company: Autodesk, Inc."
 90
     1024
 91
        0
280
     0
281
     0
  0
CLASS
  1
ACMBOMSTANDARDANSI
  2
AcmBOMStdANSI
  3
"Amdt_StdImp|Product Description: AutoCAD Mechanical|Company: Autodesk, Inc."
 90
     1024
 91
        0
280
     0
281
     0
  0
CLASS
  1
ACMDETAILSTANDARDANSI
  2
AmdtDetailSymStdANSI
  3
"Amdt_StdImp|Product Description: AutoCAD Mechanical|Company: Autodesk, Inc."
 90
     1024
 91
        0
280
     0
281
     0
  0
CLASS
  1
ACMSECTIONSTANDARDANSI
  2
AmdtSectionSymStdANSI
  3
"Amdt_StdImp|Product Description: AutoCAD Mechanical|Company: Autodesk, Inc."
 90
     1024
 91
        0
280
     0
281
     0
  0
CLASS
  1
ACMCENTERLINESTANDARDANSI
  2
AmdtCenterLineStdANSI
  3
"Amdt_StdImp|Product Description: AutoCAD Mechanical|Company: Autodesk, Inc."
 90
     1024
 91
        0
280
     0
281
     0
  0
CLASS
  1
ACMTHREADLINESTANDARDANSI
  2
AmdtThreadLineStdANSI
  3
"Amdt_StdImp|Product Description: AutoCAD Mechanical|Company: Autodesk, Inc."
 90
     1024
 91
        0
280
     0
281
     0
  0
CLASS
  1
ACMNOTESTANDARDANSI
  2
AmdtNoteStdANSI
  3
"Amdt_StdImp|Product Description: AutoCAD Mechanical|Company: Autodesk, Inc."
 90
     1024
 91
        0
280
     0
281
     0
  0
CLASS
  1
AMDTNOTETEMPLATEDB
  2
AmdtNoteTemplateDB
  3
AcmSymBB|Product Description: AutoCAD Mechanical|Company: Autodesk, Inc.
 90
     1024
 91
        0
280
     0
281
     0
  0
CLASS
  1
ACMTAPERSTANDARDANSI
  2
AcmTaperStdANSI
  3
"Amdt_StdImp|Product Description: AutoCAD Mechanical|Company: Autodesk, Inc."
 90
     1024
 91
        0
280
     0
281
     0
  0
CLASS
  1
ACMANOOTATIONVIEWSTANDARDANSI
  2
AmdtAnViewStdANSI
  3
"Amdt_StdImp|Product Description: AutoCAD Mechanical|Company: Autodesk, Inc."
 90
     1024
 91
        0
280
     0
281
     0
  0
CLASS
  1
ACAMGHOLECHARTSTDANSI
  2
AcAmgHoleChartStdANSI
  3
AmgDim|Product Description: AutoCAD Mechanical|Company: Autodesk, Inc.
 90
     1024
 91
        0
280
     0
281
     0
  0
CLASS
  1
DIMASSOC
  2
AcDbDimAssoc
  3
"AcDbDimAssoc|Product Desc:     AcDim ARX App For Dimension|Company:          Autodesk, Inc.|WEB Address:      www.autodesk.com"
 90
        0
 91
        0
280
     0
281
     0
  0
CLASS
  1
AMDTEDGESTANDARDISO13715
  2
AmdtEdgeStdISO13715
  3
"Amdt_StdImp|Product Description: AutoCAD Mechanical|Company: Autodesk, Inc."
 90
     1024
 91
        0
280
     0
281
     0
  0
CLASS
  1
ACMSURFSTANDARDISO2002
  2
AcmSurfTextStdISO2002
  3
"Amdt_StdImp|Product Description: AutoCAD Mechanical|Company: Autodesk, Inc."
 90
     1024
 91
        0
280
     0
281
     0
  0
CLASS
  1
ACMSECTIONSTANDARDISO2001
  2
AmdtSectionSymStdISO2001
  3
"Amdt_StdImp|Product Description: AutoCAD Mechanical|Company: Autodesk, Inc."
 90
     1024
 91
        0
280
     0
281
     0
  0
CLASS
  1
ACMTHREADLINESTANDARDISO
  2
AmdtThreadLineStdISO
  3
"Amdt_StdImp|Product Description: AutoCAD Mechanical|Company: Autodesk, Inc."
 90
     1024
 91
        0
280
     0
281
     0
  0
CLASS
  1
ACMTAPERSTANDARDISO
  2
AcmTaperStdISO
  3
"Amdt_StdImp|Product Description: AutoCAD Mechanical|Company: Autodesk, Inc."
 90
     1024
 91
        0
280
     0
281
     0
  0
CLASS
  1
ACMANOOTATIONVIEWSTANDARDISO
  2
AmdtAnViewStdISO
  3
"Amdt_StdImp|Product Description: AutoCAD Mechanical|Company: Autodesk, Inc."
 90
     1024
 91
        0
280
     0
281
     0
  0
CLASS
  1
ACAD_PROXY_OBJECT_WRAPPER
  2
AcDbProxyObjectWrapper
  3
ObjectDBX Classes
 90
        0
 91
        0
280
     0
281
     0
  0
CLASS
  1
LONG_TRANSACTION
  2
AcDbLongTransaction
  3
ObjectDBX Classes
 90
        0
 91
        0
280
     0
281
     0
  0
CLASS
  1
LWPOLYLINE
  2
AcDbPolyline
  3
ObjectDBX Classes
 90
        0
 91
        0
280
     0
281
     1
  0
CLASS
  1
HATCH
  2
AcDbHatch
  3
ObjectDBX Classes
 90
        0
 91
        0
280
     0
281
     1
  0
CLASS
  1
XRECORD
  2
AcDbXrecord
  3
ObjectDBX Classes
 90
        0
 91
      114
280
     0
281
     0
  0
ENDSEC
  0
SECTION
  2
TABLES
  0
TABLE
  2
VPORT
  5
8
102
{ACAD_XDICTIONARY
360
5312
102
}
330
0
100
AcDbSymbolTable
 70
     1
  0
VPORT
  5
5896
330
8
100
AcDbSymbolTableRecord
100
AcDbViewportTableRecord
  2
*Active
 70
     0
 10
0.0
 20
0.0
 11
1.0
 21
1.0
 12
1227.246148637269
 22
465.0419016210479
 13
0.0
 23
0.0
 14
2.5
 24
2.5
 15
10.0
 25
10.0
 16
0.0
 26
0.0
 36
1.0
 17
0.0
 27
0.0
 37
0.0
 40
1465.966904588786
 41
2.255139056831922
 42
50.0
 43
0.0
 44
0.0
 50
0.0
 51
0.0
 71
     0
 72
   100
 73
     1
 74
     3
 75
     0
 76
     0
 77
     0
 78
     0
281
     0
 65
     1
110
0.0
120
0.0
130
0.0
111
1.0
121
0.0
131
0.0
112
0.0
122
1.0
132
0.0
 79
     0
146
0.0
  0
ENDTAB
  0
TABLE
  2
LTYPE
  5
5
330
0
100
AcDbSymbolTable
 70
     2
  0
LTYPE
  5
14
330
5
100
AcDbSymbolTableRecord
100
AcDbLinetypeTableRecord
  2
ByBlock
 70
     0
  3

 72
    65
 73
     0
 40
0.0
  0
LTYPE
  5
15
330
5
100
AcDbSymbolTableRecord
100
AcDbLinetypeTableRecord
  2
ByLayer
 70
     0
  3

 72
    65
 73
     0
 40
0.0
  0
LTYPE
  5
16
330
5
100
AcDbSymbolTableRecord
100
AcDbLinetypeTableRecord
  2
Continuous
 70
     0
  3
Solid line
 72
    65
 73
     0
 40
0.0
  0
LTYPE
  5
65
330
5
100
AcDbSymbolTableRecord
100
AcDbLinetypeTableRecord
  2
CENTER
 70
     0
  3
__ . __
 72
    65
 73
     4
 40
7.0
 49
4.0
 74
     0
 49
-1.0
 74
     0
 49
1.0
 74
     0
 49
-1.0
 74
     0
  0
ENDTAB
  0
TABLE
  2
LAYER
  5
2
102
{ACAD_XDICTIONARY
360
D1
102
}
330
0
100
AcDbSymbolTable
 70
     1
  0
LAYER
  5
10
102
{ACAD_XDICTIONARY
360
789
102
}
330
2
100
AcDbSymbolTableRecord
100
AcDbLayerTableRecord
  2
0
 70
     0
 62
     7
  6
Continuous
370
    -3
390
F
  0
ENDTAB
  0
TABLE
  2
STYLE
  5
3
330
0
100
AcDbSymbolTable
 70
     2
  0
STYLE
  5
11
330
3
100
AcDbSymbolTableRecord
100
AcDbTextStyleTableRecord
  2
STANDARD
 70
     0
 40
0.0
 41
0.7
 50
0.0
 71
     0
 42
73.98571745357912
  3
romans.shx
  4
bigfont.shx
  0
STYLE
  5
146
330
3
100
AcDbSymbolTableRecord
100
AcDbTextStyleTableRecord
  2
TSKDIM
 70
     0
 40
0.0
 41
0.75
 50
0.0
 71
     0
 42
4.0
  3
romans.shx
  4
EXTFONT.SHX
  0
ENDTAB
  0
TABLE
  2
VIEW
  5
6
330
0
100
AcDbSymbolTable
 70
     0
  0
ENDTAB
  0
TABLE
  2
UCS
  5
7
330
0
100
AcDbSymbolTable
 70
     0
  0
ENDTAB
  0
TABLE
  2
APPID
  5
9
330
0
100
AcDbSymbolTable
 70
    43
  0
APPID
  5
12
330
9
100
AcDbSymbolTableRecord
100
AcDbRegAppTableRecord
  2
ACAD
 70
     0
  0
APPID
  5
30
330
9
100
AcDbSymbolTableRecord
100
AcDbRegAppTableRecord
  2
MCAD_NO_VIS
 70
     0
  0
APPID
  5
31
330
9
100
AcDbSymbolTableRecord
100
AcDbRegAppTableRecord
  2
ACAD_TEMP_GRAPHIC
 70
     0
  0
APPID
  5
44
330
9
100
AcDbSymbolTableRecord
100
AcDbRegAppTableRecord
  2
ACATTRIBSERVICES
 70
     0
  0
APPID
  5
11D
330
9
100
AcDbSymbolTableRecord
100
AcDbRegAppTableRecord
  2
AD_DRAW
 70
     0
  0
APPID
  5
11E
330
9
100
AcDbSymbolTableRecord
100
AcDbRegAppTableRecord
  2
DESIGNERASSEMBLIES
 70
     0
  0
APPID
  5
11F
330
9
100
AcDbSymbolTableRecord
100
AcDbRegAppTableRecord
  2
ASURF_PCURVE_APPNAME
 70
     0
  0
APPID
  5
120
330
9
100
AcDbSymbolTableRecord
100
AcDbRegAppTableRecord
  2
ACADM_DIM_EDIT
 70
     0
  0
APPID
  5
121
330
9
100
AcDbSymbolTableRecord
100
AcDbRegAppTableRecord
  2
GENIUS_GENDIM_13
 70
     0
  0
APPID
  5
122
330
9
100
AcDbSymbolTableRecord
100
AcDbRegAppTableRecord
  2
GENIUS_GENDTOL_13
 70
     0
  0
APPID
  5
123
330
9
100
AcDbSymbolTableRecord
100
AcDbRegAppTableRecord
  2
GENIUS_GE3DTOL_13
 70
     0
  0
APPID
  5
124
330
9
100
AcDbSymbolTableRecord
100
AcDbRegAppTableRecord
  2
AMG_3D2D_5.0
 70
     0
  0
APPID
  5
125
330
9
100
AcDbSymbolTableRecord
100
AcDbRegAppTableRecord
  2
AMDT_DM_ADJ
 70
     0
  0
APPID
  5
126
330
9
100
AcDbSymbolTableRecord
100
AcDbRegAppTableRecord
  2
CK_MATE-SERIES
 70
     0
  0
APPID
  5
127
330
9
100
AcDbSymbolTableRecord
100
AcDbRegAppTableRecord
  2
GEVID1042077799
 70
     0
  0
APPID
  5
128
330
9
100
AcDbSymbolTableRecord
100
AcDbRegAppTableRecord
  2
GEVMK
 70
     0
  0
APPID
  5
129
330
9
100
AcDbSymbolTableRecord
100
AcDbRegAppTableRecord
  2
GEVDC
 70
     0
  0
APPID
  5
12A
330
9
100
AcDbSymbolTableRecord
100
AcDbRegAppTableRecord
  2
GENIUS_GENBH_13
 70
     0
  0
APPID
  5
12B
330
9
100
AcDbSymbolTableRecord
100
AcDbRegAppTableRecord
  2
GENIUS_GENOLIS_13
 70
     0
  0
APPID
  5
12C
330
9
100
AcDbSymbolTableRecord
100
AcDbRegAppTableRecord
  2
GENIUS_GENOENT_13
 70
     0
  0
APPID
  5
12D
330
9
100
AcDbSymbolTableRecord
100
AcDbRegAppTableRecord
  2
GENIUS_GENODEF_13
 70
     0
  0
APPID
  5
12E
330
9
100
AcDbSymbolTableRecord
100
AcDbRegAppTableRecord
  2
GENIUS_GENOBJ-NBEHI-BHF_13
 70
     0
  0
APPID
  5
12F
330
9
100
AcDbSymbolTableRecord
100
AcDbRegAppTableRecord
  2
GENIUS_GENOREF_13
 70
     0
  0
APPID
  5
130
330
9
100
AcDbSymbolTableRecord
100
AcDbRegAppTableRecord
  2
GENIUS_GENOBJ-NBEHI-BHB_13
 70
     0
  0
APPID
  5
131
330
9
100
AcDbSymbolTableRecord
100
AcDbRegAppTableRecord
  2
GEVID1042183772
 70
     0
  0
APPID
  5
132
330
9
100
AcDbSymbolTableRecord
100
AcDbRegAppTableRecord
  2
GEVID1042183773
 70
     0
  0
APPID
  5
133
330
9
100
AcDbSymbolTableRecord
100
AcDbRegAppTableRecord
  2
GEVID1042183774
 70
     0
  0
APPID
  5
2E8
330
9
100
AcDbSymbolTableRecord
100
AcDbRegAppTableRecord
  2
DCO15
 70
     0
  0
APPID
  5
570
330
9
100
AcDbSymbolTableRecord
100
AcDbRegAppTableRecord
  2
ACAD_DSTYLE_DIMARC_LENGTH_SYMBOL
 70
     0
  0
APPID
  5
571
330
9
100
AcDbSymbolTableRecord
100
AcDbRegAppTableRecord
  2
ACAD_DSTYLE_DIMJOGGED_JOGANGLE_SYMBOL
 70
     0
  0
APPID
  5
607
330
9
100
AcDbSymbolTableRecord
100
AcDbRegAppTableRecord
  2
ACAD_MLEADERVER
 70
     0
  0
APPID
  5
6ED
330
9
100
AcDbSymbolTableRecord
100
AcDbRegAppTableRecord
  2
ACAD_DSTYLE_DIMJAG
 70
     0
  0
APPID
  5
6EE
330
9
100
AcDbSymbolTableRecord
100
AcDbRegAppTableRecord
  2
ACAD_DSTYLE_DIMTALN
 70
     0
  0
APPID
  5
6EF
330
9
100
AcDbSymbolTableRecord
100
AcDbRegAppTableRecord
  2
ACAD_PSEXT
 70
     0
  0
APPID
  5
70D
330
9
100
AcDbSymbolTableRecord
100
AcDbRegAppTableRecord
  2
ACAD_EXEMPT_FROM_CAD_STANDARDS
 70
     0
  0
APPID
  5
B46
330
9
100
AcDbSymbolTableRecord
100
AcDbRegAppTableRecord
  2
AcAecLayerStandard
 70
     0
  0
APPID
  5
B9A
330
9
100
AcDbSymbolTableRecord
100
AcDbRegAppTableRecord
  2
ACAD_DSTYLE_DIMINSPECT
 70
     0
  0
APPID
  5
D83
330
9
100
AcDbSymbolTableRecord
100
AcDbRegAppTableRecord
  2
GENIUS_GENOBJ-N-FIL_13
 70
     0
  0
APPID
  5
2531
330
9
100
AcDbSymbolTableRecord
100
AcDbRegAppTableRecord
  2
ACAD_DSTYLE_DIMRADIAL_EXTENSION
 70
     0
  0
APPID
  5
36C9
330
9
100
AcDbSymbolTableRecord
100
AcDbRegAppTableRecord
  2
ACAD_DSTYLE_DIMANGULAR_EXTENSION
 70
     0
  0
APPID
  5
5321
330
9
100
AcDbSymbolTableRecord
100
AcDbRegAppTableRecord
  2
ACAD_DSTYLE_DIM_LINETYPE
 70
     0
  0
APPID
  5
5322
330
9
100
AcDbSymbolTableRecord
100
AcDbRegAppTableRecord
  2
ACAD_DSTYLE_DIM_EXT1_LINETYPE
 70
     0
  0
APPID
  5
5323
330
9
100
AcDbSymbolTableRecord
100
AcDbRegAppTableRecord
  2
ACAD_DSTYLE_DIM_EXT2_LINETYPE
 70
     0
  0
ENDTAB
  0
TABLE
  2
DIMSTYLE
  5
A
330
0
100
AcDbSymbolTable
 70
     1
100
AcDbDimStyleTable
 71
     1
340
111
  0
DIMSTYLE
105
111
330
A
100
AcDbSymbolTableRecord
100
AcDbDimStyleTableRecord
  2
TSK
 70
     0
  4
"
 41
3.0
 42
1.0
 43
10.0
 44
1.0
 47
0.1
 48
0.1
 73
     0
 74
     0
 77
     3
 78
     8
 79
     2
140
3.0
141
0.0
143
0.0393701
146
0.71
147
1.5
172
     1
176
   256
177
   256
178
     2
271
     2
272
     2
284
     8
340
146
341
159
342
159
371
     9
372
     9
1001
ACAD_DSTYLE_DIMJOGGED_JOGANGLE_SYMBOL
1070
   384
1040
0.7853981633974483
1001
ACAD_DSTYLE_DIMJAG
1070
   388
1040
1.5
1001
ACAD_DSTYLE_DIMTALN
1070
   392
1070
     0
1001
ACAD_DSTYLE_DIMARC_LENGTH_SYMBOL
1070
   379
1070
     1
  0
ENDTAB
  0
TABLE
  2
BLOCK_RECORD
  5
1
330
0
100
AcDbSymbolTable
 70
     3
  0
BLOCK_RECORD
  5
1F
102
{ACAD_XDICTIONARY
360
82
102
}
330
1
100
AcDbSymbolTableRecord
100
AcDbBlockTableRecord
  2
*Model_Space
340
22
  0
BLOCK_RECORD
  5
1B
102
{ACAD_XDICTIONARY
360
5898
102
}
330
1
100
AcDbSymbolTableRecord
100
AcDbBlockTableRecord
  2
*Paper_Space
340
1E
  0
BLOCK_RECORD
  5
23
102
{ACAD_XDICTIONARY
360
589A
102
}
330
1
100
AcDbSymbolTableRecord
100
AcDbBlockTableRecord
  2
*Paper_Space0
340
26
  0
BLOCK_RECORD
  5
159
330
1
100
AcDbSymbolTableRecord
100
AcDbBlockTableRecord
  2
_Open
340
0
  0
BLOCK_RECORD
  5
58F9
102
{ACAD_XDICTIONARY
360
5A0A
102
}
330
1
100
AcDbSymbolTableRecord
100
AcDbBlockTableRecord
  2
HE125A-50A-30
340
0
1001
ACAD
1000
DesignCenter Data
1002
{
1070
     1
1070
     4
1002
}
  0
ENDTAB
  0
ENDSEC
  0
SECTION
  2
BLOCKS
  0
BLOCK
  5
20
330
1F
100
AcDbEntity
  8
0
100
AcDbBlockBegin
  2
*Model_Space
 70
     0
 10
0.0
 20
0.0
 30
0.0
  3
*Model_Space
  1

  0
ENDBLK
  5
21
330
1F
100
AcDbEntity
  8
0
100
AcDbBlockEnd
  0
BLOCK
  5
1C
330
1B
100
AcDbEntity
 67
     1
  8
0
100
AcDbBlockBegin
  2
*Paper_Space
 70
     0
 10
0.0
 20
0.0
 30
0.0
  3
*Paper_Space
  1

  0
ENDBLK
  5
1D
330
1B
100
AcDbEntity
 67
     1
  8
0
100
AcDbBlockEnd
  0
BLOCK
  5
24
330
23
100
AcDbEntity
 67
     1
  8
0
100
AcDbBlockBegin
  2
*Paper_Space0
 70
     0
 10
0.0
 20
0.0
 30
0.0
  3
*Paper_Space0
  1

  0
ENDBLK
  5
25
330
23
100
AcDbEntity
 67
     1
  8
0
100
AcDbBlockEnd
  0
BLOCK
  5
15D
330
159
100
AcDbEntity
  8
0
100
AcDbBlockBegin
  2
_Open
 70
     0
 10
0.0
 20
0.0
 30
0.0
  3
_Open
  1

  0
LINE
  5
15A
330
159
100
AcDbEntity
  8
0
  6
ByBlock
 62
     0
370
    -2
100
AcDbLine
 10
-1.0
 20
0.1666666666666666
 30
0.0
 11
0.0
 21
0.0
 31
0.0
  0
LINE
  5
15B
330
159
100
AcDbEntity
  8
0
  6
ByBlock
 62
     0
370
    -2
100
AcDbLine
 10
-1.0
 20
-0.1666666666666666
 30
0.0
 11
0.0
 21
0.0
 31
0.0
  0
LINE
  5
15C
330
159
100
AcDbEntity
  8
0
  6
ByBlock
 62
     0
370
    -2
100
AcDbLine
 10
0.0
 20
0.0
 30
0.0
 11
-1.0
 21
0.0
 31
0.0
  0
ENDBLK
  5
15E
330
159
100
AcDbEntity
  8
0
100
AcDbBlockEnd
  0
BLOCK
  5
5A0C
330
58F9
100
AcDbEntity
  8
0
100
AcDbBlockBegin
  2
HE125A-50A-30
 70
     0
 10
0.0
 20
0.0
 30
0.0
  3
HE125A-50A-30
  1

  0
ARC
  5
58FA
330
58F9
100
AcDbEntity
  8
0
100
AcDbCircle
 10
334.9569668688037
 20
-69.70000000008076
 30
0.0
 40
5.0
100
AcDbArc
 50
0.0
 51
90.0
  0
ARC
  5
58FB
330
58F9
100
AcDbEntity
  8
0
100
AcDbCircle
 10
383.4569668688055
 20
-70.40000000008058
 30
0.0
 40
0.5
100
AcDbArc
 50
90.0
 51
180.0
  0
ARC
  5
58FC
330
58F9
100
AcDbEntity
  8
0
100
AcDbCircle
 10
334.9569668688037
 20
69.69999999991978
 30
0.0
 40
5.0
100
AcDbArc
 50
270.0
 51
0.0
  0
LINE
  5
58FD
330
58F9
100
AcDbEntity
  8
0
  6
CENTER
100
AcDbLine
 10
-22.86725758376997
 20
70.37818220586268
 30
0.0
 11
-29.66563146001863
 21
91.30142556435748
 31
0.0
  0
LINE
  5
58FE
330
58F9
100
AcDbEntity
  8
0
  6
CENTER
100
AcDbLine
 10
22.86725758372995
 20
70.37818220585359
 30
0.0
 11
29.66563145998043
 21
91.30142556434657
 31
0.0
  0
LINE
  5
58FF
330
58F9
100
AcDbEntity
  8
0
100
AcDbLine
 10
-59.86725758379908
 20
-43.49610866963394
 30
0.0
 11
-77.66563146005137
 21
-56.42738422006641
 31
0.0
  0
LINE
  5
5900
330
58F9
100
AcDbEntity
  8
0
  6
CENTER
100
AcDbLine
 10
59.8672575837154
 20
-43.49610866965941
 30
0.0
 11
77.66563145996224
 21
-56.42738422009642
 31
0.0
  0
LINE
  5
5901
330
58F9
100
AcDbEntity
  8
0
  6
CENTER
100
AcDbLine
 10
59.86725758373177
 20
43.49610866964304
 30
0.0
 11
77.66563145998225
 21
56.4273842200746
 31
0.0
  0
LINE
  5
5902
330
58F9
100
AcDbEntity
  8
0
  6
CENTER
100
AcDbLine
 10
-59.8672575837827
 20
43.49610866966759
 30
0.0
 11
-77.66563146002955
 21
56.42738422010461
 31
0.0
  0
LINE
  5
5903
330
58F9
100
AcDbEntity
  8
0
  6
CENTER
100
AcDbLine
 10
-22.86725758379725
 20
-70.37818220584632
 30
0.0
 11
-29.66563146004956
 21
-91.30142556433929
 31
0.0
  0
LINE
  5
5904
330
58F9
100
AcDbEntity
  8
0
  6
CENTER
100
AcDbLine
 10
22.86725758370267
 20
-70.37818220585541
 30
0.0
 11
29.66563145994951
 21
-91.30142556434931
 31
0.0
  0
LINE
  5
5905
330
58F9
100
AcDbEntity
  8
0
100
AcDbLine
 10
1332.686119514328
 20
-80.00000000009185
 30
0.0
 11
1397.227814223263
 21
-80.00000000007185
 31
0.0
  0
LINE
  5
5906
330
58F9
100
AcDbEntity
  8
0
100
AcDbLine
 10
1344.706966868794
 20
-80.00000000008913
 30
0.0
 11
1344.706966868792
 21
79.99999999990541
 31
0.0
  0
LINE
  5
5907
330
58F9
100
AcDbEntity
  8
0
100
AcDbLine
 10
1340.206966868794
 20
-80.00000000009004
 30
0.0
 11
1340.206966868794
 21
79.99999999990632
 31
0.0
  0
LINE
  5
5908
330
58F9
100
AcDbEntity
  8
0
100
AcDbLine
 10
1349.206966868794
 20
-80.0000000000864
 30
0.0
 11
1349.206966868792
 21
79.99999999990359
 31
0.0
  0
LINE
  5
5909
330
58F9
100
AcDbEntity
  8
0
100
AcDbLine
 10
1335.706966868794
 20
-80.00000000009094
 30
0.0
 11
1335.706966868794
 21
79.99999999990814
 31
0.0
  0
LINE
  5
590A
330
58F9
100
AcDbEntity
  8
0
100
AcDbLine
 10
1358.206966868795
 20
-80.00000000008459
 30
0.0
 11
1358.206966868795
 21
79.99999999990177
 31
0.0
  0
LINE
  5
590B
330
58F9
100
AcDbEntity
  8
0
100
AcDbLine
 10
1353.706966868793
 20
-80.00000000008549
 30
0.0
 11
1353.706966868794
 21
79.99999999990269
 31
0.0
  0
LINE
  5
590C
330
58F9
100
AcDbEntity
  8
0
100
AcDbLine
 10
1328.956966868794
 20
-73.54091814885123
 30
0.0
 11
1328.956966868794
 21
73.54091814866842
 31
0.0
  0
LINE
  5
590D
330
58F9
100
AcDbEntity
  8
0
100
AcDbLine
 10
1385.206966868796
 20
-80.0000000000764
 30
0.0
 11
1385.206966868793
 21
79.99999999989268
 31
0.0
  0
LINE
  5
590E
330
58F9
100
AcDbEntity
  8
0
100
AcDbLine
 10
1389.706966868794
 20
-80.00000000007549
 30
0.0
 11
1389.706966868794
 21
79.99999999989086
 31
0.0
  0
LINE
  5
590F
330
58F9
100
AcDbEntity
  8
0
100
AcDbLine
 10
1367.206966868794
 20
-80.00000000008276
 30
0.0
 11
1367.206966868792
 21
79.99999999989814
 31
0.0
  0
LINE
  5
5910
330
58F9
100
AcDbEntity
  8
0
100
AcDbLine
 10
1362.706966868794
 20
-80.00000000008368
 30
0.0
 11
1362.706966868793
 21
79.99999999989995
 31
0.0
  0
LINE
  5
5911
330
58F9
100
AcDbEntity
  8
0
100
AcDbLine
 10
1371.706966868796
 20
-80.00000000008004
 30
0.0
 11
1371.706966868794
 21
79.99999999989722
 31
0.0
  0
LINE
  5
5912
330
58F9
100
AcDbEntity
  8
0
100
AcDbLine
 10
1376.206966868794
 20
-80.00000000007913
 30
0.0
 11
1376.206966868794
 21
79.9999999998954
 31
0.0
  0
LINE
  5
5913
330
58F9
100
AcDbEntity
  8
0
100
AcDbLine
 10
1380.706966868795
 20
-80.0000000000773
 30
0.0
 11
1380.706966868793
 21
79.9999999998945
 31
0.0
  0
LINE
  5
5914
330
58F9
100
AcDbEntity
  8
0
100
AcDbLine
 10
1394.206966868794
 20
-80.00000000009094
 30
0.0
 11
1394.206966868794
 21
79.99999999990814
 31
0.0
  0
LINE
  5
5915
330
58F9
100
AcDbEntity
  8
0
100
AcDbLine
 10
1332.686119514328
 20
79.99999999990814
 30
0.0
 11
1397.227814223272
 21
79.99999999988904
 31
0.0
  0
LINE
  5
5916
330
58F9
100
AcDbEntity
  8
0
100
AcDbLine
 10
1328.956966868794
 20
73.54091814866842
 30
0.0
 11
1332.686119514328
 21
79.99999999990814
 31
0.0
  0
LINE
  5
5917
330
58F9
100
AcDbEntity
  8
0
100
AcDbLine
 10
1400.956966868791
 20
73.54091814866842
 30
0.0
 11
1397.227814223272
 21
79.99999999988904
 31
0.0
  0
LINE
  5
5918
330
58F9
100
AcDbEntity
  8
0
100
AcDbLine
 10
1400.956966868791
 20
69.89999999990868
 30
0.0
 11
1400.956966868791
 21
73.54091814866842
 31
0.0
  0
LINE
  5
5919
330
58F9
100
AcDbEntity
  8
0
100
AcDbLine
 10
1400.956966868791
 20
69.84999999959018
 30
0.0
 11
1400.956966868791
 21
-73.54091814884032
 31
0.0
  0
ARC
  5
591A
330
58F9
100
AcDbEntity
  8
0
100
AcDbCircle
 10
383.4569668688091
 20
70.39999999992051
 30
0.0
 40
0.5
100
AcDbArc
 50
180.0
 51
270.0
  0
LINE
  5
591B
330
58F9
100
AcDbEntity
  8
0
100
AcDbLine
 10
1328.956966868793
 20
-73.54091814884123
 30
0.0
 11
1332.686119514326
 21
-80.00000000008094
 31
0.0
  0
LINE
  5
591C
330
58F9
100
AcDbEntity
  8
0
100
AcDbLine
 10
1400.956966868789
 20
-73.54091814884032
 30
0.0
 11
1397.227814223263
 21
-80.00000000007185
 31
0.0
  0
LINE
  5
591D
330
58F9
100
AcDbEntity
  8
0
100
AcDbLine
 10
1397.227814223263
 20
-80.00000000007185
 30
0.0
 11
1397.227814223263
 21
79.9999999999045
 31
0.0
  0
LINE
  5
591E
330
58F9
100
AcDbEntity
  8
0
100
AcDbLine
 10
1332.686119514328
 20
79.99999999990814
 30
0.0
 11
1332.686119514332
 21
-80.00000000009185
 31
0.0
  0
LINE
  5
591F
330
58F9
100
AcDbEntity
  8
0
  6
CENTER
100
AcDbLine
 10
319.9569668688036
 20
-0.000000000080945
 30
0.0
 11
2409.956966868796
 21
-0.000000000091859
 31
0.0
  0
LINE
  5
5920
330
58F9
100
AcDbEntity
  8
0
100
AcDbLine
 10
339.9569668688091
 20
-97.50000000008185
 30
0.0
 11
339.9569668687691
 21
97.49999999991997
 31
0.0
  0
LINE
  5
5921
330
58F9
100
AcDbEntity
  8
0
100
AcDbLine
 10
331.9569668688036
 20
-64.70000000008076
 30
0.0
 11
331.9569668687746
 21
64.69999999991888
 31
0.0
  0
LINE
  5
5922
330
58F9
100
AcDbEntity
  8
0
100
AcDbLine
 10
357.9569668687964
 20
-97.50000000008094
 30
0.0
 11
357.9569668688691
 21
97.49999999991997
 31
0.0
  0
LINE
  5
5923
330
58F9
100
AcDbEntity
  8
0
100
AcDbLine
 10
335.9569668688036
 20
-85.00000000008004
 30
0.0
 11
386.9569668688055
 21
-85.00000000008004
 31
0.0
  0
LINE
  5
5924
330
58F9
100
AcDbEntity
  8
0
100
AcDbLine
 10
339.9569668688055
 20
-97.50000000008094
 30
0.0
 11
357.9569668688037
 21
-97.50000000008004
 31
0.0
  0
LINE
  5
5925
330
58F9
100
AcDbEntity
  8
0
100
AcDbLine
 10
357.9569668688055
 20
-75.50000000008004
 30
0.0
 11
360.9569668688073
 21
-75.50000000008004
 31
0.0
  0
LINE
  5
5926
330
58F9
100
AcDbEntity
  8
0
100
AcDbLine
 10
331.9569668688036
 20
-64.70000000008076
 30
0.0
 11
334.9569668688037
 21
-64.70000000008076
 31
0.0
  0
LINE
  5
5927
330
58F9
100
AcDbEntity
  8
0
100
AcDbLine
 10
382.9569668688091
 20
-97.50000000008004
 30
0.0
 11
382.9569668687854
 21
97.49999999991997
 31
0.0
  0
LINE
  5
5928
330
58F9
100
AcDbEntity
  8
0
100
AcDbLine
 10
360.9569668688073
 20
-97.50000000008004
 30
0.0
 11
360.9569668688073
 21
97.49999999991997
 31
0.0
  0
LINE
  5
5929
330
58F9
100
AcDbEntity
  8
0
100
AcDbLine
 10
360.9569668688073
 20
-97.50000000008004
 30
0.0
 11
382.9569668688073
 21
-97.50000000008004
 31
0.0
  0
LINE
  5
592A
330
58F9
100
AcDbEntity
  8
0
100
AcDbLine
 10
335.9569668688036
 20
84.99999999991997
 30
0.0
 11
386.9569668688055
 21
84.99999999991905
 31
0.0
  0
LINE
  5
592B
330
58F9
100
AcDbEntity
  8
0
100
AcDbLine
 10
339.9569668688037
 20
97.49999999991997
 30
0.0
 11
357.9569668688037
 21
97.49999999991997
 31
0.0
  0
LINE
  5
592C
330
58F9
100
AcDbEntity
  8
0
100
AcDbLine
 10
331.9569668687746
 20
64.69999999991888
 30
0.0
 11
334.9569668688037
 21
64.69999999991978
 31
0.0
  0
LINE
  5
592D
330
58F9
100
AcDbEntity
  8
0
100
AcDbLine
 10
360.9569668688073
 20
97.49999999991997
 30
0.0
 11
382.9569668688073
 21
97.49999999991997
 31
0.0
  0
LINE
  5
592E
330
58F9
100
AcDbEntity
  8
0
100
AcDbLine
 10
1328.956966868809
 20
69.89999999991778
 30
0.0
 11
383.4569668688091
 21
69.89999999992051
 31
0.0
  0
LINE
  5
592F
330
58F9
100
AcDbEntity
  8
0
100
AcDbLine
 10
382.9569668688073
 20
-69.90000000009058
 30
0.0
 11
446.8069668688058
 21
-69.90000000008876
 31
0.0
  0
LINE
  5
5930
330
58F9
100
AcDbEntity
  8
0
100
AcDbLine
 10
357.9569668687873
 20
75.4999999999227
 30
0.0
 11
360.9569668688073
 21
75.4999999999236
 31
0.0
  0
ARC
  5
5931
330
58F9
100
AcDbEntity
  8
0
100
AcDbCircle
 10
2394.956966868797
 20
69.69999999990796
 30
0.0
 40
5.0
100
AcDbArc
 50
180.0
 51
270.0
  0
ARC
  5
5932
330
58F9
100
AcDbEntity
  8
0
100
AcDbCircle
 10
2346.456966868795
 20
70.39999999990778
 30
0.0
 40
0.5
100
AcDbArc
 50
270.0
 51
0.0
  0
ARC
  5
5933
330
58F9
100
AcDbEntity
  8
0
100
AcDbCircle
 10
2394.956966868797
 20
-69.70000000009259
 30
0.0
 40
5.0
100
AcDbArc
 50
90.0
 51
180.0
  0
ARC
  5
5934
330
58F9
100
AcDbEntity
  8
0
100
AcDbCircle
 10
2346.456966868791
 20
-70.40000000009332
 30
0.0
 40
0.5
100
AcDbArc
 50
0.0
 51
90.0
  0
LINE
  5
5935
330
58F9
100
AcDbEntity
  8
0
100
AcDbLine
 10
2389.956966868791
 20
97.49999999990905
 30
0.0
 11
2389.956966868831
 21
-97.50000000009277
 31
0.0
  0
LINE
  5
5936
330
58F9
100
AcDbEntity
  8
0
100
AcDbLine
 10
2397.956966868797
 20
64.69999999990796
 30
0.0
 11
2397.956966868826
 21
-64.70000000009168
 31
0.0
  0
LINE
  5
5937
330
58F9
100
AcDbEntity
  8
0
100
AcDbLine
 10
2371.956966868804
 20
97.49999999990814
 30
0.0
 11
2371.956966868731
 21
-97.50000000009277
 31
0.0
  0
LINE
  5
5938
330
58F9
100
AcDbEntity
  8
0
  6
CENTER
100
AcDbLine
 10
2393.956966868797
 20
84.99999999990723
 30
0.0
 11
2342.956966868795
 21
84.99999999990723
 31
0.0
  0
LINE
  5
5939
330
58F9
100
AcDbEntity
  8
0
100
AcDbLine
 10
2389.956966868794
 20
97.49999999990814
 30
0.0
 11
2371.956966868796
 21
97.49999999990723
 31
0.0
  0
LINE
  5
593A
330
58F9
100
AcDbEntity
  8
0
100
AcDbLine
 10
2371.956966868795
 20
75.49999999990723
 30
0.0
 11
2368.956966868793
 21
75.49999999990723
 31
0.0
  0
LINE
  5
593B
330
58F9
100
AcDbEntity
  8
0
100
AcDbLine
 10
2397.956966868797
 20
64.69999999990796
 30
0.0
 11
2394.956966868797
 21
64.69999999990796
 31
0.0
  0
LINE
  5
593C
330
58F9
100
AcDbEntity
  8
0
100
AcDbLine
 10
2346.956966868791
 20
97.49999999990723
 30
0.0
 11
2346.956966868814
 21
-97.50000000009277
 31
0.0
  0
LINE
  5
593D
330
58F9
100
AcDbEntity
  8
0
100
AcDbLine
 10
2368.956966868793
 20
97.49999999990723
 30
0.0
 11
2368.956966868793
 21
-97.50000000009277
 31
0.0
  0
LINE
  5
593E
330
58F9
100
AcDbEntity
  8
0
100
AcDbLine
 10
2368.956966868793
 20
97.49999999990723
 30
0.0
 11
2346.956966868793
 21
97.49999999990723
 31
0.0
  0
LINE
  5
593F
330
58F9
100
AcDbEntity
  8
0
  6
CENTER
100
AcDbLine
 10
2393.956966868797
 20
-85.00000000009277
 30
0.0
 11
2342.956966868795
 21
-85.00000000009185
 31
0.0
  0
LINE
  5
5940
330
58F9
100
AcDbEntity
  8
0
100
AcDbLine
 10
2389.956966868796
 20
-97.50000000009277
 30
0.0
 11
2371.956966868796
 21
-97.50000000009277
 31
0.0
  0
LINE
  5
5941
330
58F9
100
AcDbEntity
  8
0
100
AcDbLine
 10
2397.956966868826
 20
-64.70000000009168
 30
0.0
 11
2394.956966868797
 21
-64.70000000009259
 31
0.0
  0
LINE
  5
5942
330
58F9
100
AcDbEntity
  8
0
100
AcDbLine
 10
2368.956966868793
 20
-97.50000000009277
 30
0.0
 11
2346.956966868793
 21
-97.50000000009277
 31
0.0
  0
LINE
  5
5943
330
58F9
100
AcDbEntity
  8
0
100
AcDbLine
 10
1400.956966868791
 20
-69.9000000000915
 30
0.0
 11
2346.456966868791
 21
-69.90000000009331
 31
0.0
  0
LINE
  5
5944
330
58F9
100
AcDbEntity
  8
0
100
AcDbLine
 10
2346.956966868793
 20
69.89999999991778
 30
0.0
 11
2283.106966868796
 21
69.89999999991687
 31
0.0
  0
LINE
  5
5945
330
58F9
100
AcDbEntity
  8
0
100
AcDbLine
 10
2206.806966868799
 20
69.89999999991596
 30
0.0
 11
1400.956966868791
 21
69.89999999990778
 31
0.0
  0
LINE
  5
5946
330
58F9
100
AcDbEntity
  8
0
100
AcDbLine
 10
2371.956966868813
 20
-75.5000000000955
 30
0.0
 11
2368.956966868793
 21
-75.5000000000964
 31
0.0
  0
LINE
  5
5947
330
58F9
100
AcDbEntity
  8
0
  6
CENTER
100
AcDbLine
 10
112.6236656294986
 20
-0.000000000007276
 30
0.0
 11
-112.6236656295004
 21
0.0000000000081855
 31
0.0
  0
LINE
  5
5948
330
58F9
100
AcDbEntity
  8
0
  6
CENTER
100
AcDbLine
 10
484.9569668688036
 20
-160.0000000001027
 30
0.0
 11
484.9569668688036
 21
-0.000000000086402
 31
0.0
  0
LINE
  5
5949
330
58F9
100
AcDbEntity
  8
0
  6
CENTER
100
AcDbLine
 10
0.0000000000090949
 20
158.0000000000054
 30
0.0
 11
-0.0000000000109139
 21
-158.0000000000054
 31
0.0
  0
ARC
  5
594A
330
58F9
100
AcDbEntity
  8
0
100
AcDbCircle
 10
0.0
 20
0.0
 30
0.0
 40
64.69999999999981
100
AcDbArc
 50
295.9242690104785
 51
244.0757309895216
  0
ARC
  5
594B
330
58F9
100
AcDbEntity
  8
0
100
AcDbCircle
 10
334.9569668688037
 20
688.7132838053112
 30
0.0
 40
5.0
100
AcDbArc
 50
0.0
 51
90.0
  0
ARC
  5
594C
330
58F9
100
AcDbEntity
  8
0
100
AcDbCircle
 10
383.4569668688055
 20
688.0132838053104
 30
0.0
 40
0.5
100
AcDbArc
 50
90.0
 51
180.0
  0
ARC
  5
594D
330
58F9
100
AcDbEntity
  8
0
100
AcDbCircle
 10
334.9569668688037
 20
828.1132838053126
 30
0.0
 40
5.0
100
AcDbArc
 50
270.0
 51
0.0
  0
LINE
  5
594E
330
58F9
100
AcDbEntity
  8
0
100
AcDbLine
 10
1332.686119514328
 20
678.413283805301
 30
0.0
 11
1397.227814223263
 21
678.4132838053192
 31
0.0
  0
LINE
  5
594F
330
58F9
100
AcDbEntity
  8
0
100
AcDbLine
 10
1344.706966868794
 20
678.4132838053028
 30
0.0
 11
1344.706966868792
 21
838.4132838052973
 31
0.0
  0
LINE
  5
5950
330
58F9
100
AcDbEntity
  8
0
100
AcDbLine
 10
1340.206966868794
 20
678.413283805301
 30
0.0
 11
1340.206966868794
 21
838.4132838052973
 31
0.0
  0
LINE
  5
5951
330
58F9
100
AcDbEntity
  8
0
100
AcDbLine
 10
1349.206966868794
 20
678.4132838053047
 30
0.0
 11
1349.206966868792
 21
838.4132838052956
 31
0.0
  0
LINE
  5
5952
330
58F9
100
AcDbEntity
  8
0
100
AcDbLine
 10
1335.706966868794
 20
678.413283805301
 30
0.0
 11
1335.706966868794
 21
838.4132838053011
 31
0.0
  0
LINE
  5
5953
330
58F9
100
AcDbEntity
  8
0
100
AcDbLine
 10
1358.206966868795
 20
678.4132838053083
 30
0.0
 11
1358.206966868795
 21
838.4132838052938
 31
0.0
  0
LINE
  5
5954
330
58F9
100
AcDbEntity
  8
0
100
AcDbLine
 10
1353.706966868793
 20
678.4132838053064
 30
0.0
 11
1353.706966868794
 21
838.4132838052938
 31
0.0
  0
LINE
  5
5955
330
58F9
100
AcDbEntity
  8
0
100
AcDbLine
 10
1328.956966868794
 20
684.8723656565416
 30
0.0
 11
1328.956966868794
 21
831.9542019540604
 31
0.0
  0
LINE
  5
5956
330
58F9
100
AcDbEntity
  8
0
100
AcDbLine
 10
1385.206966868796
 20
678.4132838053156
 30
0.0
 11
1385.206966868793
 21
838.4132838052845
 31
0.0
  0
LINE
  5
5957
330
58F9
100
AcDbEntity
  8
0
100
AcDbLine
 10
1389.706966868794
 20
678.4132838053156
 30
0.0
 11
1389.706966868794
 21
838.4132838052828
 31
0.0
  0
LINE
  5
5958
330
58F9
100
AcDbEntity
  8
0
100
AcDbLine
 10
1367.206966868794
 20
678.4132838053083
 30
0.0
 11
1367.206966868792
 21
838.41328380529
 31
0.0
  0
LINE
  5
5959
330
58F9
100
AcDbEntity
  8
0
100
AcDbLine
 10
1362.706966868794
 20
678.4132838053083
 30
0.0
 11
1362.706966868793
 21
838.4132838052918
 31
0.0
  0
LINE
  5
595A
330
58F9
100
AcDbEntity
  8
0
100
AcDbLine
 10
1371.706966868796
 20
678.4132838053119
 30
0.0
 11
1371.706966868794
 21
838.41328380529
 31
0.0
  0
LINE
  5
595B
330
58F9
100
AcDbEntity
  8
0
100
AcDbLine
 10
1376.206966868794
 20
678.4132838053119
 30
0.0
 11
1376.206966868794
 21
838.4132838052865
 31
0.0
  0
LINE
  5
595C
330
58F9
100
AcDbEntity
  8
0
100
AcDbLine
 10
1380.706966868795
 20
678.4132838053156
 30
0.0
 11
1380.706966868793
 21
838.4132838052865
 31
0.0
  0
LINE
  5
595D
330
58F9
100
AcDbEntity
  8
0
100
AcDbLine
 10
1394.206966868794
 20
678.413283805301
 30
0.0
 11
1394.206966868794
 21
838.4132838053011
 31
0.0
  0
LINE
  5
595E
330
58F9
100
AcDbEntity
  8
0
100
AcDbLine
 10
1332.686119514328
 20
838.4132838053011
 30
0.0
 11
1397.227814223272
 21
838.413283805281
 31
0.0
  0
LINE
  5
595F
330
58F9
100
AcDbEntity
  8
0
100
AcDbLine
 10
1328.956966868794
 20
831.9542019540604
 30
0.0
 11
1332.686119514328
 21
838.4132838053011
 31
0.0
  0
LINE
  5
5960
330
58F9
100
AcDbEntity
  8
0
100
AcDbLine
 10
1400.956966868791
 20
831.9542019540604
 30
0.0
 11
1397.227814223272
 21
838.413283805281
 31
0.0
  0
LINE
  5
5961
330
58F9
100
AcDbEntity
  8
0
100
AcDbLine
 10
1400.956966868791
 20
828.3132838053006
 30
0.0
 11
1400.956966868791
 21
831.9542019540604
 31
0.0
  0
LINE
  5
5962
330
58F9
100
AcDbEntity
  8
0
100
AcDbLine
 10
1400.956966868791
 20
828.2632838049831
 30
0.0
 11
1400.956966868791
 21
684.8723656565526
 31
0.0
  0
ARC
  5
5963
330
58F9
100
AcDbEntity
  8
0
100
AcDbCircle
 10
383.4569668688091
 20
828.8132838053133
 30
0.0
 40
0.5
100
AcDbArc
 50
180.0
 51
270.0
  0
LINE
  5
5964
330
58F9
100
AcDbEntity
  8
0
100
AcDbLine
 10
1328.956966868793
 20
684.8723656565507
 30
0.0
 11
1332.686119514326
 21
678.4132838053119
 31
0.0
  0
LINE
  5
5965
330
58F9
100
AcDbEntity
  8
0
100
AcDbLine
 10
1400.956966868789
 20
684.8723656565526
 30
0.0
 11
1397.227814223263
 21
678.4132838053192
 31
0.0
  0
LINE
  5
5966
330
58F9
100
AcDbEntity
  8
0
100
AcDbLine
 10
1397.227814223263
 20
678.4132838053192
 30
0.0
 11
1397.227814223263
 21
838.4132838052973
 31
0.0
  0
LINE
  5
5967
330
58F9
100
AcDbEntity
  8
0
100
AcDbLine
 10
1332.686119514328
 20
838.4132838053011
 30
0.0
 11
1332.686119514332
 21
678.413283805301
 31
0.0
  0
LINE
  5
5968
330
58F9
100
AcDbEntity
  8
0
100
AcDbLine
 10
339.9569668688091
 20
660.9132838053101
 30
0.0
 11
339.9569668687691
 21
855.913283805312
 31
0.0
  0
LINE
  5
5969
330
58F9
100
AcDbEntity
  8
0
100
AcDbLine
 10
331.9569668688036
 20
693.7132838053112
 30
0.0
 11
331.9569668687746
 21
823.1132838053108
 31
0.0
  0
LINE
  5
596A
330
58F9
100
AcDbEntity
  8
0
100
AcDbLine
 10
357.9569668687964
 20
660.913283805312
 30
0.0
 11
357.9569668688691
 21
855.913283805312
 31
0.0
  0
LINE
  5
596B
330
58F9
100
AcDbEntity
  8
0
100
AcDbLine
 10
335.9569668688036
 20
673.413283805312
 30
0.0
 11
386.9569668688055
 21
673.413283805312
 31
0.0
  0
LINE
  5
596C
330
58F9
100
AcDbEntity
  8
0
100
AcDbLine
 10
339.9569668688055
 20
660.913283805312
 30
0.0
 11
357.9569668688037
 21
660.913283805312
 31
0.0
  0
LINE
  5
596D
330
58F9
100
AcDbEntity
  8
0
100
AcDbLine
 10
357.9569668688055
 20
682.9132838053119
 30
0.0
 11
360.9569668688073
 21
682.9132838053119
 31
0.0
  0
LINE
  5
596E
330
58F9
100
AcDbEntity
  8
0
100
AcDbLine
 10
331.9569668688036
 20
693.7132838053112
 30
0.0
 11
334.9569668688037
 21
693.7132838053112
 31
0.0
  0
LINE
  5
596F
330
58F9
100
AcDbEntity
  8
0
100
AcDbLine
 10
382.9569668688091
 20
660.913283805312
 30
0.0
 11
382.9569668687854
 21
855.913283805312
 31
0.0
  0
LINE
  5
5970
330
58F9
100
AcDbEntity
  8
0
100
AcDbLine
 10
360.9569668688073
 20
660.913283805312
 30
0.0
 11
360.9569668688073
 21
855.913283805312
 31
0.0
  0
LINE
  5
5971
330
58F9
100
AcDbEntity
  8
0
100
AcDbLine
 10
360.9569668688073
 20
660.913283805312
 30
0.0
 11
382.9569668688073
 21
660.913283805312
 31
0.0
  0
LINE
  5
5972
330
58F9
100
AcDbEntity
  8
0
100
AcDbLine
 10
335.9569668688036
 20
843.413283805312
 30
0.0
 11
386.9569668688055
 21
843.413283805312
 31
0.0
  0
LINE
  5
5973
330
58F9
100
AcDbEntity
  8
0
100
AcDbLine
 10
339.9569668688037
 20
855.913283805312
 30
0.0
 11
357.9569668688037
 21
855.913283805312
 31
0.0
  0
LINE
  5
5974
330
58F9
100
AcDbEntity
  8
0
100
AcDbLine
 10
331.9569668687746
 20
823.1132838053108
 30
0.0
 11
334.9569668688037
 21
823.1132838053126
 31
0.0
  0
LINE
  5
5975
330
58F9
100
AcDbEntity
  8
0
100
AcDbLine
 10
360.9569668688073
 20
855.913283805312
 30
0.0
 11
382.9569668688073
 21
855.913283805312
 31
0.0
  0
LINE
  5
5976
330
58F9
100
AcDbEntity
  8
0
100
AcDbLine
 10
1328.956966868809
 20
828.3132838053097
 30
0.0
 11
383.4569668688091
 21
828.3132838053134
 31
0.0
  0
LINE
  5
5977
330
58F9
100
AcDbEntity
  8
0
100
AcDbLine
 10
382.9569668688073
 20
688.5132838053014
 30
0.0
 11
1328.956966868809
 21
688.5132838053104
 31
0.0
  0
LINE
  5
5978
330
58F9
100
AcDbEntity
  8
0
100
AcDbLine
 10
357.9569668687873
 20
833.9132838053156
 30
0.0
 11
360.9569668688073
 21
833.9132838053156
 31
0.0
  0
ARC
  5
5979
330
58F9
100
AcDbEntity
  8
0
100
AcDbCircle
 10
2394.956966868797
 20
828.1132838052998
 30
0.0
 40
5.0
100
AcDbArc
 50
180.0
 51
270.0
  0
ARC
  5
597A
330
58F9
100
AcDbEntity
  8
0
100
AcDbCircle
 10
2346.456966868795
 20
828.8132838052987
 30
0.0
 40
0.5
100
AcDbArc
 50
270.0
 51
0.0
  0
ARC
  5
597B
330
58F9
100
AcDbEntity
  8
0
100
AcDbCircle
 10
2394.956966868797
 20
688.7132838053003
 30
0.0
 40
5.0
100
AcDbArc
 50
90.0
 51
180.0
  0
ARC
  5
597C
330
58F9
100
AcDbEntity
  8
0
100
AcDbCircle
 10
2346.456966868791
 20
688.0132838052995
 30
0.0
 40
0.5
100
AcDbArc
 50
0.0
 51
90.0
  0
LINE
  5
597D
330
58F9
100
AcDbEntity
  8
0
100
AcDbLine
 10
2389.956966868791
 20
855.913283805301
 30
0.0
 11
2389.956966868831
 21
660.9132838052992
 31
0.0
  0
LINE
  5
597E
330
58F9
100
AcDbEntity
  8
0
100
AcDbLine
 10
2397.956966868797
 20
823.1132838053
 30
0.0
 11
2397.956966868826
 21
693.7132838053003
 31
0.0
  0
LINE
  5
597F
330
58F9
100
AcDbEntity
  8
0
100
AcDbLine
 10
2371.956966868804
 20
855.913283805301
 30
0.0
 11
2371.956966868731
 21
660.9132838052992
 31
0.0
  0
LINE
  5
5980
330
58F9
100
AcDbEntity
  8
0
  6
CENTER
100
AcDbLine
 10
2393.956966868797
 20
843.4132838052992
 30
0.0
 11
2342.956966868795
 21
843.4132838052992
 31
0.0
  0
LINE
  5
5981
330
58F9
100
AcDbEntity
  8
0
100
AcDbLine
 10
2389.956966868794
 20
855.913283805301
 30
0.0
 11
2371.956966868796
 21
855.9132838052992
 31
0.0
  0
LINE
  5
5982
330
58F9
100
AcDbEntity
  8
0
100
AcDbLine
 10
2371.956966868795
 20
833.9132838052991
 30
0.0
 11
2368.956966868793
 21
833.9132838052991
 31
0.0
  0
LINE
  5
5983
330
58F9
100
AcDbEntity
  8
0
100
AcDbLine
 10
2397.956966868797
 20
823.1132838053
 30
0.0
 11
2394.956966868797
 21
823.1132838053
 31
0.0
  0
LINE
  5
5984
330
58F9
100
AcDbEntity
  8
0
100
AcDbLine
 10
2346.956966868791
 20
855.9132838052992
 30
0.0
 11
2346.956966868814
 21
660.9132838052992
 31
0.0
  0
LINE
  5
5985
330
58F9
100
AcDbEntity
  8
0
100
AcDbLine
 10
2368.956966868793
 20
855.9132838052992
 30
0.0
 11
2368.956966868793
 21
660.9132838052992
 31
0.0
  0
LINE
  5
5986
330
58F9
100
AcDbEntity
  8
0
100
AcDbLine
 10
2368.956966868793
 20
855.9132838052992
 30
0.0
 11
2346.956966868793
 21
855.9132838052992
 31
0.0
  0
LINE
  5
5987
330
58F9
100
AcDbEntity
  8
0
  6
CENTER
100
AcDbLine
 10
2393.956966868797
 20
673.4132838052992
 30
0.0
 11
2342.956966868795
 21
673.413283805301
 31
0.0
  0
LINE
  5
5988
330
58F9
100
AcDbEntity
  8
0
100
AcDbLine
 10
2389.956966868796
 20
660.9132838052992
 30
0.0
 11
2371.956966868796
 21
660.9132838052992
 31
0.0
  0
LINE
  5
5989
330
58F9
100
AcDbEntity
  8
0
100
AcDbLine
 10
2397.956966868826
 20
693.7132838053003
 30
0.0
 11
2394.956966868797
 21
693.7132838053003
 31
0.0
  0
LINE
  5
598A
330
58F9
100
AcDbEntity
  8
0
100
AcDbLine
 10
2368.956966868793
 20
660.9132838052992
 30
0.0
 11
2346.956966868793
 21
660.9132838052992
 31
0.0
  0
LINE
  5
598B
330
58F9
100
AcDbEntity
  8
0
100
AcDbLine
 10
1400.956966868791
 20
688.5132838052996
 30
0.0
 11
2211.486980313681
 21
688.5132838052996
 31
0.0
  0
LINE
  5
598C
330
58F9
100
AcDbEntity
  8
0
100
AcDbLine
 10
2346.956966868791
 20
828.3132838053097
 30
0.0
 11
2278.426953423903
 21
828.3132838053079
 31
0.0
  0
LINE
  5
598D
330
58F9
100
AcDbEntity
  8
0
100
AcDbLine
 10
2371.956966868813
 20
682.9132838052974
 30
0.0
 11
2368.956966868793
 21
682.9132838052956
 31
0.0
  0
LINE
  5
598E
330
58F9
100
AcDbEntity
  8
0
  6
CENTER
100
AcDbLine
 10
2244.956966868798
 20
838.4132838053137
 30
0.0
 11
2244.956966868798
 21
678.4132838052974
 31
0.0
  0
LINE
  5
598F
330
58F9
100
AcDbEntity
  8
0
100
AcDbLine
 10
407.4569668688036
 20
-134.0000000000864
 30
0.0
 11
562.4569668688036
 21
-134.0000000000864
 31
0.0
  0
LINE
  5
5990
330
58F9
100
AcDbEntity
  8
0
100
AcDbLine
 10
562.4569668688036
 20
-150.0000000000864
 30
0.0
 11
407.4569668688036
 21
-150.0000000000864
 31
0.0
  0
LINE
  5
5991
330
58F9
100
AcDbEntity
  8
0
  6
CENTER
100
AcDbLine
 10
544.9569668688036
 20
-158.0000000000864
 30
0.0
 11
544.9569668688036
 21
-124.0000000000864
 31
0.0
  0
LINE
  5
5992
330
58F9
100
AcDbEntity
  8
0
100
AcDbLine
 10
562.4569668688036
 20
-134.0000000000864
 30
0.0
 11
562.4569668688036
 21
-150.0000000000864
 31
0.0
  0
LINE
  5
5993
330
58F9
100
AcDbEntity
  8
0
  6
CENTER
100
AcDbLine
 10
424.9569668688036
 20
-158.0000000000864
 30
0.0
 11
424.9569668688036
 21
-124.0000000000864
 31
0.0
  0
LINE
  5
5994
330
58F9
100
AcDbEntity
  8
0
100
AcDbLine
 10
407.4569668688036
 20
-150.0000000000864
 30
0.0
 11
407.4569668688036
 21
-134.0000000000864
 31
0.0
  0
LINE
  5
5995
330
58F9
100
AcDbEntity
  8
0
100
AcDbLine
 10
523.1069668688051
 20
-134.0000000000864
 30
0.0
 11
523.1069668688032
 21
-69.90000000008876
 31
0.0
  0
LINE
  5
5996
330
58F9
100
AcDbEntity
  8
0
100
AcDbLine
 10
446.8069668688039
 20
-134.0000000000864
 30
0.0
 11
446.8069668688058
 21
-69.90000000008968
 31
0.0
  0
ARC
  5
5997
330
58F9
100
AcDbEntity
  8
0
100
AcDbCircle
 10
484.9569668688036
 20
-128.4712173342141
 30
0.0
 40
69.90000000000788
100
AcDbArc
 50
56.922039290275
 51
123.077960709725
  0
LINE
  5
5998
330
58F9
100
AcDbEntity
  8
0
  6
CENTER
100
AcDbLine
 10
2244.956966868798
 20
159.9999999999299
 30
0.0
 11
2244.956966868798
 21
-0.000000000086402
 31
0.0
  0
LINE
  5
5999
330
58F9
100
AcDbEntity
  8
0
100
AcDbLine
 10
2283.106966868798
 20
133.9999999999136
 30
0.0
 11
2283.106966868796
 21
69.89999999991687
 31
0.0
  0
LINE
  5
599A
330
58F9
100
AcDbEntity
  8
0
100
AcDbLine
 10
2206.806966868797
 20
133.9999999999136
 30
0.0
 11
2206.806966868799
 21
69.89999999991596
 31
0.0
  0
LINE
  5
599B
330
58F9
100
AcDbEntity
  8
0
100
AcDbLine
 10
2322.456966868799
 20
133.9999999999136
 30
0.0
 11
2167.456966868798
 21
133.9999999999136
 31
0.0
  0
LINE
  5
599C
330
58F9
100
AcDbEntity
  8
0
100
AcDbLine
 10
2167.456966868798
 20
149.9999999999136
 30
0.0
 11
2322.456966868799
 21
149.9999999999136
 31
0.0
  0
LINE
  5
599D
330
58F9
100
AcDbEntity
  8
0
  6
CENTER
100
AcDbLine
 10
2184.956966868798
 20
157.9999999999136
 30
0.0
 11
2184.956966868798
 21
123.9999999999136
 31
0.0
  0
LINE
  5
599E
330
58F9
100
AcDbEntity
  8
0
100
AcDbLine
 10
2167.456966868798
 20
133.9999999999136
 30
0.0
 11
2167.456966868798
 21
149.9999999999136
 31
0.0
  0
LINE
  5
599F
330
58F9
100
AcDbEntity
  8
0
  6
CENTER
100
AcDbLine
 10
2304.956966868799
 20
157.9999999999136
 30
0.0
 11
2304.956966868799
 21
123.9999999999136
 31
0.0
  0
LINE
  5
59A0
330
58F9
100
AcDbEntity
  8
0
100
AcDbLine
 10
2322.456966868799
 20
149.9999999999136
 30
0.0
 11
2322.456966868799
 21
133.9999999999136
 31
0.0
  0
ARC
  5
59A1
330
58F9
100
AcDbEntity
  8
0
100
AcDbCircle
 10
2244.956966868798
 20
128.4712173340395
 30
0.0
 40
69.90000000000788
100
AcDbArc
 50
236.922039290275
 51
303.077960709725
  0
LINE
  5
59A2
330
58F9
100
AcDbEntity
  8
0
100
AcDbLine
 10
523.1069668688032
 20
-69.90000000008876
 30
0.0
 11
1328.956966868809
 21
-69.90000000008149
 31
0.0
  0
LINE
  5
59A3
330
58F9
100
AcDbEntity
  8
0
  6
CENTER
100
AcDbLine
 10
2216.319142230743
 20
729.7754591672456
 30
0.0
 11
2188.741977764468
 21
702.198294700971
 31
0.0
  0
LINE
  5
59A4
330
58F9
100
AcDbEntity
  8
0
  6
CENTER
100
AcDbLine
 10
2216.319142230743
 20
787.0511084433565
 30
0.0
 11
2188.741977764468
 21
814.6282729096309
 31
0.0
  0
LINE
  5
59A5
330
58F9
100
AcDbEntity
  8
0
  6
CENTER
100
AcDbLine
 10
2273.594791506853
 20
787.0511084433565
 30
0.0
 11
2301.171955973128
 21
814.6282729096309
 31
0.0
  0
LINE
  5
59A6
330
58F9
100
AcDbEntity
  8
0
  6
CENTER
100
AcDbLine
 10
2273.594791506853
 20
729.7754591672456
 30
0.0
 11
2301.171955973128
 21
702.198294700971
 31
0.0
  0
LINE
  5
59A7
330
58F9
100
AcDbEntity
  8
0
  6
CENTER
100
AcDbLine
 10
484.9569668688018
 20
838.4132838053137
 30
0.0
 11
484.9569668688018
 21
678.4132838052974
 31
0.0
  0
ARC
  5
59A8
330
58F9
100
AcDbEntity
  8
0
100
AcDbCircle
 10
484.9569668688018
 20
758.413283805301
 30
0.0
 40
77.5
100
AcDbArc
 50
64.41365584477455
 51
115.5863441551314
  0
ARC
  5
59A9
330
58F9
100
AcDbEntity
  8
0
100
AcDbCircle
 10
484.9569668688018
 20
758.413283805301
 30
0.0
 40
77.5
100
AcDbArc
 50
244.4136558447746
 51
295.5863441552255
  0
LINE
  5
59AA
330
58F9
100
AcDbEntity
  8
0
100
AcDbLine
 10
2211.486980313692
 20
828.3132838053079
 30
0.0
 11
1400.956966868791
 21
828.3132838052988
 31
0.0
  0
LINE
  5
59AB
330
58F9
100
AcDbEntity
  8
0
100
AcDbLine
 10
2278.426953423916
 20
688.5132838052996
 30
0.0
 11
2346.456966868791
 21
688.5132838052996
 31
0.0
  0
LINE
  5
59AC
330
58F9
100
AcDbEntity
  8
0
100
AcDbLine
 10
-38.15000000001055
 20
-134.0000000000027
 30
0.0
 11
-38.15000000000509
 21
-89.72640358333682
 31
0.0
  0
LINE
  5
59AD
330
58F9
100
AcDbEntity
  8
0
100
AcDbLine
 10
38.14999999999054
 20
-134.0000000000082
 30
0.0
 11
38.14999999999236
 21
-89.72640358334137
 31
0.0
  0
LINE
  5
59AE
330
58F9
100
AcDbEntity
  8
0
100
AcDbLine
 10
-77.50000000001091
 20
-133.9999999999991
 30
0.0
 11
77.49999999998909
 21
-134.0000000000109
 31
0.0
  0
LINE
  5
59AF
330
58F9
100
AcDbEntity
  8
0
100
AcDbLine
 10
77.49999999998727
 20
-150.0000000000109
 30
0.0
 11
-77.50000000001273
 21
-149.9999999999991
 31
0.0
  0
LINE
  5
59B0
330
58F9
100
AcDbEntity
  8
0
  6
CENTER
100
AcDbLine
 10
59.99999999998909
 20
-158.0000000000091
 30
0.0
 11
59.9999999999909
 21
-124.0000000000091
 31
0.0
  0
LINE
  5
59B1
330
58F9
100
AcDbEntity
  8
0
100
AcDbLine
 10
77.49999999998909
 20
-134.0000000000109
 30
0.0
 11
77.49999999998727
 21
-150.0000000000109
 31
0.0
  0
LINE
  5
59B2
330
58F9
100
AcDbEntity
  8
0
  6
CENTER
100
AcDbLine
 10
-60.00000000001091
 20
-158.0000000000009
 30
0.0
 11
-60.00000000000909
 21
-124.0000000000009
 31
0.0
  0
LINE
  5
59B3
330
58F9
100
AcDbEntity
  8
0
100
AcDbLine
 10
-77.50000000001273
 20
-149.9999999999991
 30
0.0
 11
-77.50000000001091
 21
-133.9999999999991
 31
0.0
  0
LINE
  5
59B4
330
58F9
100
AcDbEntity
  8
0
100
AcDbLine
 10
-38.14999999999054
 20
134.0000000000082
 30
0.0
 11
-38.14999999999236
 21
89.7264035833423
 31
0.0
  0
LINE
  5
59B5
330
58F9
100
AcDbEntity
  8
0
100
AcDbLine
 10
38.15000000001055
 20
134.0000000000027
 30
0.0
 11
38.15000000000509
 21
89.72640358333592
 31
0.0
  0
LINE
  5
59B6
330
58F9
100
AcDbEntity
  8
0
100
AcDbLine
 10
-77.4999999999909
 20
134.0000000000118
 30
0.0
 11
77.50000000000909
 21
134.0
 31
0.0
  0
LINE
  5
59B7
330
58F9
100
AcDbEntity
  8
0
100
AcDbLine
 10
77.50000000000909
 20
150.0
 30
0.0
 11
-77.4999999999909
 21
150.0000000000118
 31
0.0
  0
LINE
  5
59B8
330
58F9
100
AcDbEntity
  8
0
  6
CENTER
100
AcDbLine
 10
60.00000000000909
 20
158.0000000000018
 30
0.0
 11
60.00000000000728
 21
124.0000000000018
 31
0.0
  0
LINE
  5
59B9
330
58F9
100
AcDbEntity
  8
0
100
AcDbLine
 10
77.50000000000909
 20
134.0
 30
0.0
 11
77.50000000000909
 21
150.0
 31
0.0
  0
LINE
  5
59BA
330
58F9
100
AcDbEntity
  8
0
  6
CENTER
100
AcDbLine
 10
-59.9999999999909
 20
158.00000000001
 30
0.0
 11
-59.99999999999272
 21
124.00000000001
 31
0.0
  0
LINE
  5
59BB
330
58F9
100
AcDbEntity
  8
0
100
AcDbLine
 10
-77.4999999999909
 20
150.0000000000118
 30
0.0
 11
-77.4999999999909
 21
134.0000000000118
 31
0.0
  0
TEXT
  5
59BC
330
58F9
100
AcDbEntity
  8
0
100
AcDbText
 10
957.81410972595
 20
926.5632838052207
 30
0.0
 40
50.0
  1
125AX2000L-50AX3S
 72
     4
 11
1364.956966868807
 21
951.5632838052207
 31
0.0
100
AcDbText
  0
LINE
  5
59BD
330
58F9
100
AcDbEntity
  8
0
  6
CENTER
100
AcDbLine
 10
306.808224147735
 20
758.413283805372
 30
0.0
 11
2423.10570958986
 21
758.413283805301
 31
0.0
  0
LINE
  5
59BE
330
58F9
100
AcDbEntity
  8
0
100
AcDbLine
 10
315.48214830693
 20
-60.44700167132578
 30
0.0
 11
315.48214830693
 21
15.34700167116352
 31
0.0
  0
LINE
  5
59BF
330
58F9
100
AcDbEntity
  8
0
  6
CENTER
100
AcDbLine
 10
306.8082241477459
 20
-22.55000000008113
 30
0.0
 11
338.6119899596833
 21
-22.55000000008113
 31
0.0
  0
LINE
  5
59C0
330
58F9
100
AcDbEntity
  8
0
100
AcDbLine
 10
309.9569668688
 20
-68.05000000008113
 30
0.0
 11
309.9569668688
 21
22.94999999991887
 31
0.0
  0
LINE
  5
59C1
330
58F9
100
AcDbEntity
  8
0
100
AcDbLine
 10
312.8069668688004
 20
-67.17631477086706
 30
0.0
 11
312.8069668688004
 21
22.07631477070481
 31
0.0
  0
LINE
  5
59C2
330
58F9
100
AcDbEntity
  8
0
100
AcDbLine
 10
316.882563167077
 20
15.59999999991942
 30
0.0
 11
331.9569668688
 21
15.59999999991942
 31
0.0
  0
ARC
  5
59C3
330
58F9
100
AcDbEntity
  8
0
100
AcDbCircle
 10
316.882563167077
 20
17.59999999991942
 30
0.0
 40
2.0
100
AcDbArc
 50
199.9999999999803
 51
270.0
1001
GENIUS_GENODEF_13
1002
{
1000
HIER
1070
     0
1002
}
1002
{
1000
MANEDIT
1070
     0
1002
}
1002
{
1000
NOSEL
1070
     0
1002
}
1002
{
1000
BEHIND
1070
     0
1002
}
1002
{
1000
OTHER
1070
     0
1002
}
1002
{
1000
REACTOR
1002
}
1001
GENIUS_GENOBJ-N-FIL_13
1002
{
1000
OWNER
1000
GEN
1002
}
  0
LINE
  5
59C4
330
58F9
100
AcDbEntity
  8
0
100
AcDbLine
 10
312.2468008382329
 20
22.94999999991887
 30
0.0
 11
309.9569668688
 21
22.94999999991887
 31
0.0
  0
LINE
  5
59C5
330
58F9
100
AcDbEntity
  8
0
100
AcDbLine
 10
312.9985549348621
 20
22.42361611457909
 30
0.0
 11
315.0031779255041
 21
16.91595971326751
 31
0.0
  0
ARC
  5
59C6
330
58F9
100
AcDbEntity
  8
0
100
AcDbCircle
 10
312.2468008382329
 20
22.14999999991869
 30
0.0
 40
0.8
100
AcDbArc
 50
19.99999999998033
 51
90.0
1001
GENIUS_GENOBJ-N-FIL_13
1002
{
1000
OWNER
1000
GEN
1002
}
1001
GENIUS_GENODEF_13
1002
{
1000
HIER
1070
     0
1002
}
1002
{
1000
MANEDIT
1070
     0
1002
}
1002
{
1000
NOSEL
1070
     0
1002
}
1002
{
1000
BEHIND
1070
     0
1002
}
1002
{
1000
OTHER
1070
     0
1002
}
1002
{
1000
REACTOR
1002
}
  0
LINE
  5
59C7
330
58F9
100
AcDbEntity
  8
0
100
AcDbLine
 10
316.882563167077
 20
-60.70000000008076
 30
0.0
 11
331.9569668688018
 21
-60.70000000008076
 31
0.0
  0
ARC
  5
59C8
330
58F9
100
AcDbEntity
  8
0
100
AcDbCircle
 10
316.882563167077
 20
-62.70000000008076
 30
0.0
 40
2.0
100
AcDbArc
 50
90.0
 51
160.0000000000196
1001
GENIUS_GENODEF_13
1002
{
1000
HIER
1070
     0
1002
}
1002
{
1000
MANEDIT
1070
     0
1002
}
1002
{
1000
NOSEL
1070
     0
1002
}
1002
{
1000
BEHIND
1070
     0
1002
}
1002
{
1000
OTHER
1070
     0
1002
}
1002
{
1000
REACTOR
1002
}
1001
GENIUS_GENOBJ-N-FIL_13
1002
{
1000
OWNER
1000
GEN
1002
}
  0
LINE
  5
59C9
330
58F9
100
AcDbEntity
  8
0
100
AcDbLine
 10
312.2468008382329
 20
-68.05000000008113
 30
0.0
 11
309.9569668688
 21
-68.05000000008113
 31
0.0
  0
LINE
  5
59CA
330
58F9
100
AcDbEntity
  8
0
100
AcDbLine
 10
312.9985549348603
 20
-67.52361611474134
 30
0.0
 11
315.0031779255041
 21
-62.01595971342976
 31
0.0
  0
ARC
  5
59CB
330
58F9
100
AcDbEntity
  8
0
100
AcDbCircle
 10
312.2468008382329
 20
-67.25000000008094
 30
0.0
 40
0.8
100
AcDbArc
 50
270.0
 51
340.0000000000197
1001
GENIUS_GENOBJ-N-FIL_13
1002
{
1000
OWNER
1000
GEN
1002
}
1001
GENIUS_GENODEF_13
1002
{
1000
HIER
1070
     0
1002
}
1002
{
1000
MANEDIT
1070
     0
1002
}
1002
{
1000
NOSEL
1070
     0
1002
}
1002
{
1000
BEHIND
1070
     0
1002
}
1002
{
1000
OTHER
1070
     0
1002
}
1002
{
1000
REACTOR
1002
}
  0
LINE
  5
59CC
330
58F9
100
AcDbEntity
  8
0
100
AcDbLine
 10
2414.43178543067
 20
60.44700167115298
 30
0.0
 11
2414.43178543067
 21
-15.34700167133633
 31
0.0
  0
LINE
  5
59CD
330
58F9
100
AcDbEntity
  8
0
  6
CENTER
100
AcDbLine
 10
2423.105709589854
 20
22.54999999990833
 30
0.0
 11
2391.301943777917
 21
22.54999999990833
 31
0.0
  0
LINE
  5
59CE
330
58F9
100
AcDbEntity
  8
0
100
AcDbLine
 10
2419.9569668688
 20
68.04999999990832
 30
0.0
 11
2419.9569668688
 21
-22.95000000009168
 31
0.0
  0
LINE
  5
59CF
330
58F9
100
AcDbEntity
  8
0
100
AcDbLine
 10
2417.1069668688
 20
67.17631477069426
 30
0.0
 11
2417.1069668688
 21
-22.07631477087762
 31
0.0
  0
LINE
  5
59D0
330
58F9
100
AcDbEntity
  8
0
100
AcDbLine
 10
2413.031370570523
 20
-15.60000000009222
 30
0.0
 11
2397.9569668688
 21
-15.60000000009222
 31
0.0
  0
ARC
  5
59D1
330
58F9
100
AcDbEntity
  8
0
100
AcDbCircle
 10
2413.031370570523
 20
-17.60000000009222
 30
0.0
 40
2.0
100
AcDbArc
 50
19.99999999998033
 51
90.0
1001
GENIUS_GENODEF_13
1002
{
1000
HIER
1070
     0
1002
}
1002
{
1000
MANEDIT
1070
     0
1002
}
1002
{
1000
NOSEL
1070
     0
1002
}
1002
{
1000
BEHIND
1070
     0
1002
}
1002
{
1000
OTHER
1070
     0
1002
}
1002
{
1000
REACTOR
1002
}
1001
GENIUS_GENOBJ-N-FIL_13
1002
{
1000
OWNER
1000
GEN
1002
}
  0
LINE
  5
59D2
330
58F9
100
AcDbEntity
  8
0
100
AcDbLine
 10
2417.667132899367
 20
-22.95000000009168
 30
0.0
 11
2419.9569668688
 21
-22.95000000009168
 31
0.0
  0
LINE
  5
59D3
330
58F9
100
AcDbEntity
  8
0
100
AcDbLine
 10
2416.915378802738
 20
-22.42361611475189
 30
0.0
 11
2414.910755812096
 21
-16.91595971344031
 31
0.0
  0
ARC
  5
59D4
330
58F9
100
AcDbEntity
  8
0
100
AcDbCircle
 10
2417.667132899367
 20
-22.15000000009149
 30
0.0
 40
0.8
100
AcDbArc
 50
199.9999999999803
 51
270.0
1001
GENIUS_GENOBJ-N-FIL_13
1002
{
1000
OWNER
1000
GEN
1002
}
1001
GENIUS_GENODEF_13
1002
{
1000
HIER
1070
     0
1002
}
1002
{
1000
MANEDIT
1070
     0
1002
}
1002
{
1000
NOSEL
1070
     0
1002
}
1002
{
1000
BEHIND
1070
     0
1002
}
1002
{
1000
OTHER
1070
     0
1002
}
1002
{
1000
REACTOR
1002
}
  0
LINE
  5
59D5
330
58F9
100
AcDbEntity
  8
0
100
AcDbLine
 10
2413.031370570523
 20
60.69999999990796
 30
0.0
 11
2397.956966868799
 21
60.69999999990796
 31
0.0
  0
ARC
  5
59D6
330
58F9
100
AcDbEntity
  8
0
100
AcDbCircle
 10
2413.031370570523
 20
62.69999999990796
 30
0.0
 40
2.0
100
AcDbArc
 50
270.0
 51
340.0000000000197
1001
GENIUS_GENODEF_13
1002
{
1000
HIER
1070
     0
1002
}
1002
{
1000
MANEDIT
1070
     0
1002
}
1002
{
1000
NOSEL
1070
     0
1002
}
1002
{
1000
BEHIND
1070
     0
1002
}
1002
{
1000
OTHER
1070
     0
1002
}
1002
{
1000
REACTOR
1002
}
1001
GENIUS_GENOBJ-N-FIL_13
1002
{
1000
OWNER
1000
GEN
1002
}
  0
LINE
  5
59D7
330
58F9
100
AcDbEntity
  8
0
100
AcDbLine
 10
2417.667132899367
 20
68.04999999990832
 30
0.0
 11
2419.9569668688
 21
68.04999999990832
 31
0.0
  0
LINE
  5
59D8
330
58F9
100
AcDbEntity
  8
0
100
AcDbLine
 10
2416.91537880274
 20
67.52361611456854
 30
0.0
 11
2414.910755812096
 21
62.01595971325696
 31
0.0
  0
ARC
  5
59D9
330
58F9
100
AcDbEntity
  8
0
100
AcDbCircle
 10
2417.667132899367
 20
67.24999999990814
 30
0.0
 40
0.8
100
AcDbArc
 50
90.0
 51
160.0000000000196
1001
GENIUS_GENOBJ-N-FIL_13
1002
{
1000
OWNER
1000
GEN
1002
}
1001
GENIUS_GENODEF_13
1002
{
1000
HIER
1070
     0
1002
}
1002
{
1000
MANEDIT
1070
     0
1002
}
1002
{
1000
NOSEL
1070
     0
1002
}
1002
{
1000
BEHIND
1070
     0
1002
}
1002
{
1000
OTHER
1070
     0
1002
}
1002
{
1000
REACTOR
1002
}
  0
LINE
  5
59DA
330
58F9
100
AcDbEntity
  8
0
  6
CENTER
100
AcDbLine
 10
54.87345926006492
 20
-22.55000000000382
 30
0.0
 11
-54.87345926006856
 21
-22.54999999999654
 31
0.0
  0
LINE
  5
59DB
330
58F9
100
AcDbEntity
  8
0
100
AcDbLine
 10
2414.431785430676
 20
796.3102854765456
 30
0.0
 11
2414.431785430676
 21
720.5162821340564
 31
0.0
  0
LINE
  5
59DC
330
58F9
100
AcDbEntity
  8
0
100
AcDbLine
 10
2419.956966868806
 20
803.913283805301
 30
0.0
 11
2419.956966868806
 21
712.913283805301
 31
0.0
  0
LINE
  5
59DD
330
58F9
100
AcDbEntity
  8
0
100
AcDbLine
 10
2417.106966868805
 20
803.039598576086
 30
0.0
 11
2417.106966868805
 21
713.7869690345142
 31
0.0
  0
LINE
  5
59DE
330
58F9
100
AcDbEntity
  8
0
100
AcDbLine
 10
2413.031370570529
 20
720.2632838052996
 30
0.0
 11
2397.956966868806
 21
720.2632838052996
 31
0.0
  0
ARC
  5
59DF
330
58F9
100
AcDbEntity
  8
0
100
AcDbCircle
 10
2413.031370570529
 20
718.2632838052995
 30
0.0
 40
2.0
100
AcDbArc
 50
19.99999999998033
 51
90.0
1001
GENIUS_GENODEF_13
1002
{
1000
HIER
1070
     0
1002
}
1002
{
1000
MANEDIT
1070
     0
1002
}
1002
{
1000
NOSEL
1070
     0
1002
}
1002
{
1000
BEHIND
1070
     0
1002
}
1002
{
1000
OTHER
1070
     0
1002
}
1002
{
1000
REACTOR
1002
}
1001
GENIUS_GENOBJ-N-FIL_13
1002
{
1000
OWNER
1000
GEN
1002
}
  0
LINE
  5
59E0
330
58F9
100
AcDbEntity
  8
0
100
AcDbLine
 10
2417.667132899373
 20
712.913283805301
 30
0.0
 11
2419.956966868806
 21
712.913283805301
 31
0.0
  0
LINE
  5
59E1
330
58F9
100
AcDbEntity
  8
0
100
AcDbLine
 10
2416.915378802743
 20
713.4396676906399
 30
0.0
 11
2414.910755812102
 21
718.9473240919506
 31
0.0
  0
ARC
  5
59E2
330
58F9
100
AcDbEntity
  8
0
100
AcDbCircle
 10
2417.667132899373
 20
713.7132838053003
 30
0.0
 40
0.8
100
AcDbArc
 50
199.9999999999803
 51
270.0
1001
GENIUS_GENOBJ-N-FIL_13
1002
{
1000
OWNER
1000
GEN
1002
}
1001
GENIUS_GENODEF_13
1002
{
1000
HIER
1070
     0
1002
}
1002
{
1000
MANEDIT
1070
     0
1002
}
1002
{
1000
NOSEL
1070
     0
1002
}
1002
{
1000
BEHIND
1070
     0
1002
}
1002
{
1000
OTHER
1070
     0
1002
}
1002
{
1000
REACTOR
1002
}
  0
LINE
  5
59E3
330
58F9
100
AcDbEntity
  8
0
100
AcDbLine
 10
2413.031370570529
 20
796.5632838053006
 30
0.0
 11
2397.956966868804
 21
796.5632838053006
 31
0.0
  0
ARC
  5
59E4
330
58F9
100
AcDbEntity
  8
0
100
AcDbCircle
 10
2413.031370570529
 20
798.5632838053007
 30
0.0
 40
2.0
100
AcDbArc
 50
270.0
 51
340.0000000000197
1001
GENIUS_GENODEF_13
1002
{
1000
HIER
1070
     0
1002
}
1002
{
1000
MANEDIT
1070
     0
1002
}
1002
{
1000
NOSEL
1070
     0
1002
}
1002
{
1000
BEHIND
1070
     0
1002
}
1002
{
1000
OTHER
1070
     0
1002
}
1002
{
1000
REACTOR
1002
}
1001
GENIUS_GENOBJ-N-FIL_13
1002
{
1000
OWNER
1000
GEN
1002
}
  0
LINE
  5
59E5
330
58F9
100
AcDbEntity
  8
0
100
AcDbLine
 10
2417.667132899373
 20
803.913283805301
 30
0.0
 11
2419.956966868806
 21
803.913283805301
 31
0.0
  0
LINE
  5
59E6
330
58F9
100
AcDbEntity
  8
0
100
AcDbLine
 10
2416.915378802745
 20
803.3868999199603
 30
0.0
 11
2414.910755812102
 21
797.8792435186478
 31
0.0
  0
ARC
  5
59E7
330
58F9
100
AcDbEntity
  8
0
100
AcDbCircle
 10
2417.667132899373
 20
803.1132838052998
 30
0.0
 40
0.8
100
AcDbArc
 50
90.0
 51
160.0000000000196
1001
GENIUS_GENOBJ-N-FIL_13
1002
{
1000
OWNER
1000
GEN
1002
}
1001
GENIUS_GENODEF_13
1002
{
1000
HIER
1070
     0
1002
}
1002
{
1000
MANEDIT
1070
     0
1002
}
1002
{
1000
NOSEL
1070
     0
1002
}
1002
{
1000
BEHIND
1070
     0
1002
}
1002
{
1000
OTHER
1070
     0
1002
}
1002
{
1000
REACTOR
1002
}
  0
LINE
  5
59E8
330
58F9
100
AcDbEntity
  8
0
100
AcDbLine
 10
315.4821483069209
 20
796.3102854766166
 30
0.0
 11
315.4821483069154
 21
720.5162821341273
 31
0.0
  0
LINE
  5
59E9
330
58F9
100
AcDbEntity
  8
0
100
AcDbLine
 10
309.9569668687909
 20
803.9132838053719
 30
0.0
 11
309.9569668687855
 21
712.913283805372
 31
0.0
  0
LINE
  5
59EA
330
58F9
100
AcDbEntity
  8
0
100
AcDbLine
 10
312.8069668687913
 20
803.039598576157
 30
0.0
 11
312.8069668687858
 21
713.7869690345851
 31
0.0
  0
LINE
  5
59EB
330
58F9
100
AcDbEntity
  8
0
100
AcDbLine
 10
316.8825631670625
 20
720.2632838053723
 30
0.0
 11
331.9569668687855
 21
720.2632838053705
 31
0.0
  0
ARC
  5
59EC
330
58F9
100
AcDbEntity
  8
0
100
AcDbCircle
 10
316.8825631670625
 20
718.2632838053723
 30
0.0
 40
2.0
100
AcDbArc
 50
90.0
 51
159.9999999999707
1001
GENIUS_GENODEF_13
1002
{
1000
HIER
1070
     0
1002
}
1002
{
1000
MANEDIT
1070
     0
1002
}
1002
{
1000
NOSEL
1070
     0
1002
}
1002
{
1000
BEHIND
1070
     0
1002
}
1002
{
1000
OTHER
1070
     0
1002
}
1002
{
1000
REACTOR
1002
}
1001
GENIUS_GENOBJ-N-FIL_13
1002
{
1000
OWNER
1000
GEN
1002
}
  0
LINE
  5
59ED
330
58F9
100
AcDbEntity
  8
0
100
AcDbLine
 10
312.2468008382184
 20
712.913283805372
 30
0.0
 11
309.9569668687855
 21
712.913283805372
 31
0.0
  0
LINE
  5
59EE
330
58F9
100
AcDbEntity
  8
0
100
AcDbLine
 10
312.9985549348476
 20
713.4396676907108
 30
0.0
 11
315.0031779254896
 21
718.9473240920233
 31
0.0
  0
ARC
  5
59EF
330
58F9
100
AcDbEntity
  8
0
100
AcDbCircle
 10
312.2468008382184
 20
713.713283805373
 30
0.0
 40
0.8
100
AcDbArc
 50
270.0
 51
339.9999999999707
1001
GENIUS_GENOBJ-N-FIL_13
1002
{
1000
OWNER
1000
GEN
1002
}
1001
GENIUS_GENODEF_13
1002
{
1000
HIER
1070
     0
1002
}
1002
{
1000
MANEDIT
1070
     0
1002
}
1002
{
1000
NOSEL
1070
     0
1002
}
1002
{
1000
BEHIND
1070
     0
1002
}
1002
{
1000
OTHER
1070
     0
1002
}
1002
{
1000
REACTOR
1002
}
  0
LINE
  5
59F0
330
58F9
100
AcDbEntity
  8
0
100
AcDbLine
 10
316.8825631670679
 20
796.5632838053716
 30
0.0
 11
331.9569668687927
 21
796.5632838053716
 31
0.0
  0
ARC
  5
59F1
330
58F9
100
AcDbEntity
  8
0
100
AcDbCircle
 10
316.8825631670679
 20
798.5632838053716
 30
0.0
 40
2.0
100
AcDbArc
 50
200.0000000000293
 51
270.0
1001
GENIUS_GENODEF_13
1002
{
1000
HIER
1070
     0
1002
}
1002
{
1000
MANEDIT
1070
     0
1002
}
1002
{
1000
NOSEL
1070
     0
1002
}
1002
{
1000
BEHIND
1070
     0
1002
}
1002
{
1000
OTHER
1070
     0
1002
}
1002
{
1000
REACTOR
1002
}
1001
GENIUS_GENOBJ-N-FIL_13
1002
{
1000
OWNER
1000
GEN
1002
}
  0
LINE
  5
59F2
330
58F9
100
AcDbEntity
  8
0
100
AcDbLine
 10
312.2468008382238
 20
803.9132838053719
 30
0.0
 11
309.9569668687909
 21
803.9132838053719
 31
0.0
  0
LINE
  5
59F3
330
58F9
100
AcDbEntity
  8
0
100
AcDbLine
 10
312.9985549348512
 20
803.3868999200313
 30
0.0
 11
315.0031779254951
 21
797.8792435187206
 31
0.0
  0
ARC
  5
59F4
330
58F9
100
AcDbEntity
  8
0
100
AcDbCircle
 10
312.2468008382238
 20
803.1132838053727
 30
0.0
 40
0.8
100
AcDbArc
 50
20.0000000000293
 51
90.0
1001
GENIUS_GENOBJ-N-FIL_13
1002
{
1000
OWNER
1000
GEN
1002
}
1001
GENIUS_GENODEF_13
1002
{
1000
HIER
1070
     0
1002
}
1002
{
1000
MANEDIT
1070
     0
1002
}
1002
{
1000
NOSEL
1070
     0
1002
}
1002
{
1000
BEHIND
1070
     0
1002
}
1002
{
1000
OTHER
1070
     0
1002
}
1002
{
1000
REACTOR
1002
}
  0
CIRCLE
  5
59F5
330
58F9
100
AcDbEntity
  8
0
100
AcDbCircle
 10
-26.26644452189248
 20
80.83980388511008
 30
0.0
 40
7.0
  0
CIRCLE
  5
59F6
330
58F9
100
AcDbEntity
  8
0
100
AcDbCircle
 10
26.26644452185792
 20
80.83980388509917
 30
0.0
 40
7.0
  0
CIRCLE
  5
59F7
330
58F9
100
AcDbEntity
  8
0
100
AcDbCircle
 10
-68.76644452192341
 20
-49.96174644485108
 30
0.0
 40
7.0
  0
CIRCLE
  5
59F8
330
58F9
100
AcDbEntity
  8
0
100
AcDbCircle
 10
68.76644452183973
 20
-49.96174644487837
 30
0.0
 40
7.0
  0
CIRCLE
  5
59F9
330
58F9
100
AcDbEntity
  8
0
100
AcDbCircle
 10
68.7664445218561
 20
49.96174644485837
 30
0.0
 40
7.0
  0
CIRCLE
  5
59FA
330
58F9
100
AcDbEntity
  8
0
100
AcDbCircle
 10
-68.76644452190703
 20
49.96174644488383
 30
0.0
 40
7.0
  0
CIRCLE
  5
59FB
330
58F9
100
AcDbEntity
  8
0
100
AcDbCircle
 10
-26.26644452192341
 20
-80.83980388509189
 30
0.0
 40
7.0
  0
CIRCLE
  5
59FC
330
58F9
100
AcDbEntity
  8
0
100
AcDbCircle
 10
26.26644452182518
 20
-80.83980388510282
 30
0.0
 40
7.0
  0
CIRCLE
  5
59FD
330
58F9
100
AcDbEntity
  8
0
  6
CENTER
100
AcDbCircle
 10
0.0
 20
0.0
 30
0.0
 40
85.0
  0
CIRCLE
  5
59FE
330
58F9
100
AcDbEntity
  8
0
100
AcDbCircle
 10
84.99999999998181
 20
-0.0000000000127329
 30
0.0
 40
7.0
  0
CIRCLE
  5
59FF
330
58F9
100
AcDbEntity
  8
0
100
AcDbCircle
 10
-85.0000000000473
 20
0.0000000000209184
 30
0.0
 40
7.0
  0
CIRCLE
  5
5A00
330
58F9
100
AcDbEntity
  8
0
100
AcDbCircle
 10
0.0
 20
0.0
 30
0.0
 40
97.50000000000092
  0
CIRCLE
  5
5A01
330
58F9
100
AcDbEntity
  8
0
100
AcDbCircle
 10
2244.956966868798
 20
758.413283805301
 30
0.0
 40
77.5
  0
CIRCLE
  5
5A02
330
58F9
100
AcDbEntity
  8
0
100
AcDbCircle
 10
2202.530559997605
 20
715.9868769341082
 30
0.0
 40
9.5
  0
CIRCLE
  5
5A03
330
58F9
100
AcDbEntity
  8
0
100
AcDbCircle
 10
2202.530559997605
 20
800.8396906764938
 30
0.0
 40
9.5
  0
CIRCLE
  5
5A04
330
58F9
100
AcDbEntity
  8
0
  6
CENTER
100
AcDbCircle
 10
2244.956966868798
 20
758.413283805301
 30
0.0
 40
60.0
  0
CIRCLE
  5
5A05
330
58F9
100
AcDbEntity
  8
0
100
AcDbCircle
 10
2287.383373739991
 20
800.8396906764938
 30
0.0
 40
9.5
  0
CIRCLE
  5
5A06
330
58F9
100
AcDbEntity
  8
0
100
AcDbCircle
 10
2287.383373739991
 20
715.9868769341082
 30
0.0
 40
9.5
  0
CIRCLE
  5
5A07
330
58F9
100
AcDbEntity
  8
0
100
AcDbCircle
 10
2244.956966868798
 20
758.4132838053046
 30
0.0
 40
38.15000000000146
  0
CIRCLE
  5
5A08
330
58F9
100
AcDbEntity
  8
0
100
AcDbCircle
 10
-0.000000000001819
 20
-22.55000000000018
 30
0.0
 40
45.49999999999999
  0
CIRCLE
  5
5A09
330
58F9
100
AcDbEntity
  8
0
100
AcDbCircle
 10
-0.000000000001819
 20
-22.55000000000018
 30
0.0
 40
38.1500000000001
  0
ENDBLK
  5
5A0D
330
58F9
100
AcDbEntity
  8
0
100
AcDbBlockEnd
  0
ENDSEC
  0
SECTION
  2
ENTITIES
  0
ARC
  5
3AAF
330
1F
100
AcDbEntity
  8
0
100
AcDbCircle
 10
334.9569668688037
 20
-69.70000000008076
 30
0.0
 40
5.0
100
AcDbArc
 50
0.0
 51
90.0
  0
ARC
  5
3AB0
330
1F
100
AcDbEntity
  8
0
100
AcDbCircle
 10
383.4569668688055
 20
-70.40000000008058
 30
0.0
 40
0.5
100
AcDbArc
 50
90.0
 51
180.0
  0
ARC
  5
3AB1
330
1F
100
AcDbEntity
  8
0
100
AcDbCircle
 10
334.9569668688037
 20
69.69999999991978
 30
0.0
 40
5.0
100
AcDbArc
 50
270.0
 51
0.0
  0
LINE
  5
3AB2
330
1F
100
AcDbEntity
  8
0
  6
CENTER
100
AcDbLine
 10
-22.86725758376997
 20
70.37818220586268
 30
0.0
 11
-29.66563146001863
 21
91.30142556435748
 31
0.0
  0
LINE
  5
3AB3
330
1F
100
AcDbEntity
  8
0
  6
CENTER
100
AcDbLine
 10
22.86725758372995
 20
70.37818220585359
 30
0.0
 11
29.66563145998043
 21
91.30142556434657
 31
0.0
  0
LINE
  5
3AB4
330
1F
100
AcDbEntity
  8
0
100
AcDbLine
 10
-59.86725758379908
 20
-43.49610866963394
 30
0.0
 11
-77.66563146005137
 21
-56.42738422006641
 31
0.0
  0
LINE
  5
3AB5
330
1F
100
AcDbEntity
  8
0
  6
CENTER
100
AcDbLine
 10
59.8672575837154
 20
-43.49610866965941
 30
0.0
 11
77.66563145996224
 21
-56.42738422009642
 31
0.0
  0
LINE
  5
3AB6
330
1F
100
AcDbEntity
  8
0
  6
CENTER
100
AcDbLine
 10
59.86725758373177
 20
43.49610866964304
 30
0.0
 11
77.66563145998225
 21
56.4273842200746
 31
0.0
  0
LINE
  5
3AB7
330
1F
100
AcDbEntity
  8
0
  6
CENTER
100
AcDbLine
 10
-59.8672575837827
 20
43.49610866966759
 30
0.0
 11
-77.66563146002955
 21
56.42738422010461
 31
0.0
  0
LINE
  5
3AB8
330
1F
100
AcDbEntity
  8
0
  6
CENTER
100
AcDbLine
 10
-22.86725758379725
 20
-70.37818220584632
 30
0.0
 11
-29.66563146004956
 21
-91.30142556433929
 31
0.0
  0
LINE
  5
3AB9
330
1F
100
AcDbEntity
  8
0
  6
CENTER
100
AcDbLine
 10
22.86725758370267
 20
-70.37818220585541
 30
0.0
 11
29.66563145994951
 21
-91.30142556434931
 31
0.0
  0
LINE
  5
3ABA
330
1F
100
AcDbEntity
  8
0
100
AcDbLine
 10
1332.686119514328
 20
-80.00000000009185
 30
0.0
 11
1397.227814223263
 21
-80.00000000007185
 31
0.0
  0
LINE
  5
3ABB
330
1F
100
AcDbEntity
  8
0
100
AcDbLine
 10
1344.706966868794
 20
-80.00000000008913
 30
0.0
 11
1344.706966868792
 21
79.99999999990541
 31
0.0
  0
LINE
  5
3ABC
330
1F
100
AcDbEntity
  8
0
100
AcDbLine
 10
1340.206966868794
 20
-80.00000000009004
 30
0.0
 11
1340.206966868794
 21
79.99999999990632
 31
0.0
  0
LINE
  5
3ABD
330
1F
100
AcDbEntity
  8
0
100
AcDbLine
 10
1349.206966868794
 20
-80.0000000000864
 30
0.0
 11
1349.206966868792
 21
79.99999999990359
 31
0.0
  0
LINE
  5
3ABE
330
1F
100
AcDbEntity
  8
0
100
AcDbLine
 10
1335.706966868794
 20
-80.00000000009094
 30
0.0
 11
1335.706966868794
 21
79.99999999990814
 31
0.0
  0
LINE
  5
3ABF
330
1F
100
AcDbEntity
  8
0
100
AcDbLine
 10
1358.206966868795
 20
-80.00000000008459
 30
0.0
 11
1358.206966868795
 21
79.99999999990177
 31
0.0
  0
LINE
  5
3AC0
330
1F
100
AcDbEntity
  8
0
100
AcDbLine
 10
1353.706966868793
 20
-80.00000000008549
 30
0.0
 11
1353.706966868794
 21
79.99999999990269
 31
0.0
  0
LINE
  5
3AC1
330
1F
100
AcDbEntity
  8
0
100
AcDbLine
 10
1328.956966868794
 20
-73.54091814885123
 30
0.0
 11
1328.956966868794
 21
73.54091814866842
 31
0.0
  0
LINE
  5
3AC2
330
1F
100
AcDbEntity
  8
0
100
AcDbLine
 10
1385.206966868796
 20
-80.0000000000764
 30
0.0
 11
1385.206966868793
 21
79.99999999989268
 31
0.0
  0
LINE
  5
3AC3
330
1F
100
AcDbEntity
  8
0
100
AcDbLine
 10
1389.706966868794
 20
-80.00000000007549
 30
0.0
 11
1389.706966868794
 21
79.99999999989086
 31
0.0
  0
LINE
  5
3AC4
330
1F
100
AcDbEntity
  8
0
100
AcDbLine
 10
1367.206966868794
 20
-80.00000000008276
 30
0.0
 11
1367.206966868792
 21
79.99999999989814
 31
0.0
  0
LINE
  5
3AC5
330
1F
100
AcDbEntity
  8
0
100
AcDbLine
 10
1362.706966868794
 20
-80.00000000008368
 30
0.0
 11
1362.706966868793
 21
79.99999999989995
 31
0.0
  0
LINE
  5
3AC6
330
1F
100
AcDbEntity
  8
0
100
AcDbLine
 10
1371.706966868796
 20
-80.00000000008004
 30
0.0
 11
1371.706966868794
 21
79.99999999989722
 31
0.0
  0
LINE
  5
3AC7
330
1F
100
AcDbEntity
  8
0
100
AcDbLine
 10
1376.206966868794
 20
-80.00000000007913
 30
0.0
 11
1376.206966868794
 21
79.9999999998954
 31
0.0
  0
LINE
  5
3AC8
330
1F
100
AcDbEntity
  8
0
100
AcDbLine
 10
1380.706966868795
 20
-80.0000000000773
 30
0.0
 11
1380.706966868793
 21
79.9999999998945
 31
0.0
  0
LINE
  5
3AC9
330
1F
100
AcDbEntity
  8
0
100
AcDbLine
 10
1394.206966868794
 20
-80.00000000009094
 30
0.0
 11
1394.206966868794
 21
79.99999999990814
 31
0.0
  0
LINE
  5
3ACA
330
1F
100
AcDbEntity
  8
0
100
AcDbLine
 10
1332.686119514328
 20
79.99999999990814
 30
0.0
 11
1397.227814223272
 21
79.99999999988904
 31
0.0
  0
LINE
  5
3ACB
330
1F
100
AcDbEntity
  8
0
100
AcDbLine
 10
1328.956966868794
 20
73.54091814866842
 30
0.0
 11
1332.686119514328
 21
79.99999999990814
 31
0.0
  0
LINE
  5
3ACC
330
1F
100
AcDbEntity
  8
0
100
AcDbLine
 10
1400.956966868791
 20
73.54091814866842
 30
0.0
 11
1397.227814223272
 21
79.99999999988904
 31
0.0
  0
LINE
  5
3ACD
330
1F
100
AcDbEntity
  8
0
100
AcDbLine
 10
1400.956966868791
 20
69.89999999990868
 30
0.0
 11
1400.956966868791
 21
73.54091814866842
 31
0.0
  0
LINE
  5
3ACE
330
1F
100
AcDbEntity
  8
0
100
AcDbLine
 10
1400.956966868791
 20
69.84999999959018
 30
0.0
 11
1400.956966868791
 21
-73.54091814884032
 31
0.0
  0
ARC
  5
3ACF
330
1F
100
AcDbEntity
  8
0
100
AcDbCircle
 10
383.4569668688091
 20
70.39999999992051
 30
0.0
 40
0.5
100
AcDbArc
 50
180.0
 51
270.0
  0
LINE
  5
3AD8
330
1F
100
AcDbEntity
  8
0
100
AcDbLine
 10
1328.956966868793
 20
-73.54091814884123
 30
0.0
 11
1332.686119514326
 21
-80.00000000008094
 31
0.0
  0
LINE
  5
3AD9
330
1F
100
AcDbEntity
  8
0
100
AcDbLine
 10
1400.956966868789
 20
-73.54091814884032
 30
0.0
 11
1397.227814223263
 21
-80.00000000007185
 31
0.0
  0
LINE
  5
3ADA
330
1F
100
AcDbEntity
  8
0
100
AcDbLine
 10
1397.227814223263
 20
-80.00000000007185
 30
0.0
 11
1397.227814223263
 21
79.9999999999045
 31
0.0
  0
LINE
  5
3ADB
330
1F
100
AcDbEntity
  8
0
100
AcDbLine
 10
1332.686119514328
 20
79.99999999990814
 30
0.0
 11
1332.686119514332
 21
-80.00000000009185
 31
0.0
  0
LINE
  5
3ADC
330
1F
100
AcDbEntity
  8
0
  6
CENTER
100
AcDbLine
 10
319.9569668688036
 20
-0.000000000080945
 30
0.0
 11
2409.956966868796
 21
-0.000000000091859
 31
0.0
  0
LINE
  5
3ADD
330
1F
100
AcDbEntity
  8
0
100
AcDbLine
 10
339.9569668688091
 20
-97.50000000008185
 30
0.0
 11
339.9569668687691
 21
97.49999999991997
 31
0.0
  0
LINE
  5
3ADE
330
1F
100
AcDbEntity
  8
0
100
AcDbLine
 10
331.9569668688036
 20
-64.70000000008076
 30
0.0
 11
331.9569668687746
 21
64.69999999991888
 31
0.0
  0
LINE
  5
3ADF
330
1F
100
AcDbEntity
  8
0
100
AcDbLine
 10
357.9569668687964
 20
-97.50000000008094
 30
0.0
 11
357.9569668688691
 21
97.49999999991997
 31
0.0
  0
LINE
  5
3AE0
330
1F
100
AcDbEntity
  8
0
100
AcDbLine
 10
335.9569668688036
 20
-85.00000000008004
 30
0.0
 11
386.9569668688055
 21
-85.00000000008004
 31
0.0
  0
LINE
  5
3AE1
330
1F
100
AcDbEntity
  8
0
100
AcDbLine
 10
339.9569668688055
 20
-97.50000000008094
 30
0.0
 11
357.9569668688037
 21
-97.50000000008004
 31
0.0
  0
LINE
  5
3AE2
330
1F
100
AcDbEntity
  8
0
100
AcDbLine
 10
357.9569668688055
 20
-75.50000000008004
 30
0.0
 11
360.9569668688073
 21
-75.50000000008004
 31
0.0
  0
LINE
  5
3AE3
330
1F
100
AcDbEntity
  8
0
100
AcDbLine
 10
331.9569668688036
 20
-64.70000000008076
 30
0.0
 11
334.9569668688037
 21
-64.70000000008076
 31
0.0
  0
LINE
  5
3AE4
330
1F
100
AcDbEntity
  8
0
100
AcDbLine
 10
382.9569668688091
 20
-97.50000000008004
 30
0.0
 11
382.9569668687854
 21
97.49999999991997
 31
0.0
  0
LINE
  5
3AE5
330
1F
100
AcDbEntity
  8
0
100
AcDbLine
 10
360.9569668688073
 20
-97.50000000008004
 30
0.0
 11
360.9569668688073
 21
97.49999999991997
 31
0.0
  0
LINE
  5
3AE6
330
1F
100
AcDbEntity
  8
0
100
AcDbLine
 10
360.9569668688073
 20
-97.50000000008004
 30
0.0
 11
382.9569668688073
 21
-97.50000000008004
 31
0.0
  0
LINE
  5
3AE7
330
1F
100
AcDbEntity
  8
0
100
AcDbLine
 10
335.9569668688036
 20
84.99999999991997
 30
0.0
 11
386.9569668688055
 21
84.99999999991905
 31
0.0
  0
LINE
  5
3AE8
330
1F
100
AcDbEntity
  8
0
100
AcDbLine
 10
339.9569668688037
 20
97.49999999991997
 30
0.0
 11
357.9569668688037
 21
97.49999999991997
 31
0.0
  0
LINE
  5
3AE9
330
1F
100
AcDbEntity
  8
0
100
AcDbLine
 10
331.9569668687746
 20
64.69999999991888
 30
0.0
 11
334.9569668688037
 21
64.69999999991978
 31
0.0
  0
LINE
  5
3AEA
330
1F
100
AcDbEntity
  8
0
100
AcDbLine
 10
360.9569668688073
 20
97.49999999991997
 30
0.0
 11
382.9569668688073
 21
97.49999999991997
 31
0.0
  0
LINE
  5
3AEB
330
1F
100
AcDbEntity
  8
0
100
AcDbLine
 10
1328.956966868809
 20
69.89999999991778
 30
0.0
 11
383.4569668688091
 21
69.89999999992051
 31
0.0
  0
LINE
  5
3AEC
330
1F
100
AcDbEntity
  8
0
100
AcDbLine
 10
382.9569668688073
 20
-69.90000000009058
 30
0.0
 11
474.7069668687649
 21
-69.9000000000958
 31
0.0
  0
LINE
  5
3AED
330
1F
100
AcDbEntity
  8
0
100
AcDbLine
 10
357.9569668687873
 20
75.4999999999227
 30
0.0
 11
360.9569668688073
 21
75.4999999999236
 31
0.0
  0
ARC
  5
3AEE
330
1F
100
AcDbEntity
  8
0
100
AcDbCircle
 10
2394.956966868797
 20
69.69999999990796
 30
0.0
 40
5.0
100
AcDbArc
 50
180.0
 51
270.0
  0
ARC
  5
3AEF
330
1F
100
AcDbEntity
  8
0
100
AcDbCircle
 10
2346.456966868795
 20
70.39999999990778
 30
0.0
 40
0.5
100
AcDbArc
 50
270.0
 51
0.0
  0
ARC
  5
3AF0
330
1F
100
AcDbEntity
  8
0
100
AcDbCircle
 10
2394.956966868797
 20
-69.70000000009259
 30
0.0
 40
5.0
100
AcDbArc
 50
90.0
 51
180.0
  0
ARC
  5
3AF1
330
1F
100
AcDbEntity
  8
0
100
AcDbCircle
 10
2346.456966868791
 20
-70.40000000009332
 30
0.0
 40
0.5
100
AcDbArc
 50
0.0
 51
90.0
  0
LINE
  5
3AF2
330
1F
100
AcDbEntity
  8
0
100
AcDbLine
 10
2389.956966868791
 20
97.49999999990905
 30
0.0
 11
2389.956966868831
 21
-97.50000000009277
 31
0.0
  0
LINE
  5
3AF3
330
1F
100
AcDbEntity
  8
0
100
AcDbLine
 10
2397.956966868797
 20
64.69999999990796
 30
0.0
 11
2397.956966868826
 21
-64.70000000009168
 31
0.0
  0
LINE
  5
3AF4
330
1F
100
AcDbEntity
  8
0
100
AcDbLine
 10
2371.956966868804
 20
97.49999999990814
 30
0.0
 11
2371.956966868731
 21
-97.50000000009277
 31
0.0
  0
LINE
  5
3AF5
330
1F
100
AcDbEntity
  8
0
  6
CENTER
100
AcDbLine
 10
2393.956966868797
 20
84.99999999990723
 30
0.0
 11
2342.956966868795
 21
84.99999999990723
 31
0.0
  0
LINE
  5
3AF6
330
1F
100
AcDbEntity
  8
0
100
AcDbLine
 10
2389.956966868794
 20
97.49999999990814
 30
0.0
 11
2371.956966868796
 21
97.49999999990723
 31
0.0
  0
LINE
  5
3AF7
330
1F
100
AcDbEntity
  8
0
100
AcDbLine
 10
2371.956966868795
 20
75.49999999990723
 30
0.0
 11
2368.956966868793
 21
75.49999999990723
 31
0.0
  0
LINE
  5
3AF8
330
1F
100
AcDbEntity
  8
0
100
AcDbLine
 10
2397.956966868797
 20
64.69999999990796
 30
0.0
 11
2394.956966868797
 21
64.69999999990796
 31
0.0
  0
LINE
  5
3AF9
330
1F
100
AcDbEntity
  8
0
100
AcDbLine
 10
2346.956966868791
 20
97.49999999990723
 30
0.0
 11
2346.956966868814
 21
-97.50000000009277
 31
0.0
  0
LINE
  5
3AFA
330
1F
100
AcDbEntity
  8
0
100
AcDbLine
 10
2368.956966868793
 20
97.49999999990723
 30
0.0
 11
2368.956966868793
 21
-97.50000000009277
 31
0.0
  0
LINE
  5
3AFB
330
1F
100
AcDbEntity
  8
0
100
AcDbLine
 10
2368.956966868793
 20
97.49999999990723
 30
0.0
 11
2346.956966868793
 21
97.49999999990723
 31
0.0
  0
LINE
  5
3AFC
330
1F
100
AcDbEntity
  8
0
  6
CENTER
100
AcDbLine
 10
2393.956966868797
 20
-85.00000000009277
 30
0.0
 11
2342.956966868795
 21
-85.00000000009185
 31
0.0
  0
LINE
  5
3AFD
330
1F
100
AcDbEntity
  8
0
100
AcDbLine
 10
2389.956966868796
 20
-97.50000000009277
 30
0.0
 11
2371.956966868796
 21
-97.50000000009277
 31
0.0
  0
LINE
  5
3AFE
330
1F
100
AcDbEntity
  8
0
100
AcDbLine
 10
2397.956966868826
 20
-64.70000000009168
 30
0.0
 11
2394.956966868797
 21
-64.70000000009259
 31
0.0
  0
LINE
  5
3AFF
330
1F
100
AcDbEntity
  8
0
100
AcDbLine
 10
2368.956966868793
 20
-97.50000000009277
 30
0.0
 11
2346.956966868793
 21
-97.50000000009277
 31
0.0
  0
LINE
  5
3B00
330
1F
100
AcDbEntity
  8
0
100
AcDbLine
 10
1400.956966868791
 20
-69.9000000000915
 30
0.0
 11
2346.456966868791
 21
-69.90000000009331
 31
0.0
  0
LINE
  5
3B01
330
1F
100
AcDbEntity
  8
0
100
AcDbLine
 10
2346.956966868793
 20
69.89999999991778
 30
0.0
 11
2255.206966868755
 21
69.89999999992299
 31
0.0
  0
LINE
  5
3B02
330
1F
100
AcDbEntity
  8
0
100
AcDbLine
 10
2194.70696686876
 20
69.89999999989752
 30
0.0
 11
1400.956966868791
 21
69.89999999990778
 31
0.0
  0
LINE
  5
3B03
330
1F
100
AcDbEntity
  8
0
100
AcDbLine
 10
2371.956966868813
 20
-75.5000000000955
 30
0.0
 11
2368.956966868793
 21
-75.5000000000964
 31
0.0
  0
LINE
  5
3B04
330
1F
100
AcDbEntity
  8
0
  6
CENTER
100
AcDbLine
 10
112.6236656294986
 20
-0.000000000007276
 30
0.0
 11
-112.6236656295004
 21
0.0000000000081855
 31
0.0
  0
LINE
  5
3B07
330
1F
100
AcDbEntity
  8
0
  6
CENTER
100
AcDbLine
 10
0.0000000000090949
 20
158.0000000000054
 30
0.0
 11
-0.0000000000109139
 21
-158.0000000000054
 31
0.0
  0
ARC
  5
3B0B
330
1F
100
AcDbEntity
  8
0
100
AcDbCircle
 10
0.0
 20
0.0
 30
0.0
 40
64.69999999999981
100
AcDbArc
 50
295.9242690104785
 51
244.0757309895216
  0
ARC
  5
3B0D
330
1F
100
AcDbEntity
  8
0
100
AcDbCircle
 10
334.9569668688037
 20
688.7132838053112
 30
0.0
 40
5.0
100
AcDbArc
 50
0.0
 51
90.0
  0
ARC
  5
3B0E
330
1F
100
AcDbEntity
  8
0
100
AcDbCircle
 10
383.4569668688055
 20
688.0132838053104
 30
0.0
 40
0.5
100
AcDbArc
 50
90.0
 51
180.0
  0
ARC
  5
3B0F
330
1F
100
AcDbEntity
  8
0
100
AcDbCircle
 10
334.9569668688037
 20
828.1132838053126
 30
0.0
 40
5.0
100
AcDbArc
 50
270.0
 51
0.0
  0
LINE
  5
3B10
330
1F
100
AcDbEntity
  8
0
100
AcDbLine
 10
1332.686119514328
 20
678.413283805301
 30
0.0
 11
1397.227814223263
 21
678.4132838053192
 31
0.0
  0
LINE
  5
3B11
330
1F
100
AcDbEntity
  8
0
100
AcDbLine
 10
1344.706966868794
 20
678.4132838053028
 30
0.0
 11
1344.706966868792
 21
838.4132838052973
 31
0.0
  0
LINE
  5
3B12
330
1F
100
AcDbEntity
  8
0
100
AcDbLine
 10
1340.206966868794
 20
678.413283805301
 30
0.0
 11
1340.206966868794
 21
838.4132838052973
 31
0.0
  0
LINE
  5
3B13
330
1F
100
AcDbEntity
  8
0
100
AcDbLine
 10
1349.206966868794
 20
678.4132838053047
 30
0.0
 11
1349.206966868792
 21
838.4132838052956
 31
0.0
  0
LINE
  5
3B14
330
1F
100
AcDbEntity
  8
0
100
AcDbLine
 10
1335.706966868794
 20
678.413283805301
 30
0.0
 11
1335.706966868794
 21
838.4132838053011
 31
0.0
  0
LINE
  5
3B15
330
1F
100
AcDbEntity
  8
0
100
AcDbLine
 10
1358.206966868795
 20
678.4132838053083
 30
0.0
 11
1358.206966868795
 21
838.4132838052938
 31
0.0
  0
LINE
  5
3B16
330
1F
100
AcDbEntity
  8
0
100
AcDbLine
 10
1353.706966868793
 20
678.4132838053064
 30
0.0
 11
1353.706966868794
 21
838.4132838052938
 31
0.0
  0
LINE
  5
3B17
330
1F
100
AcDbEntity
  8
0
100
AcDbLine
 10
1328.956966868794
 20
684.8723656565416
 30
0.0
 11
1328.956966868794
 21
831.9542019540604
 31
0.0
  0
LINE
  5
3B18
330
1F
100
AcDbEntity
  8
0
100
AcDbLine
 10
1385.206966868796
 20
678.4132838053156
 30
0.0
 11
1385.206966868793
 21
838.4132838052845
 31
0.0
  0
LINE
  5
3B19
330
1F
100
AcDbEntity
  8
0
100
AcDbLine
 10
1389.706966868794
 20
678.4132838053156
 30
0.0
 11
1389.706966868794
 21
838.4132838052828
 31
0.0
  0
LINE
  5
3B1A
330
1F
100
AcDbEntity
  8
0
100
AcDbLine
 10
1367.206966868794
 20
678.4132838053083
 30
0.0
 11
1367.206966868792
 21
838.41328380529
 31
0.0
  0
LINE
  5
3B1B
330
1F
100
AcDbEntity
  8
0
100
AcDbLine
 10
1362.706966868794
 20
678.4132838053083
 30
0.0
 11
1362.706966868793
 21
838.4132838052918
 31
0.0
  0
LINE
  5
3B1C
330
1F
100
AcDbEntity
  8
0
100
AcDbLine
 10
1371.706966868796
 20
678.4132838053119
 30
0.0
 11
1371.706966868794
 21
838.41328380529
 31
0.0
  0
LINE
  5
3B1D
330
1F
100
AcDbEntity
  8
0
100
AcDbLine
 10
1376.206966868794
 20
678.4132838053119
 30
0.0
 11
1376.206966868794
 21
838.4132838052865
 31
0.0
  0
LINE
  5
3B1E
330
1F
100
AcDbEntity
  8
0
100
AcDbLine
 10
1380.706966868795
 20
678.4132838053156
 30
0.0
 11
1380.706966868793
 21
838.4132838052865
 31
0.0
  0
LINE
  5
3B1F
330
1F
100
AcDbEntity
  8
0
100
AcDbLine
 10
1394.206966868794
 20
678.413283805301
 30
0.0
 11
1394.206966868794
 21
838.4132838053011
 31
0.0
  0
LINE
  5
3B20
330
1F
100
AcDbEntity
  8
0
100
AcDbLine
 10
1332.686119514328
 20
838.4132838053011
 30
0.0
 11
1397.227814223272
 21
838.413283805281
 31
0.0
  0
LINE
  5
3B21
330
1F
100
AcDbEntity
  8
0
100
AcDbLine
 10
1328.956966868794
 20
831.9542019540604
 30
0.0
 11
1332.686119514328
 21
838.4132838053011
 31
0.0
  0
LINE
  5
3B22
330
1F
100
AcDbEntity
  8
0
100
AcDbLine
 10
1400.956966868791
 20
831.9542019540604
 30
0.0
 11
1397.227814223272
 21
838.413283805281
 31
0.0
  0
LINE
  5
3B23
330
1F
100
AcDbEntity
  8
0
100
AcDbLine
 10
1400.956966868791
 20
828.3132838053006
 30
0.0
 11
1400.956966868791
 21
831.9542019540604
 31
0.0
  0
LINE
  5
3B24
330
1F
100
AcDbEntity
  8
0
100
AcDbLine
 10
1400.956966868791
 20
828.2632838049831
 30
0.0
 11
1400.956966868791
 21
684.8723656565526
 31
0.0
  0
ARC
  5
3B25
330
1F
100
AcDbEntity
  8
0
100
AcDbCircle
 10
383.4569668688091
 20
828.8132838053133
 30
0.0
 40
0.5
100
AcDbArc
 50
180.0
 51
270.0
  0
LINE
  5
3B26
330
1F
100
AcDbEntity
  8
0
100
AcDbLine
 10
1328.956966868793
 20
684.8723656565507
 30
0.0
 11
1332.686119514326
 21
678.4132838053119
 31
0.0
  0
LINE
  5
3B27
330
1F
100
AcDbEntity
  8
0
100
AcDbLine
 10
1400.956966868789
 20
684.8723656565526
 30
0.0
 11
1397.227814223263
 21
678.4132838053192
 31
0.0
  0
LINE
  5
3B28
330
1F
100
AcDbEntity
  8
0
100
AcDbLine
 10
1397.227814223263
 20
678.4132838053192
 30
0.0
 11
1397.227814223263
 21
838.4132838052973
 31
0.0
  0
LINE
  5
3B29
330
1F
100
AcDbEntity
  8
0
100
AcDbLine
 10
1332.686119514328
 20
838.4132838053011
 30
0.0
 11
1332.686119514332
 21
678.413283805301
 31
0.0
  0
LINE
  5
3B2B
330
1F
100
AcDbEntity
  8
0
100
AcDbLine
 10
339.9569668688091
 20
660.9132838053101
 30
0.0
 11
339.9569668687691
 21
855.913283805312
 31
0.0
  0
LINE
  5
3B2C
330
1F
100
AcDbEntity
  8
0
100
AcDbLine
 10
331.9569668688036
 20
693.7132838053112
 30
0.0
 11
331.9569668687746
 21
823.1132838053108
 31
0.0
  0
LINE
  5
3B2D
330
1F
100
AcDbEntity
  8
0
100
AcDbLine
 10
357.9569668687964
 20
660.913283805312
 30
0.0
 11
357.9569668688691
 21
855.913283805312
 31
0.0
  0
LINE
  5
3B2E
330
1F
100
AcDbEntity
  8
0
100
AcDbLine
 10
335.9569668688036
 20
673.413283805312
 30
0.0
 11
386.9569668688055
 21
673.413283805312
 31
0.0
  0
LINE
  5
3B2F
330
1F
100
AcDbEntity
  8
0
100
AcDbLine
 10
339.9569668688055
 20
660.913283805312
 30
0.0
 11
357.9569668688037
 21
660.913283805312
 31
0.0
  0
LINE
  5
3B30
330
1F
100
AcDbEntity
  8
0
100
AcDbLine
 10
357.9569668688055
 20
682.9132838053119
 30
0.0
 11
360.9569668688073
 21
682.9132838053119
 31
0.0
  0
LINE
  5
3B31
330
1F
100
AcDbEntity
  8
0
100
AcDbLine
 10
331.9569668688036
 20
693.7132838053112
 30
0.0
 11
334.9569668688037
 21
693.7132838053112
 31
0.0
  0
LINE
  5
3B32
330
1F
100
AcDbEntity
  8
0
100
AcDbLine
 10
382.9569668688091
 20
660.913283805312
 30
0.0
 11
382.9569668687854
 21
855.913283805312
 31
0.0
  0
LINE
  5
3B33
330
1F
100
AcDbEntity
  8
0
100
AcDbLine
 10
360.9569668688073
 20
660.913283805312
 30
0.0
 11
360.9569668688073
 21
855.913283805312
 31
0.0
  0
LINE
  5
3B34
330
1F
100
AcDbEntity
  8
0
100
AcDbLine
 10
360.9569668688073
 20
660.913283805312
 30
0.0
 11
382.9569668688073
 21
660.913283805312
 31
0.0
  0
LINE
  5
3B35
330
1F
100
AcDbEntity
  8
0
100
AcDbLine
 10
335.9569668688036
 20
843.413283805312
 30
0.0
 11
386.9569668688055
 21
843.413283805312
 31
0.0
  0
LINE
  5
3B36
330
1F
100
AcDbEntity
  8
0
100
AcDbLine
 10
339.9569668688037
 20
855.913283805312
 30
0.0
 11
357.9569668688037
 21
855.913283805312
 31
0.0
  0
LINE
  5
3B37
330
1F
100
AcDbEntity
  8
0
100
AcDbLine
 10
331.9569668687746
 20
823.1132838053108
 30
0.0
 11
334.9569668688037
 21
823.1132838053126
 31
0.0
  0
LINE
  5
3B38
330
1F
100
AcDbEntity
  8
0
100
AcDbLine
 10
360.9569668688073
 20
855.913283805312
 30
0.0
 11
382.9569668688073
 21
855.913283805312
 31
0.0
  0
LINE
  5
3B39
330
1F
100
AcDbEntity
  8
0
100
AcDbLine
 10
1328.956966868809
 20
828.3132838053097
 30
0.0
 11
383.4569668688091
 21
828.3132838053134
 31
0.0
  0
LINE
  5
3B3A
330
1F
100
AcDbEntity
  8
0
100
AcDbLine
 10
382.9569668688073
 20
688.5132838053014
 30
0.0
 11
1328.956966868809
 21
688.5132838053104
 31
0.0
  0
LINE
  5
3B3B
330
1F
100
AcDbEntity
  8
0
100
AcDbLine
 10
357.9569668687873
 20
833.9132838053156
 30
0.0
 11
360.9569668688073
 21
833.9132838053156
 31
0.0
  0
ARC
  5
3B3C
330
1F
100
AcDbEntity
  8
0
100
AcDbCircle
 10
2394.956966868797
 20
828.1132838052998
 30
0.0
 40
5.0
100
AcDbArc
 50
180.0
 51
270.0
  0
ARC
  5
3B3D
330
1F
100
AcDbEntity
  8
0
100
AcDbCircle
 10
2346.456966868795
 20
828.8132838052987
 30
0.0
 40
0.5
100
AcDbArc
 50
270.0
 51
0.0
  0
ARC
  5
3B3E
330
1F
100
AcDbEntity
  8
0
100
AcDbCircle
 10
2394.956966868797
 20
688.7132838053003
 30
0.0
 40
5.0
100
AcDbArc
 50
90.0
 51
180.0
  0
ARC
  5
3B3F
330
1F
100
AcDbEntity
  8
0
100
AcDbCircle
 10
2346.456966868791
 20
688.0132838052995
 30
0.0
 40
0.5
100
AcDbArc
 50
0.0
 51
90.0
  0
LINE
  5
3B40
330
1F
100
AcDbEntity
  8
0
100
AcDbLine
 10
2389.956966868791
 20
855.913283805301
 30
0.0
 11
2389.956966868831
 21
660.9132838052992
 31
0.0
  0
LINE
  5
3B41
330
1F
100
AcDbEntity
  8
0
100
AcDbLine
 10
2397.956966868797
 20
823.1132838053
 30
0.0
 11
2397.956966868826
 21
693.7132838053003
 31
0.0
  0
LINE
  5
3B42
330
1F
100
AcDbEntity
  8
0
100
AcDbLine
 10
2371.956966868804
 20
855.913283805301
 30
0.0
 11
2371.956966868731
 21
660.9132838052992
 31
0.0
  0
LINE
  5
3B43
330
1F
100
AcDbEntity
  8
0
  6
CENTER
100
AcDbLine
 10
2393.956966868797
 20
843.4132838052992
 30
0.0
 11
2342.956966868795
 21
843.4132838052992
 31
0.0
  0
LINE
  5
3B44
330
1F
100
AcDbEntity
  8
0
100
AcDbLine
 10
2389.956966868794
 20
855.913283805301
 30
0.0
 11
2371.956966868796
 21
855.9132838052992
 31
0.0
  0
LINE
  5
3B45
330
1F
100
AcDbEntity
  8
0
100
AcDbLine
 10
2371.956966868795
 20
833.9132838052991
 30
0.0
 11
2368.956966868793
 21
833.9132838052991
 31
0.0
  0
LINE
  5
3B46
330
1F
100
AcDbEntity
  8
0
100
AcDbLine
 10
2397.956966868797
 20
823.1132838053
 30
0.0
 11
2394.956966868797
 21
823.1132838053
 31
0.0
  0
LINE
  5
3B47
330
1F
100
AcDbEntity
  8
0
100
AcDbLine
 10
2346.956966868791
 20
855.9132838052992
 30
0.0
 11
2346.956966868814
 21
660.9132838052992
 31
0.0
  0
LINE
  5
3B48
330
1F
100
AcDbEntity
  8
0
100
AcDbLine
 10
2368.956966868793
 20
855.9132838052992
 30
0.0
 11
2368.956966868793
 21
660.9132838052992
 31
0.0
  0
LINE
  5
3B49
330
1F
100
AcDbEntity
  8
0
100
AcDbLine
 10
2368.956966868793
 20
855.9132838052992
 30
0.0
 11
2346.956966868793
 21
855.9132838052992
 31
0.0
  0
LINE
  5
3B4A
330
1F
100
AcDbEntity
  8
0
  6
CENTER
100
AcDbLine
 10
2393.956966868797
 20
673.4132838052992
 30
0.0
 11
2342.956966868795
 21
673.413283805301
 31
0.0
  0
LINE
  5
3B4B
330
1F
100
AcDbEntity
  8
0
100
AcDbLine
 10
2389.956966868796
 20
660.9132838052992
 30
0.0
 11
2371.956966868796
 21
660.9132838052992
 31
0.0
  0
LINE
  5
3B4C
330
1F
100
AcDbEntity
  8
0
100
AcDbLine
 10
2397.956966868826
 20
693.7132838053003
 30
0.0
 11
2394.956966868797
 21
693.7132838053003
 31
0.0
  0
LINE
  5
3B4D
330
1F
100
AcDbEntity
  8
0
100
AcDbLine
 10
2368.956966868793
 20
660.9132838052992
 30
0.0
 11
2346.956966868793
 21
660.9132838052992
 31
0.0
  0
LINE
  5
3B4E
330
1F
100
AcDbEntity
  8
0
100
AcDbLine
 10
1400.956966868791
 20
688.5132838052996
 30
0.0
 11
2191.486980313682
 21
688.5132838052996
 31
0.0
  0
LINE
  5
3B4F
330
1F
100
AcDbEntity
  8
0
100
AcDbLine
 10
2346.956966868791
 20
828.3132838053097
 30
0.0
 11
2258.426953423906
 21
828.3132838053083
 31
0.0
  0
LINE
  5
3B50
330
1F
100
AcDbEntity
  8
0
100
AcDbLine
 10
2371.956966868813
 20
682.9132838052974
 30
0.0
 11
2368.956966868793
 21
682.9132838052956
 31
0.0
  0
LINE
  5
3C92
330
1F
100
AcDbEntity
  8
0
100
AcDbLine
 10
535.2069668687805
 20
-69.90000000008866
 30
0.0
 11
1328.956966868809
 21
-69.90000000008149
 31
0.0
  0
LINE
  5
3CA4
330
1F
100
AcDbEntity
  8
0
100
AcDbLine
 10
2191.486980313693
 20
828.3132838053077
 30
0.0
 11
1400.956966868791
 21
828.3132838052988
 31
0.0
  0
LINE
  5
3CA5
330
1F
100
AcDbEntity
  8
0
100
AcDbLine
 10
2258.426953423918
 20
688.5132838052994
 30
0.0
 11
2346.456966868791
 21
688.5132838052996
 31
0.0
  0
LINE
  5
3CA8
330
1F
100
AcDbEntity
  8
0
100
AcDbLine
 10
-77.50000000001091
 20
-133.9999999999991
 30
0.0
 11
77.49999999998909
 21
-134.0000000000109
 31
0.0
  0
LINE
  5
3CA9
330
1F
100
AcDbEntity
  8
0
100
AcDbLine
 10
77.49999999998727
 20
-150.0000000000109
 30
0.0
 11
-77.50000000001273
 21
-149.9999999999991
 31
0.0
  0
LINE
  5
3CAA
330
1F
100
AcDbEntity
  8
0
  6
CENTER
100
AcDbLine
 10
59.99999999998909
 20
-158.0000000000091
 30
0.0
 11
59.9999999999909
 21
-124.0000000000091
 31
0.0
  0
LINE
  5
3CAB
330
1F
100
AcDbEntity
  8
0
100
AcDbLine
 10
77.49999999998909
 20
-134.0000000000109
 30
0.0
 11
77.49999999998727
 21
-150.0000000000109
 31
0.0
  0
LINE
  5
3CAE
330
1F
100
AcDbEntity
  8
0
  6
CENTER
100
AcDbLine
 10
-60.00000000001091
 20
-158.0000000000009
 30
0.0
 11
-60.00000000000909
 21
-124.0000000000009
 31
0.0
  0
LINE
  5
3CAF
330
1F
100
AcDbEntity
  8
0
100
AcDbLine
 10
-77.50000000001273
 20
-149.9999999999991
 30
0.0
 11
-77.50000000001091
 21
-133.9999999999991
 31
0.0
  0
LINE
  5
3CB4
330
1F
100
AcDbEntity
  8
0
100
AcDbLine
 10
-77.4999999999909
 20
134.0000000000118
 30
0.0
 11
77.50000000000909
 21
134.0
 31
0.0
  0
LINE
  5
3CB5
330
1F
100
AcDbEntity
  8
0
100
AcDbLine
 10
77.50000000000909
 20
150.0
 30
0.0
 11
-77.4999999999909
 21
150.0000000000118
 31
0.0
  0
LINE
  5
3CB6
330
1F
100
AcDbEntity
  8
0
  6
CENTER
100
AcDbLine
 10
60.00000000000909
 20
158.0000000000018
 30
0.0
 11
60.00000000000728
 21
124.0000000000018
 31
0.0
  0
LINE
  5
3CB7
330
1F
100
AcDbEntity
  8
0
100
AcDbLine
 10
77.50000000000909
 20
134.0
 30
0.0
 11
77.50000000000909
 21
150.0
 31
0.0
  0
LINE
  5
3CBA
330
1F
100
AcDbEntity
  8
0
  6
CENTER
100
AcDbLine
 10
-59.9999999999909
 20
158.00000000001
 30
0.0
 11
-59.99999999999272
 21
124.00000000001
 31
0.0
  0
LINE
  5
3CBB
330
1F
100
AcDbEntity
  8
0
100
AcDbLine
 10
-77.4999999999909
 20
150.0000000000118
 30
0.0
 11
-77.4999999999909
 21
134.0000000000118
 31
0.0
  0
TEXT
  5
3D2F
330
1F
100
AcDbEntity
  8
0
100
AcDbText
 10
957.81410972595
 20
926.5632838052207
 30
0.0
 40
50.0
  1
125AX2000L-50AX3S
 72
     4
 11
1364.956966868807
 21
951.5632838052207
 31
0.0
100
AcDbText
  0
LINE
  5
497C
330
1F
100
AcDbEntity
  8
0
  6
CENTER
100
AcDbLine
 10
306.808224147735
 20
758.413283805372
 30
0.0
 11
2423.10570958986
 21
758.413283805301
 31
0.0
  0
LINE
  5
497D
330
1F
100
AcDbEntity
  8
0
100
AcDbLine
 10
315.48214830693
 20
-60.44700167132578
 30
0.0
 11
315.48214830693
 21
15.34700167116352
 31
0.0
  0
LINE
  5
497E
330
1F
100
AcDbEntity
  8
0
  6
CENTER
100
AcDbLine
 10
306.8082241477459
 20
-22.55000000008113
 30
0.0
 11
338.6119899596833
 21
-22.55000000008113
 31
0.0
  0
LINE
  5
497F
330
1F
100
AcDbEntity
  8
0
100
AcDbLine
 10
309.9569668688
 20
-68.05000000008113
 30
0.0
 11
309.9569668688
 21
22.94999999991887
 31
0.0
  0
LINE
  5
4980
330
1F
100
AcDbEntity
  8
0
100
AcDbLine
 10
312.8069668688004
 20
-67.17631477086706
 30
0.0
 11
312.8069668688004
 21
22.07631477070481
 31
0.0
  0
LINE
  5
4981
330
1F
100
AcDbEntity
  8
0
100
AcDbLine
 10
316.882563167077
 20
15.59999999991942
 30
0.0
 11
331.9569668688
 21
15.59999999991942
 31
0.0
  0
ARC
  5
4982
330
1F
100
AcDbEntity
  8
0
100
AcDbCircle
 10
316.882563167077
 20
17.59999999991942
 30
0.0
 40
2.0
100
AcDbArc
 50
199.9999999999803
 51
270.0
1001
GENIUS_GENODEF_13
1002
{
1000
HIER
1070
     0
1002
}
1002
{
1000
MANEDIT
1070
     0
1002
}
1002
{
1000
NOSEL
1070
     0
1002
}
1002
{
1000
BEHIND
1070
     0
1002
}
1002
{
1000
OTHER
1070
     0
1002
}
1002
{
1000
REACTOR
1002
}
1001
GENIUS_GENOBJ-N-FIL_13
1002
{
1000
OWNER
1000
GEN
1002
}
  0
LINE
  5
4983
330
1F
100
AcDbEntity
  8
0
100
AcDbLine
 10
312.2468008382329
 20
22.94999999991887
 30
0.0
 11
309.9569668688
 21
22.94999999991887
 31
0.0
  0
LINE
  5
4984
330
1F
100
AcDbEntity
  8
0
100
AcDbLine
 10
312.9985549348621
 20
22.42361611457909
 30
0.0
 11
315.0031779255041
 21
16.91595971326751
 31
0.0
  0
ARC
  5
4985
330
1F
100
AcDbEntity
  8
0
100
AcDbCircle
 10
312.2468008382329
 20
22.14999999991869
 30
0.0
 40
0.8
100
AcDbArc
 50
19.99999999998033
 51
90.0
1001
GENIUS_GENOBJ-N-FIL_13
1002
{
1000
OWNER
1000
GEN
1002
}
1001
GENIUS_GENODEF_13
1002
{
1000
HIER
1070
     0
1002
}
1002
{
1000
MANEDIT
1070
     0
1002
}
1002
{
1000
NOSEL
1070
     0
1002
}
1002
{
1000
BEHIND
1070
     0
1002
}
1002
{
1000
OTHER
1070
     0
1002
}
1002
{
1000
REACTOR
1002
}
  0
LINE
  5
4986
330
1F
100
AcDbEntity
  8
0
100
AcDbLine
 10
316.882563167077
 20
-60.70000000008076
 30
0.0
 11
331.9569668688018
 21
-60.70000000008076
 31
0.0
  0
ARC
  5
4987
330
1F
100
AcDbEntity
  8
0
100
AcDbCircle
 10
316.882563167077
 20
-62.70000000008076
 30
0.0
 40
2.0
100
AcDbArc
 50
90.0
 51
160.0000000000196
1001
GENIUS_GENODEF_13
1002
{
1000
HIER
1070
     0
1002
}
1002
{
1000
MANEDIT
1070
     0
1002
}
1002
{
1000
NOSEL
1070
     0
1002
}
1002
{
1000
BEHIND
1070
     0
1002
}
1002
{
1000
OTHER
1070
     0
1002
}
1002
{
1000
REACTOR
1002
}
1001
GENIUS_GENOBJ-N-FIL_13
1002
{
1000
OWNER
1000
GEN
1002
}
  0
LINE
  5
4988
330
1F
100
AcDbEntity
  8
0
100
AcDbLine
 10
312.2468008382329
 20
-68.05000000008113
 30
0.0
 11
309.9569668688
 21
-68.05000000008113
 31
0.0
  0
LINE
  5
4989
330
1F
100
AcDbEntity
  8
0
100
AcDbLine
 10
312.9985549348603
 20
-67.52361611474134
 30
0.0
 11
315.0031779255041
 21
-62.01595971342976
 31
0.0
  0
ARC
  5
498A
330
1F
100
AcDbEntity
  8
0
100
AcDbCircle
 10
312.2468008382329
 20
-67.25000000008094
 30
0.0
 40
0.8
100
AcDbArc
 50
270.0
 51
340.0000000000197
1001
GENIUS_GENOBJ-N-FIL_13
1002
{
1000
OWNER
1000
GEN
1002
}
1001
GENIUS_GENODEF_13
1002
{
1000
HIER
1070
     0
1002
}
1002
{
1000
MANEDIT
1070
     0
1002
}
1002
{
1000
NOSEL
1070
     0
1002
}
1002
{
1000
BEHIND
1070
     0
1002
}
1002
{
1000
OTHER
1070
     0
1002
}
1002
{
1000
REACTOR
1002
}
  0
LINE
  5
498B
330
1F
100
AcDbEntity
  8
0
100
AcDbLine
 10
2414.43178543067
 20
60.44700167115298
 30
0.0
 11
2414.43178543067
 21
-15.34700167133633
 31
0.0
  0
LINE
  5
498C
330
1F
100
AcDbEntity
  8
0
  6
CENTER
100
AcDbLine
 10
2423.105709589854
 20
22.54999999990833
 30
0.0
 11
2391.301943777917
 21
22.54999999990833
 31
0.0
  0
LINE
  5
498D
330
1F
100
AcDbEntity
  8
0
100
AcDbLine
 10
2419.9569668688
 20
68.04999999990832
 30
0.0
 11
2419.9569668688
 21
-22.95000000009168
 31
0.0
  0
LINE
  5
498E
330
1F
100
AcDbEntity
  8
0
100
AcDbLine
 10
2417.1069668688
 20
67.17631477069426
 30
0.0
 11
2417.1069668688
 21
-22.07631477087762
 31
0.0
  0
LINE
  5
498F
330
1F
100
AcDbEntity
  8
0
100
AcDbLine
 10
2413.031370570523
 20
-15.60000000009222
 30
0.0
 11
2397.9569668688
 21
-15.60000000009222
 31
0.0
  0
ARC
  5
4990
330
1F
100
AcDbEntity
  8
0
100
AcDbCircle
 10
2413.031370570523
 20
-17.60000000009222
 30
0.0
 40
2.0
100
AcDbArc
 50
19.99999999998033
 51
90.0
1001
GENIUS_GENODEF_13
1002
{
1000
HIER
1070
     0
1002
}
1002
{
1000
MANEDIT
1070
     0
1002
}
1002
{
1000
NOSEL
1070
     0
1002
}
1002
{
1000
BEHIND
1070
     0
1002
}
1002
{
1000
OTHER
1070
     0
1002
}
1002
{
1000
REACTOR
1002
}
1001
GENIUS_GENOBJ-N-FIL_13
1002
{
1000
OWNER
1000
GEN
1002
}
  0
LINE
  5
4991
330
1F
100
AcDbEntity
  8
0
100
AcDbLine
 10
2417.667132899367
 20
-22.95000000009168
 30
0.0
 11
2419.9569668688
 21
-22.95000000009168
 31
0.0
  0
LINE
  5
4992
330
1F
100
AcDbEntity
  8
0
100
AcDbLine
 10
2416.915378802738
 20
-22.42361611475189
 30
0.0
 11
2414.910755812096
 21
-16.91595971344031
 31
0.0
  0
ARC
  5
4993
330
1F
100
AcDbEntity
  8
0
100
AcDbCircle
 10
2417.667132899367
 20
-22.15000000009149
 30
0.0
 40
0.8
100
AcDbArc
 50
199.9999999999803
 51
270.0
1001
GENIUS_GENOBJ-N-FIL_13
1002
{
1000
OWNER
1000
GEN
1002
}
1001
GENIUS_GENODEF_13
1002
{
1000
HIER
1070
     0
1002
}
1002
{
1000
MANEDIT
1070
     0
1002
}
1002
{
1000
NOSEL
1070
     0
1002
}
1002
{
1000
BEHIND
1070
     0
1002
}
1002
{
1000
OTHER
1070
     0
1002
}
1002
{
1000
REACTOR
1002
}
  0
LINE
  5
4994
330
1F
100
AcDbEntity
  8
0
100
AcDbLine
 10
2413.031370570523
 20
60.69999999990796
 30
0.0
 11
2397.956966868799
 21
60.69999999990796
 31
0.0
  0
ARC
  5
4995
330
1F
100
AcDbEntity
  8
0
100
AcDbCircle
 10
2413.031370570523
 20
62.69999999990796
 30
0.0
 40
2.0
100
AcDbArc
 50
270.0
 51
340.0000000000197
1001
GENIUS_GENODEF_13
1002
{
1000
HIER
1070
     0
1002
}
1002
{
1000
MANEDIT
1070
     0
1002
}
1002
{
1000
NOSEL
1070
     0
1002
}
1002
{
1000
BEHIND
1070
     0
1002
}
1002
{
1000
OTHER
1070
     0
1002
}
1002
{
1000
REACTOR
1002
}
1001
GENIUS_GENOBJ-N-FIL_13
1002
{
1000
OWNER
1000
GEN
1002
}
  0
LINE
  5
4996
330
1F
100
AcDbEntity
  8
0
100
AcDbLine
 10
2417.667132899367
 20
68.04999999990832
 30
0.0
 11
2419.9569668688
 21
68.04999999990832
 31
0.0
  0
LINE
  5
4997
330
1F
100
AcDbEntity
  8
0
100
AcDbLine
 10
2416.91537880274
 20
67.52361611456854
 30
0.0
 11
2414.910755812096
 21
62.01595971325696
 31
0.0
  0
ARC
  5
4998
330
1F
100
AcDbEntity
  8
0
100
AcDbCircle
 10
2417.667132899367
 20
67.24999999990814
 30
0.0
 40
0.8
100
AcDbArc
 50
90.0
 51
160.0000000000196
1001
GENIUS_GENOBJ-N-FIL_13
1002
{
1000
OWNER
1000
GEN
1002
}
1001
GENIUS_GENODEF_13
1002
{
1000
HIER
1070
     0
1002
}
1002
{
1000
MANEDIT
1070
     0
1002
}
1002
{
1000
NOSEL
1070
     0
1002
}
1002
{
1000
BEHIND
1070
     0
1002
}
1002
{
1000
OTHER
1070
     0
1002
}
1002
{
1000
REACTOR
1002
}
  0
LINE
  5
499B
330
1F
100
AcDbEntity
  8
0
  6
CENTER
100
AcDbLine
 10
54.87345926006492
 20
-22.55000000000382
 30
0.0
 11
-54.87345926006856
 21
-22.54999999999654
 31
0.0
  0
LINE
  5
499C
330
1F
100
AcDbEntity
  8
0
100
AcDbLine
 10
2414.431785430676
 20
796.3102854765456
 30
0.0
 11
2414.431785430676
 21
720.5162821340564
 31
0.0
  0
LINE
  5
499D
330
1F
100
AcDbEntity
  8
0
100
AcDbLine
 10
2419.956966868806
 20
803.913283805301
 30
0.0
 11
2419.956966868806
 21
712.913283805301
 31
0.0
  0
LINE
  5
499E
330
1F
100
AcDbEntity
  8
0
100
AcDbLine
 10
2417.106966868805
 20
803.039598576086
 30
0.0
 11
2417.106966868805
 21
713.7869690345142
 31
0.0
  0
LINE
  5
499F
330
1F
100
AcDbEntity
  8
0
100
AcDbLine
 10
2413.031370570529
 20
720.2632838052996
 30
0.0
 11
2397.956966868806
 21
720.2632838052996
 31
0.0
  0
ARC
  5
49A0
330
1F
100
AcDbEntity
  8
0
100
AcDbCircle
 10
2413.031370570529
 20
718.2632838052995
 30
0.0
 40
2.0
100
AcDbArc
 50
19.99999999998033
 51
90.0
1001
GENIUS_GENODEF_13
1002
{
1000
HIER
1070
     0
1002
}
1002
{
1000
MANEDIT
1070
     0
1002
}
1002
{
1000
NOSEL
1070
     0
1002
}
1002
{
1000
BEHIND
1070
     0
1002
}
1002
{
1000
OTHER
1070
     0
1002
}
1002
{
1000
REACTOR
1002
}
1001
GENIUS_GENOBJ-N-FIL_13
1002
{
1000
OWNER
1000
GEN
1002
}
  0
LINE
  5
49A1
330
1F
100
AcDbEntity
  8
0
100
AcDbLine
 10
2417.667132899373
 20
712.913283805301
 30
0.0
 11
2419.956966868806
 21
712.913283805301
 31
0.0
  0
LINE
  5
49A2
330
1F
100
AcDbEntity
  8
0
100
AcDbLine
 10
2416.915378802743
 20
713.4396676906399
 30
0.0
 11
2414.910755812102
 21
718.9473240919506
 31
0.0
  0
ARC
  5
49A3
330
1F
100
AcDbEntity
  8
0
100
AcDbCircle
 10
2417.667132899373
 20
713.7132838053003
 30
0.0
 40
0.8
100
AcDbArc
 50
199.9999999999803
 51
270.0
1001
GENIUS_GENOBJ-N-FIL_13
1002
{
1000
OWNER
1000
GEN
1002
}
1001
GENIUS_GENODEF_13
1002
{
1000
HIER
1070
     0
1002
}
1002
{
1000
MANEDIT
1070
     0
1002
}
1002
{
1000
NOSEL
1070
     0
1002
}
1002
{
1000
BEHIND
1070
     0
1002
}
1002
{
1000
OTHER
1070
     0
1002
}
1002
{
1000
REACTOR
1002
}
  0
LINE
  5
49A4
330
1F
100
AcDbEntity
  8
0
100
AcDbLine
 10
2413.031370570529
 20
796.5632838053006
 30
0.0
 11
2397.956966868804
 21
796.5632838053006
 31
0.0
  0
ARC
  5
49A5
330
1F
100
AcDbEntity
  8
0
100
AcDbCircle
 10
2413.031370570529
 20
798.5632838053007
 30
0.0
 40
2.0
100
AcDbArc
 50
270.0
 51
340.0000000000197
1001
GENIUS_GENODEF_13
1002
{
1000
HIER
1070
     0
1002
}
1002
{
1000
MANEDIT
1070
     0
1002
}
1002
{
1000
NOSEL
1070
     0
1002
}
1002
{
1000
BEHIND
1070
     0
1002
}
1002
{
1000
OTHER
1070
     0
1002
}
1002
{
1000
REACTOR
1002
}
1001
GENIUS_GENOBJ-N-FIL_13
1002
{
1000
OWNER
1000
GEN
1002
}
  0
LINE
  5
49A6
330
1F
100
AcDbEntity
  8
0
100
AcDbLine
 10
2417.667132899373
 20
803.913283805301
 30
0.0
 11
2419.956966868806
 21
803.913283805301
 31
0.0
  0
LINE
  5
49A7
330
1F
100
AcDbEntity
  8
0
100
AcDbLine
 10
2416.915378802745
 20
803.3868999199603
 30
0.0
 11
2414.910755812102
 21
797.8792435186478
 31
0.0
  0
ARC
  5
49A8
330
1F
100
AcDbEntity
  8
0
100
AcDbCircle
 10
2417.667132899373
 20
803.1132838052998
 30
0.0
 40
0.8
100
AcDbArc
 50
90.0
 51
160.0000000000196
1001
GENIUS_GENOBJ-N-FIL_13
1002
{
1000
OWNER
1000
GEN
1002
}
1001
GENIUS_GENODEF_13
1002
{
1000
HIER
1070
     0
1002
}
1002
{
1000
MANEDIT
1070
     0
1002
}
1002
{
1000
NOSEL
1070
     0
1002
}
1002
{
1000
BEHIND
1070
     0
1002
}
1002
{
1000
OTHER
1070
     0
1002
}
1002
{
1000
REACTOR
1002
}
  0
LINE
  5
49A9
330
1F
100
AcDbEntity
  8
0
100
AcDbLine
 10
315.4821483069209
 20
796.3102854766166
 30
0.0
 11
315.4821483069154
 21
720.5162821341273
 31
0.0
  0
LINE
  5
49AA
330
1F
100
AcDbEntity
  8
0
100
AcDbLine
 10
309.9569668687909
 20
803.9132838053719
 30
0.0
 11
309.9569668687855
 21
712.913283805372
 31
0.0
  0
LINE
  5
49AB
330
1F
100
AcDbEntity
  8
0
100
AcDbLine
 10
312.8069668687913
 20
803.039598576157
 30
0.0
 11
312.8069668687858
 21
713.7869690345851
 31
0.0
  0
LINE
  5
49AC
330
1F
100
AcDbEntity
  8
0
100
AcDbLine
 10
316.8825631670625
 20
720.2632838053723
 30
0.0
 11
331.9569668687855
 21
720.2632838053705
 31
0.0
  0
ARC
  5
49AD
330
1F
100
AcDbEntity
  8
0
100
AcDbCircle
 10
316.8825631670625
 20
718.2632838053723
 30
0.0
 40
2.0
100
AcDbArc
 50
90.0
 51
159.9999999999707
1001
GENIUS_GENODEF_13
1002
{
1000
HIER
1070
     0
1002
}
1002
{
1000
MANEDIT
1070
     0
1002
}
1002
{
1000
NOSEL
1070
     0
1002
}
1002
{
1000
BEHIND
1070
     0
1002
}
1002
{
1000
OTHER
1070
     0
1002
}
1002
{
1000
REACTOR
1002
}
1001
GENIUS_GENOBJ-N-FIL_13
1002
{
1000
OWNER
1000
GEN
1002
}
  0
LINE
  5
49AE
330
1F
100
AcDbEntity
  8
0
100
AcDbLine
 10
312.2468008382184
 20
712.913283805372
 30
0.0
 11
309.9569668687855
 21
712.913283805372
 31
0.0
  0
LINE
  5
49AF
330
1F
100
AcDbEntity
  8
0
100
AcDbLine
 10
312.9985549348476
 20
713.4396676907108
 30
0.0
 11
315.0031779254896
 21
718.9473240920233
 31
0.0
  0
ARC
  5
49B0
330
1F
100
AcDbEntity
  8
0
100
AcDbCircle
 10
312.2468008382184
 20
713.713283805373
 30
0.0
 40
0.8
100
AcDbArc
 50
270.0
 51
339.9999999999707
1001
GENIUS_GENOBJ-N-FIL_13
1002
{
1000
OWNER
1000
GEN
1002
}
1001
GENIUS_GENODEF_13
1002
{
1000
HIER
1070
     0
1002
}
1002
{
1000
MANEDIT
1070
     0
1002
}
1002
{
1000
NOSEL
1070
     0
1002
}
1002
{
1000
BEHIND
1070
     0
1002
}
1002
{
1000
OTHER
1070
     0
1002
}
1002
{
1000
REACTOR
1002
}
  0
LINE
  5
49B1
330
1F
100
AcDbEntity
  8
0
100
AcDbLine
 10
316.8825631670679
 20
796.5632838053716
 30
0.0
 11
331.9569668687927
 21
796.5632838053716
 31
0.0
  0
ARC
  5
49B2
330
1F
100
AcDbEntity
  8
0
100
AcDbCircle
 10
316.8825631670679
 20
798.5632838053716
 30
0.0
 40
2.0
100
AcDbArc
 50
200.0000000000293
 51
270.0
1001
GENIUS_GENODEF_13
1002
{
1000
HIER
1070
     0
1002
}
1002
{
1000
MANEDIT
1070
     0
1002
}
1002
{
1000
NOSEL
1070
     0
1002
}
1002
{
1000
BEHIND
1070
     0
1002
}
1002
{
1000
OTHER
1070
     0
1002
}
1002
{
1000
REACTOR
1002
}
1001
GENIUS_GENOBJ-N-FIL_13
1002
{
1000
OWNER
1000
GEN
1002
}
  0
LINE
  5
49B3
330
1F
100
AcDbEntity
  8
0
100
AcDbLine
 10
312.2468008382238
 20
803.9132838053719
 30
0.0
 11
309.9569668687909
 21
803.9132838053719
 31
0.0
  0
LINE
  5
49B4
330
1F
100
AcDbEntity
  8
0
100
AcDbLine
 10
312.9985549348512
 20
803.3868999200313
 30
0.0
 11
315.0031779254951
 21
797.8792435187206
 31
0.0
  0
ARC
  5
49B5
330
1F
100
AcDbEntity
  8
0
100
AcDbCircle
 10
312.2468008382238
 20
803.1132838053727
 30
0.0
 40
0.8
100
AcDbArc
 50
20.0000000000293
 51
90.0
1001
GENIUS_GENOBJ-N-FIL_13
1002
{
1000
OWNER
1000
GEN
1002
}
1001
GENIUS_GENODEF_13
1002
{
1000
HIER
1070
     0
1002
}
1002
{
1000
MANEDIT
1070
     0
1002
}
1002
{
1000
NOSEL
1070
     0
1002
}
1002
{
1000
BEHIND
1070
     0
1002
}
1002
{
1000
OTHER
1070
     0
1002
}
1002
{
1000
REACTOR
1002
}
  0
CIRCLE
  5
55D8
330
1F
100
AcDbEntity
  8
0
100
AcDbCircle
 10
-26.26644452189248
 20
80.83980388511008
 30
0.0
 40
7.0
  0
CIRCLE
  5
55D9
330
1F
100
AcDbEntity
  8
0
100
AcDbCircle
 10
26.26644452185792
 20
80.83980388509917
 30
0.0
 40
7.0
  0
CIRCLE
  5
55DA
330
1F
100
AcDbEntity
  8
0
100
AcDbCircle
 10
-68.76644452192341
 20
-49.96174644485108
 30
0.0
 40
7.0
  0
CIRCLE
  5
55DB
330
1F
100
AcDbEntity
  8
0
100
AcDbCircle
 10
68.76644452183973
 20
-49.96174644487837
 30
0.0
 40
7.0
  0
CIRCLE
  5
55DC
330
1F
100
AcDbEntity
  8
0
100
AcDbCircle
 10
68.7664445218561
 20
49.96174644485837
 30
0.0
 40
7.0
  0
CIRCLE
  5
55DD
330
1F
100
AcDbEntity
  8
0
100
AcDbCircle
 10
-68.76644452190703
 20
49.96174644488383
 30
0.0
 40
7.0
  0
CIRCLE
  5
55DE
330
1F
100
AcDbEntity
  8
0
100
AcDbCircle
 10
-26.26644452192341
 20
-80.83980388509189
 30
0.0
 40
7.0
  0
CIRCLE
  5
55DF
330
1F
100
AcDbEntity
  8
0
100
AcDbCircle
 10
26.26644452182518
 20
-80.83980388510282
 30
0.0
 40
7.0
  0
CIRCLE
  5
55E0
330
1F
100
AcDbEntity
  8
0
  6
CENTER
100
AcDbCircle
 10
0.0
 20
0.0
 30
0.0
 40
85.0
  0
CIRCLE
  5
55E1
330
1F
100
AcDbEntity
  8
0
100
AcDbCircle
 10
84.99999999998181
 20
-0.0000000000127329
 30
0.0
 40
7.0
  0
CIRCLE
  5
55E2
330
1F
100
AcDbEntity
  8
0
100
AcDbCircle
 10
-85.0000000000473
 20
0.0000000000209184
 30
0.0
 40
7.0
  0
CIRCLE
  5
55E3
330
1F
100
AcDbEntity
  8
0
100
AcDbCircle
 10
0.0
 20
0.0
 30
0.0
 40
97.50000000000092
  0
CIRCLE
  5
5612
330
1F
100
AcDbEntity
  8
0
100
AcDbCircle
 10
-0.000000000001819
 20
-22.55000000000018
 30
0.0
 40
45.49999999999999
  0
CIRCLE
  5
5613
330
1F
100
AcDbEntity
  8
0
100
AcDbCircle
 10
-0.000000000001819
 20
-22.55000000000018
 30
0.0
 40
38.1500000000001
  0
LINE
  5
5C34
330
1F
100
AcDbEntity
  8
0
  6
CENTER
100
AcDbLine
 10
2224.9569668688
 20
838.4132838053137
 30
0.0
 11
2224.9569668688
 21
678.4132838052974
 31
0.0
  0
LINE
  5
5C35
330
1F
100
AcDbEntity
  8
0
  6
CENTER
100
AcDbLine
 10
2196.319142230745
 20
729.7754591672456
 30
0.0
 11
2168.74197776447
 21
702.198294700971
 31
0.0
  0
LINE
  5
5C36
330
1F
100
AcDbEntity
  8
0
  6
CENTER
100
AcDbLine
 10
2196.319142230745
 20
787.0511084433565
 30
0.0
 11
2168.74197776447
 21
814.6282729096309
 31
0.0
  0
LINE
  5
5C37
330
1F
100
AcDbEntity
  8
0
  6
CENTER
100
AcDbLine
 10
2253.594791506856
 20
787.0511084433565
 30
0.0
 11
2281.17195597313
 21
814.6282729096309
 31
0.0
  0
LINE
  5
5C38
330
1F
100
AcDbEntity
  8
0
  6
CENTER
100
AcDbLine
 10
2253.594791506856
 20
729.7754591672456
 30
0.0
 11
2281.17195597313
 21
702.198294700971
 31
0.0
  0
LINE
  5
5C39
330
1F
100
AcDbEntity
  8
0
  6
CENTER
100
AcDbLine
 10
504.9569668688036
 20
838.4132838053137
 30
0.0
 11
504.9569668688036
 21
678.4132838052974
 31
0.0
  0
ARC
  5
5C3A
330
1F
100
AcDbEntity
  8
0
100
AcDbCircle
 10
504.9569668688036
 20
758.413283805301
 30
0.0
 40
77.5
100
AcDbArc
 50
64.4136558448798
 51
115.5863441551202
  0
ARC
  5
5C3B
330
1F
100
AcDbEntity
  8
0
100
AcDbCircle
 10
504.9569668688036
 20
758.413283805301
 30
0.0
 40
77.5
100
AcDbArc
 50
244.4136558448798
 51
295.5863441551202
  0
CIRCLE
  5
5C3C
330
1F
100
AcDbEntity
  8
0
100
AcDbCircle
 10
2224.9569668688
 20
758.413283805301
 30
0.0
 40
77.5
  0
CIRCLE
  5
5C3D
330
1F
100
AcDbEntity
  8
0
100
AcDbCircle
 10
2182.530559997607
 20
715.9868769341082
 30
0.0
 40
9.5
  0
CIRCLE
  5
5C3E
330
1F
100
AcDbEntity
  8
0
100
AcDbCircle
 10
2182.530559997607
 20
800.8396906764938
 30
0.0
 40
9.5
  0
CIRCLE
  5
5C3F
330
1F
100
AcDbEntity
  8
0
  6
CENTER
100
AcDbCircle
 10
2224.9569668688
 20
758.413283805301
 30
0.0
 40
60.0
  0
CIRCLE
  5
5C40
330
1F
100
AcDbEntity
  8
0
100
AcDbCircle
 10
2267.383373739993
 20
800.8396906764938
 30
0.0
 40
9.5
  0
CIRCLE
  5
5C41
330
1F
100
AcDbEntity
  8
0
100
AcDbCircle
 10
2267.383373739993
 20
715.9868769341082
 30
0.0
 40
9.5
  0
CIRCLE
  5
5C42
330
1F
100
AcDbEntity
  8
0
100
AcDbCircle
 10
2224.9569668688
 20
758.413283805301
 30
0.0
 40
30.25
  0
LINE
  5
5C43
330
1F
100
AcDbEntity
  8
0
  6
CENTER
100
AcDbLine
 10
504.9569668687636
 20
-160.0000000001027
 30
0.0
 11
504.9569668687636
 21
-0.000000000086402
 31
0.0
  0
LINE
  5
5C44
330
1F
100
AcDbEntity
  8
0
100
AcDbLine
 10
427.4569668687636
 20
-134.0000000000864
 30
0.0
 11
582.4569668687636
 21
-134.0000000000864
 31
0.0
  0
LINE
  5
5C45
330
1F
100
AcDbEntity
  8
0
100
AcDbLine
 10
582.4569668687636
 20
-150.0000000000864
 30
0.0
 11
427.4569668687636
 21
-150.0000000000864
 31
0.0
  0
LINE
  5
5C46
330
1F
100
AcDbEntity
  8
0
  6
CENTER
100
AcDbLine
 10
564.9569668687636
 20
-158.0000000000864
 30
0.0
 11
564.9569668687636
 21
-124.0000000000864
 31
0.0
  0
LINE
  5
5C47
330
1F
100
AcDbEntity
  8
0
100
AcDbLine
 10
582.4569668687636
 20
-134.0000000000864
 30
0.0
 11
582.4569668687636
 21
-150.0000000000864
 31
0.0
  0
LINE
  5
5C48
330
1F
100
AcDbEntity
  8
0
  6
CENTER
100
AcDbLine
 10
444.9569668687636
 20
-158.0000000000864
 30
0.0
 11
444.9569668687636
 21
-124.0000000000864
 31
0.0
  0
LINE
  5
5C49
330
1F
100
AcDbEntity
  8
0
100
AcDbLine
 10
427.4569668687636
 20
-150.0000000000864
 30
0.0
 11
427.4569668687636
 21
-134.0000000000864
 31
0.0
  0
LINE
  5
5C4A
330
1F
100
AcDbEntity
  8
0
  6
CENTER
100
AcDbLine
 10
2224.956966868756
 20
159.9999999999299
 30
0.0
 11
2224.956966868756
 21
-0.000000000086402
 31
0.0
  0
LINE
  5
5C4B
330
1F
100
AcDbEntity
  8
0
100
AcDbLine
 10
2255.206966868759
 20
133.9999999999174
 30
0.0
 11
2255.206966868755
 21
69.89999999992074
 31
0.0
  0
LINE
  5
5C4C
330
1F
100
AcDbEntity
  8
0
100
AcDbLine
 10
2194.706966868757
 20
133.9999999999136
 30
0.0
 11
2194.706966868757
 21
69.89999999991596
 31
0.0
  0
LINE
  5
5C4D
330
1F
100
AcDbEntity
  8
0
100
AcDbLine
 10
2302.456966868756
 20
133.9999999999136
 30
0.0
 11
2147.456966868757
 21
133.9999999999136
 31
0.0
  0
LINE
  5
5C4E
330
1F
100
AcDbEntity
  8
0
100
AcDbLine
 10
2147.456966868757
 20
149.9999999999136
 30
0.0
 11
2302.456966868756
 21
149.9999999999136
 31
0.0
  0
LINE
  5
5C4F
330
1F
100
AcDbEntity
  8
0
  6
CENTER
100
AcDbLine
 10
2164.956966868757
 20
157.9999999999136
 30
0.0
 11
2164.956966868757
 21
123.9999999999136
 31
0.0
  0
LINE
  5
5C50
330
1F
100
AcDbEntity
  8
0
100
AcDbLine
 10
2147.456966868757
 20
133.9999999999136
 30
0.0
 11
2147.456966868757
 21
149.9999999999136
 31
0.0
  0
LINE
  5
5C51
330
1F
100
AcDbEntity
  8
0
  6
CENTER
100
AcDbLine
 10
2284.956966868756
 20
157.9999999999136
 30
0.0
 11
2284.956966868756
 21
123.9999999999136
 31
0.0
  0
LINE
  5
5C52
330
1F
100
AcDbEntity
  8
0
100
AcDbLine
 10
2302.456966868756
 20
149.9999999999136
 30
0.0
 11
2302.456966868756
 21
133.9999999999136
 31
0.0
  0
ARC
  5
5C53
330
1F
100
AcDbEntity
  8
0
100
AcDbCircle
 10
2224.956966868756
 20
103.3881527328039
 30
0.0
 40
45.12780598990146
100
AcDbArc
 50
227.9083539637243
 51
312.0916460362757
  0
LINE
  5
5C54
330
1F
100
AcDbEntity
  8
0
100
AcDbLine
 10
474.7069668687613
 20
-134.0000000000902
 30
0.0
 11
474.7069668687649
 21
-69.90000000009354
 31
0.0
  0
LINE
  5
5C55
330
1F
100
AcDbEntity
  8
0
100
AcDbLine
 10
535.2069668687636
 20
-134.0000000000864
 30
0.0
 11
535.2069668687636
 21
-69.90000000008876
 31
0.0
  0
ARC
  5
5C56
330
1F
100
AcDbEntity
  8
0
100
AcDbCircle
 10
504.956966868765
 20
-103.3881527329768
 30
0.0
 40
45.12780598990146
100
AcDbArc
 50
47.90835396372427
 51
132.0916460362757
  0
LINE
  5
5C57
330
1F
100
AcDbEntity
  8
0
100
AcDbLine
 10
-30.24999999999636
 20
92.36685937530864
 30
0.0
 11
-30.24999999999409
 21
134.0000000000063
 31
0.0
  0
LINE
  5
5C58
330
1F
100
AcDbEntity
  8
0
100
AcDbLine
 10
30.25000000000591
 20
92.91516852222413
 30
0.0
 11
30.25000000000773
 21
134.0000000000036
 31
0.0
  0
LINE
  5
5C59
330
1F
100
AcDbEntity
  8
0
100
AcDbLine
 10
-30.25000000000682
 20
-134.0000000000045
 30
0.0
 11
-30.250000000005
 21
-92.68865896106126
 31
0.0
  0
LINE
  5
5C5A
330
1F
100
AcDbEntity
  8
0
100
AcDbLine
 10
30.24999999999546
 20
-134.0000000000072
 30
0.0
 11
30.24999999999727
 21
-93.85015356523945
 31
0.0
  0
ENDSEC
  0
SECTION
  2
OBJECTS
  0
DICTIONARY
  5
C
330
0
100
AcDbDictionary
281
     1
  3
ACAD_2007HEADERVARS_RT
350
5CC5
  3
ACAD_COLOR
350
51E
  3
ACAD_GROUP
350
D
  3
ACAD_LAYOUT
350
1A
  3
ACAD_MATERIAL
350
51D
  3
ACAD_MLEADERSTYLE
350
605
  3
ACAD_MLINESTYLE
350
17
  3
ACAD_PLOTSETTINGS
350
19
  3
ACAD_PLOTSTYLENAME
350
E
  3
ACAD_SCALELIST
350
5E3
  3
ACAD_TABLESTYLE
350
51F
  3
ACAD_VISUALSTYLE
350
5AF
  3
AcadDim
350
414
  3
ACDB_RECOMPOSE_DATA
350
5CC4
  3
ACDBHEADERROUNDTRIPXREC
350
58B0
  3
AcDbVariableDictionary
350
34
  3
AcmDictionary
350
49
  3
AcmSystemVariableManager
350
588D
  3
AMG
350
2B
  3
AMGSNAPSETTINGS
350
E5
  3
ASE_INDEX_DICTIONARY
350
2E7
  0
DICTIONARY
  5
5312
330
8
100
AcDbDictionary
280
     1
281
     1
  0
DICTIONARY
  5
D1
330
2
100
AcDbDictionary
280
     1
281
     1
  3
ACAD_LAYERFILTERS
360
7D3
  3
ACAD_LAYERSTATES
360
88B
  3
ACLYDICTIONARY
360
7D2
  3
AMLAYER_GROUPCOLORS
360
D2
  0
DICTIONARY
  5
789
330
10
100
AcDbDictionary
280
     1
281
     1
  3
ADSK_XREC_LAYER_RECONCILED
360
E7C
  0
DICTIONARY
  5
82
330
1F
100
AcDbDictionary
280
     1
281
     1
  3
ACAD_LAYOUTSELFREF
360
58D8
  3
ACAD_SORTENTS
360
D2A
  0
DICTIONARY
  5
5898
330
1B
100
AcDbDictionary
280
     1
281
     1
  3
ACAD_LAYOUTSELFREF
360
58D7
  0
DICTIONARY
  5
589A
330
23
100
AcDbDictionary
280
     1
281
     1
  3
ACAD_LAYOUTSELFREF
360
58D9
  0
DICTIONARY
  5
5A0A
330
58F9
100
AcDbDictionary
280
     1
281
     1
  3
ACAD_SORTENTS
360
5A0B
  0
DICTIONARY
  5
5CC5
102
{ACAD_REACTORS
330
C
102
}
330
C
100
AcDbDictionary
281
     1
  3
DIMARCSYM
350
5CC6
  3
DIMLTEX1
350
5CC8
  3
DIMLTEX2
350
5CC9
  3
DIMLTYPE
350
5CC7
  0
DICTIONARY
  5
51E
102
{ACAD_REACTORS
330
C
102
}
330
C
100
AcDbDictionary
281
     1
  0
DICTIONARY
  5
D
102
{ACAD_REACTORS
330
C
102
}
330
C
100
AcDbDictionary
281
     1
  0
DICTIONARY
  5
1A
102
{ACAD_REACTORS
330
C
102
}
330
C
100
AcDbDictionary
281
     1
  3
Layout1
350
1E
  3
Layout2
350
26
  3
Model
350
22
  0
DICTIONARY
  5
51D
102
{ACAD_REACTORS
330
C
102
}
330
C
100
AcDbDictionary
281
     1
  3
ByBlock
350
5AD
  3
ByLayer
350
5AC
  3
Global
350
5AE
  0
DICTIONARY
  5
605
102
{ACAD_REACTORS
330
C
102
}
330
C
100
AcDbDictionary
281
     1
  3
Standard
350
606
  3
TSKE
350
719
  0
DICTIONARY
  5
17
102
{ACAD_REACTORS
330
C
102
}
330
C
100
AcDbDictionary
281
     1
  3
Standard
350
18
  0
DICTIONARY
  5
19
102
{ACAD_REACTORS
330
C
102
}
330
C
100
AcDbDictionary
281
     1
  0
ACDBDICTIONARYWDFLT
  5
E
102
{ACAD_REACTORS
330
C
102
}
330
C
100
AcDbDictionary
281
     1
  3
Normal
350
F
100
AcDbDictionaryWithDefault
340
F
  0
DICTIONARY
  5
5E3
102
{ACAD_REACTORS
330
C
102
}
330
C
100
AcDbDictionary
281
     1
  3
A0
350
5E4
  3
A1
350
5E5
  3
A2
350
5E6
  3
A3
350
5E7
  3
A4
350
5E8
  3
A5
350
5E9
  3
A6
350
5EA
  3
A7
350
5EB
  3
A8
350
5EC
  3
A9
350
5ED
  3
B0
350
5EE
  3
B1
350
5EF
  3
B2
350
5F0
  3
B3
350
5F1
  3
B4
350
5F2
  3
B5
350
5F3
  3
B6
350
5F4
  3
B7
350
5F5
  3
B8
350
5F6
  3
B9
350
5F7
  3
C0
350
5F8
  3
C1
350
5F9
  3
C2
350
5FA
  3
C3
350
5FB
  3
C4
350
5FC
  3
C5
350
5FD
  3
C6
350
5FE
  3
C7
350
5FF
  3
C8
350
600
  3
C9
350
601
  3
D0
350
602
  3
D1
350
603
  3
D2
350
604
  0
DICTIONARY
  5
51F
102
{ACAD_REACTORS
330
C
102
}
330
C
100
AcDbDictionary
281
     1
  3
Standard
350
520
  0
DICTIONARY
  5
5AF
102
{ACAD_REACTORS
330
C
102
}
330
C
100
AcDbDictionary
281
     1
  3
2dWireframe
350
5B5
  3
3D Hidden
350
5B7
  3
3dWireframe
350
5B6
  3
Basic
350
5B4
  3
Brighten
350
5BB
  3
ColorChange
350
5BF
  3
Conceptual
350
5B8
  3
Dim
350
5BA
  3
EdgeColorOff
350
58F4
  3
Facepattern
350
5BE
  3
Flat
350
5B0
  3
FlatWithEdges
350
5B1
  3
Gouraud
350
5B2
  3
GouraudWithEdges
350
5B3
  3
Hidden
350
58EC
  3
JitterOff
350
58F2
  3
Linepattern
350
5BD
  3
OverhangOff
350
58F3
  3
Realistic
350
5B9
  3
Shaded
350
58F1
  3
Shaded with edges
350
58F0
  3
Shades of Gray
350
58ED
  3
Sketchy
350
58EE
  3
Thicken
350
5BC
  3
Wireframe
350
58EB
  3
X-Ray
350
58EF
  0
XRECORD
  5
414
102
{ACAD_REACTORS
330
C
102
}
330
C
100
AcDbXrecord
280
     1
 90
   990106
  3

 60
     0
 61
     0
 62
     4
 63
     4
 64
     1
 65
     0
 66
     0
 67
     3
 68
     1
 69
     0
 70
     0
 71
     0
 72
     0
 40
0.0
170
     2
  0
XRECORD
  5
5CC4
102
{ACAD_REACTORS
330
C
102
}
330
C
100
AcDbXrecord
280
     1
 90
        1
330
520
  0
DICTIONARY
  5
58B0
102
{ACAD_REACTORS
330
C
102
}
330
C
100
AcDbDictionary
281
     1
  3
CEPSNTYPE
350
58BA
  3
DIMSTYLEDATA
350
58BE
  3
FINGERPRINTGUID
350
58BB
  3
HYPERLINKBASE
350
58B3
  3
INSUNITS
350
58B9
  3
LAYOUTDICT
350
58B5
  3
LWETCUNION
350
58B8
  3
PLOTSETDICT
350
58B6
  3
PLOTSTYLNAMDICT
350
58B7
  3
PSVPSCALE
350
58BD
  3
PUCSBASE
350
58C1
  3
PUCSORGBACK
350
58C7
  3
PUCSORGBOTTOM
350
58C3
  3
PUCSORGFRONT
350
58C6
  3
PUCSORGLEFT
350
58C4
  3
PUCSORGRIGHT
350
58C5
  3
PUCSORGTOP
350
58C2
  3
PUCSORTHOREF
350
58BF
  3
PUCSORTHOVIEW
350
58C0
  3
STYLESHEET
350
58B4
  3
TSTACKALIGN
350
58B1
  3
TSTACKSIZE
350
58B2
  3
UCSBASE
350
58CA
  3
UCSORGBACK
350
58D0
  3
UCSORGBOTTOM
350
58CC
  3
UCSORGFRONT
350
58CF
  3
UCSORGLEFT
350
58CD
  3
UCSORGRIGHT
350
58CE
  3
UCSORGTOP
350
58CB
  3
UCSORTHOREF
350
58C8
  3
UCSORTHOVIEW
350
58C9
  3
VERSIONGUID
350
58BC
  0
DICTIONARY
  5
34
102
{ACAD_REACTORS
330
C
102
}
330
C
100
AcDbDictionary
281
     1
  3
CANNOSCALE
350
629
  3
CMLEADERSTYLE
350
627
  3
CTABLESTYLE
350
5AA
  3
DIMASSOC
350
AC
  3
INDEXCTL
350
35
  3
LAYEREVAL
350
6C0
  3
LAYERNOTIFY
350
6C1
  3
LIGHTINGUNITS
350
62A
  3
MSLTSCALE
350
628
  3
SORTENTS
350
5326
  3
XCLIPFRAME
350
5CC2
  0
DICTIONARY
  5
49
102
{ACAD_REACTORS
330
C
102
}
330
C
100
AcDbDictionary
281
     1
  3
AcmStdDictionary
350
4A
  3
AMDTSECTSYM_ARROWCOLOR
350
56E
  0
ACAD_PROXY_OBJECT
  5
588D
102
{ACAD_REACTORS
330
C
102
}
330
C
100
AcDbProxyObject
 90
      499
 91
      508
 95
   851991
 70
     0
 93
       32
310
9014220000
330
0
 94
        0
  0
DICTIONARY
  5
2B
102
{ACAD_REACTORS
330
C
102
}
330
C
100
AcDbDictionary
281
     1
  0
DICTIONARY
  5
E5
102
{ACAD_REACTORS
330
C
102
}
330
C
100
AcDbDictionary
281
     1
  0
DICTIONARY
  5
2E7
102
{ACAD_REACTORS
330
C
102
}
330
C
100
AcDbDictionary
281
     1
  3
ASEBlockHierarchyIndexRecord
350
2E9
1001
DCO15
1040
1468142506.343
  0
DICTIONARY
  5
7D3
102
{ACAD_REACTORS
330
D1
102
}
330
D1
100
AcDbDictionary
281
     1
  0
DICTIONARY
  5
88B
102
{ACAD_REACTORS
330
D1
102
}
330
D1
100
AcDbDictionary
281
     1
  0
DICTIONARY
  5
7D2
102
{ACAD_REACTORS
330
D1
102
}
330
D1
100
AcDbDictionary
281
     1
1001
ACAD
1000
<All
  0
DICTIONARY
  5
D2
102
{ACAD_REACTORS
330
D1
102
}
330
D1
100
AcDbDictionary
280
     1
281
     1
  0
XRECORD
  5
E7C
102
{ACAD_REACTORS
330
789
102
}
330
789
100
AcDbXrecord
280
     1
290
     1
  0
XRECORD
  5
58D8
102
{ACAD_REACTORS
330
82
102
}
330
82
100
AcDbXrecord
280
     1
340
1F
  0
SORTENTSTABLE
  5
D2A
102
{ACAD_REACTORS
330
82
102
}
330
82
100
AcDbSortentsTable
330
1F
331
3B2C
  5
3B3A
331
3AED
  5
3AF9
331
4996
  5
4999
331
3B28
  5
3B36
331
4992
  5
4995
331
3B24
  5
3B32
331
3AE9
  5
3AF4
331
498E
  5
4991
331
3B20
  5
3B2E
331
498A
  5
498D
331
3AE5
  5
3AF0
331
3B1C
  5
3B2A
331
3AE1
  5
3AEC
331
3ADD
  5
3AE8
331
4986
  5
4989
331
3B18
  5
3B26
331
4982
  5
4985
331
3B14
  5
3B22
331
3AD9
  5
3AE4
331
497E
  5
4981
331
3B10
  5
3B1E
331
3ACD
  5
3AD8
331
3B4F
  5
3B60
331
3B4B
  5
3B5B
331
3AC9
  5
3AD4
331
3AC5
  5
3AD0
331
49B5
  5
49EE
331
3B47
  5
3B55
331
3B43
  5
3B51
331
49B1
  5
49B4
331
3B04
  5
3B11
331
3AC1
  5
3ACC
331
49AD
  5
49B0
331
3B00
  5
3B0C
331
49A9
  5
49AC
331
3CBA
  5
3CBB
331
3ABD
  5
3AC8
331
3B3F
  5
3B4D
331
3B3B
  5
3B49
331
3AFC
  5
3B08
331
3AB9
  5
3AC4
331
3AB5
  5
3AC0
331
3B37
  5
3B45
331
3AF8
  5
3B04
331
3CB6
  5
3CB7
331
49A5
  5
49A8
331
3B33
  5
3B41
331
3AF4
  5
3B00
331
3AB1
  5
3ABC
331
49A1
  5
49A4
331
3AF0
  5
3AFC
331
3CAE
  5
3CAF
331
499D
  5
49A0
331
3CAA
  5
3CAB
331
3B2F
  5
3B3D
331
3B2B
  5
3B39
331
3AEC
  5
3AF7
331
3B27
  5
3B35
331
4995
  5
4998
331
3B23
  5
3B31
331
3AE8
  5
3AF3
331
4991
  5
4994
331
498D
  5
4990
331
4989
  5
498C
331
3AE4
  5
3AEF
331
3B1F
  5
3B2D
331
3AE0
  5
3AEB
331
3B1B
  5
3B29
331
3C92
  5
3AF8
331
3ADC
  5
3AE7
331
3B17
  5
3B25
331
4985
  5
4988
331
3B13
  5
3B21
331
3AD8
  5
3AE3
331
4981
  5
4984
331
497D
  5
4980
331
3ACC
  5
3AD7
331
3B4E
  5
3B5E
331
3B0F
  5
3B1D
331
3B4A
  5
3B58
331
3B0B
  5
3B19
331
3AC8
  5
3AD3
331
3AC4
  5
3ACF
331
3B46
  5
3B54
331
3B07
  5
3B15
331
49B4
  5
49BA
331
3B42
  5
3B50
331
3B03
  5
3B10
331
3AC0
  5
3ACB
331
49B0
  5
49B3
331
49AC
  5
49AF
331
49A8
  5
49AB
331
3ABC
  5
3AC7
331
3B3E
  5
3B4C
331
3AFF
  5
3B0B
331
3B3A
  5
3B48
331
3AFB
  5
3B07
331
3AB8
  5
3AC3
331
3AB4
  5
3ABF
331
3B36
  5
3B44
331
3AF7
  5
3B03
331
3CB5
  5
3CB6
331
49A4
  5
49A7
331
3B32
  5
3B40
331
3AF3
  5
3AFF
331
3AB0
  5
3ABB
331
49A0
  5
49A3
331
499C
  5
499F
331
3CA9
  5
3CAA
331
4998
  5
499B
331
3B2E
  5
3B3C
331
3AEF
  5
3AFB
331
3AEB
  5
3AF6
331
3B26
  5
3B34
331
4994
  5
4997
331
3CA5
  5
3B5F
331
3B22
  5
3B30
331
4990
  5
4993
331
498C
  5
498F
331
4988
  5
498B
331
3AE7
  5
3AF2
331
3AE3
  5
3AEE
331
3B1E
  5
3B2C
331
3B1A
  5
3B28
331
3ADF
  5
3AEA
331
3ADB
  5
3AE6
331
3B16
  5
3B24
331
4984
  5
4987
331
3B12
  5
3B20
331
4980
  5
4983
331
497C
  5
497F
331
3ACF
  5
3ADA
331
3ACB
  5
3AD6
331
3B4D
  5
3B5D
331
3B0E
  5
3B1C
331
3B49
  5
3B57
331
3AC7
  5
3AD2
331
3AC3
  5
3ACE
331
3B45
  5
3B53
331
49B3
  5
49B8
331
3B41
  5
3B4F
331
3B02
  5
3B0E
331
49AF
  5
49B2
331
49AB
  5
49AE
331
3ABF
  5
3ACA
331
3ABB
  5
3AC6
331
3B3D
  5
3B4B
331
3AFE
  5
3B0A
331
3B39
  5
3B47
331
3AFA
  5
3B06
331
3AB7
  5
3AC2
331
49A7
  5
49AA
331
3AB3
  5
3ABE
331
3B35
  5
3B43
331
3AF6
  5
3B02
331
3CB4
  5
3CB5
331
49A3
  5
49A6
331
3B31
  5
3B3F
331
3AF2
  5
3AFE
331
499F
  5
49A2
331
499B
  5
499E
331
3CA8
  5
3CA9
331
3AAF
  5
3ABA
331
3B2D
  5
3B3B
331
3B29
  5
3B37
331
3AEE
  5
3AFA
331
4997
  5
499A
331
3AEA
  5
3AF5
331
3B25
  5
3B33
331
4993
  5
4996
331
3CA4
  5
3B61
331
3B21
  5
3B2F
331
498F
  5
4992
331
498B
  5
498E
331
3AE6
  5
3AF1
331
3AE2
  5
3AED
331
3B1D
  5
3B2B
331
3B19
  5
3B27
331
3ADE
  5
3AE9
331
4987
  5
498A
331
3ADA
  5
3AE5
331
3B15
  5
3B23
331
4983
  5
4986
331
3B50
  5
3B62
331
3B11
  5
3B1F
331
497F
  5
4982
331
3ACE
  5
3AD9
331
3ACA
  5
3AD5
331
3B4C
  5
3B5C
331
3B0D
  5
3B1B
331
3B48
  5
3B56
331
3AC6
  5
3AD1
331
3D2F
  5
3D30
331
3AC2
  5
3ACD
331
3B44
  5
3B52
331
49B2
  5
49B5
331
3B40
  5
3B4E
331
3B01
  5
3B0D
331
49AE
  5
49B1
331
3CBB
  5
3CBC
331
49AA
  5
49AD
331
3ABE
  5
3AC9
331
3B3C
  5
3B4A
331
3AFD
  5
3B09
331
3ABA
  5
3AC5
331
3AB6
  5
3AC1
331
3B38
  5
3B46
331
3AF9
  5
3B05
331
3CB7
  5
3CB8
331
49A6
  5
49A9
331
3B34
  5
3B42
331
3AF5
  5
3B01
331
3AB2
  5
3ABD
331
49A2
  5
49A5
331
3B30
  5
3B3E
331
3AF1
  5
3AFD
331
3CAF
  5
3CB0
331
499E
  5
49A1
331
3CAB
  5
3CAC
  0
XRECORD
  5
58D7
102
{ACAD_REACTORS
330
5898
102
}
330
5898
100
AcDbXrecord
280
     1
340
1B
  0
XRECORD
  5
58D9
102
{ACAD_REACTORS
330
589A
102
}
330
589A
100
AcDbXrecord
280
     1
340
23
  0
SORTENTSTABLE
  5
5A0B
102
{ACAD_REACTORS
330
5A0A
102
}
330
5A0A
100
AcDbSortentsTable
330
58F9
331
596A
  5
596D
331
5962
  5
5965
331
599D
  5
59A0
331
59A5
  5
59A7
331
594A
  5
594D
331
5942
  5
5943
331
5985
  5
5988
331
5969
  5
596C
331
5961
  5
5964
331
599C
  5
599F
331
59A4
  5
59A6
331
5949
  5
594C
331
5941
  5
5942
331
5984
  5
5987
331
5968
  5
596B
331
5960
  5
5963
331
599B
  5
599E
331
59A3
  5
59A5
331
5948
  5
5949
331
5940
  5
5941
331
5977
  5
597A
331
597F
  5
5982
331
5983
  5
5986
331
595F
  5
5962
331
5957
  5
595A
331
599A
  5
599D
331
59A2
  5
5930
331
5976
  5
5979
331
5937
  5
5938
331
593F
  5
5940
331
597E
  5
5981
331
5982
  5
5985
331
595E
  5
5961
331
59A1
  5
59A4
331
5956
  5
5959
331
5999
  5
599C
331
597D
  5
5980
331
5975
  5
5978
331
5936
  5
5937
331
593E
  5
593F
331
5981
  5
5984
331
595D
  5
5960
331
59A0
  5
59A3
331
5955
  5
5958
331
5998
  5
599B
331
5980
  5
5983
331
597C
  5
597F
331
5974
  5
5977
331
5935
  5
5936
331
593D
  5
593E
331
5997
  5
599A
331
598F
  5
5994
331
5954
  5
5957
331
595C
  5
595F
331
597B
  5
597E
331
5973
  5
5976
331
5934
  5
5935
331
593C
  5
593D
331
5996
  5
594A
331
598E
  5
5993
331
5953
  5
5956
331
595B
  5
595E
331
597A
  5
597D
331
5972
  5
5975
331
5933
  5
5934
331
593B
  5
593C
331
5995
  5
594B
331
598D
  5
5992
331
5952
  5
5955
331
595A
  5
595D
331
5979
  5
597C
331
5932
  5
5933
331
5971
  5
5974
331
593A
  5
593B
331
5994
  5
5999
331
598C
  5
5990
331
5951
  5
5954
331
5959
  5
595C
331
5978
  5
597B
331
59AB
  5
598F
331
5931
  5
5932
331
5970
  5
5973
331
5939
  5
593A
331
5993
  5
5998
331
598B
  5
598E
331
5950
  5
5953
331
5958
  5
595B
331
59AA
  5
5991
331
5967
  5
596A
331
5930
  5
5931
331
596F
  5
5972
331
5938
  5
5939
331
5992
  5
5997
331
598A
  5
598D
331
5947
  5
5948
331
594F
  5
5952
331
596E
  5
5971
331
5966
  5
5969
331
59A9
  5
59AB
331
5989
  5
598C
331
5946
  5
5947
331
594E
  5
5951
331
5991
  5
5996
331
596D
  5
5970
331
5965
  5
5968
331
59A8
  5
59AA
331
5988
  5
598B
331
5945
  5
5946
331
594D
  5
5950
331
5990
  5
5995
331
596C
  5
596F
331
5964
  5
5967
331
599F
  5
59A2
331
59A7
  5
59A9
331
594C
  5
594F
331
5944
  5
5945
331
5987
  5
598A
331
596B
  5
596E
331
5963
  5
5966
331
599E
  5
59A1
331
59A6
  5
59A8
331
594B
  5
594E
331
5943
  5
5944
331
5986
  5
5989
  0
XRECORD
  5
5CC6
102
{ACAD_REACTORS
330
5CC5
102
}
330
5CC5
100
AcDbXrecord
280
     1
 70
     1
  0
XRECORD
  5
5CC8
102
{ACAD_REACTORS
330
5CC5
102
}
330
5CC5
100
AcDbXrecord
280
     1
340
14
  0
XRECORD
  5
5CC9
102
{ACAD_REACTORS
330
5CC5
102
}
330
5CC5
100
AcDbXrecord
280
     1
340
14
  0
XRECORD
  5
5CC7
102
{ACAD_REACTORS
330
5CC5
102
}
330
5CC5
100
AcDbXrecord
280
     1
340
14
  0
LAYOUT
  5
1E
102
{ACAD_REACTORS
330
1A
102
}
330
1A
100
AcDbPlotSettings
  1

  2
none_device
  4
Letter_(8.50_x_11.00_Inches)
  6

 40
6.349999904632568
 41
6.349999904632568
 42
6.350006103515625
 43
6.350006103515625
 44
215.8999938964844
 45
279.3999938964844
 46
0.0
 47
0.0
 48
0.0
 49
0.0
140
0.0
141
0.0
142
1.0
143
1.0
 70
 15024
 72
     1
 73
     1
 74
     5
  7
acad.ctb
 75
    16
147
1.0
 76
     0
 77
     2
 78
   300
148
0.0
149
0.0
100
AcDbLayout
  1
Layout1
 70
     1
 71
     1
 10
0.0
 20
0.0
 11
420.0
 21
297.0
 12
0.0
 22
0.0
 32
0.0
 14
1.000000000000000E+20
 24
1.000000000000000E+20
 34
1.000000000000000E+20
 15
-1.000000000000000E+20
 25
-1.000000000000000E+20
 35
-1.000000000000000E+20
146
0.0
 13
0.0
 23
0.0
 33
0.0
 16
1.0
 26
0.0
 36
0.0
 17
0.0
 27
1.0
 37
0.0
 76
     0
330
1B
  0
LAYOUT
  5
26
102
{ACAD_REACTORS
330
1A
102
}
330
1A
100
AcDbPlotSettings
  1

  2
none_device
  4
Letter_(8.50_x_11.00_Inches)
  6

 40
6.349999904632568
 41
6.349999904632568
 42
6.350006103515625
 43
6.350006103515625
 44
215.8999938964844
 45
279.3999938964844
 46
0.0
 47
0.0
 48
0.0
 49
0.0
140
0.0
141
0.0
142
1.0
143
1.0
 70
 15024
 72
     1
 73
     1
 74
     5
  7
acad.ctb
 75
    16
147
1.0
 76
     0
 77
     2
 78
   300
148
0.0
149
0.0
100
AcDbLayout
  1
Layout2
 70
     1
 71
     2
 10
0.0
 20
0.0
 11
12.0
 21
9.0
 12
0.0
 22
0.0
 32
0.0
 14
0.0
 24
0.0
 34
0.0
 15
0.0
 25
0.0
 35
0.0
146
0.0
 13
0.0
 23
0.0
 33
0.0
 16
1.0
 26
0.0
 36
0.0
 17
0.0
 27
1.0
 37
0.0
 76
     0
330
23
  0
LAYOUT
  5
22
102
{ACAD_XDICTIONARY
360
5C68
102
}
102
{ACAD_REACTORS
330
1A
102
}
330
1A
100
AcDbPlotSettings
  1

  2
none_device
  4
none_user_media
  6

 40
3.174999952316284
 41
3.174999952316284
 42
3.17498779296875
 43
3.17498779296875
 44
593.97900390625
 45
840.9939575195313
 46
145.3145080804825
 47
207.3219848871231
 48
0.0
 49
0.0
140
0.0
141
0.0
142
1.0
143
1.0
 70
 11956
 72
     1
 73
     1
 74
     2
  7
monochrome.ctb
 75
    16
147
1.0
 76
     0
 77
     2
 78
   300
148
0.0
149
0.0
100
AcDbLayout
  1
Model
 70
     1
 71
     0
 10
0.0
 20
0.0
 11
12.0
 21
9.0
 12
0.0
 22
0.0
 32
0.0
 14
0.0
 24
0.0
 34
0.0
 15
0.0
 25
0.0
 35
0.0
146
0.0
 13
0.0
 23
0.0
 33
0.0
 16
1.0
 26
0.0
 36
0.0
 17
0.0
 27
1.0
 37
0.0
 76
     0
330
1F
331
5896
1001
ACAD_PSEXT
1000
なし
1000
なし
1000
適切ではありません
1000
新しいプロッタ環境設定名を選択しない限り、レイアウトは印刷されません。
1070
     0
  0
MATERIAL
  5
5AD
102
{ACAD_XDICTIONARY
360
5CCD
102
}
102
{ACAD_REACTORS
330
51D
102
}
330
51D
100
AcDbMaterial
  1
ByBlock
 73
     1
 78
     1
172
     1
176
     1
270
     1
274
     1
  0
MATERIAL
  5
5AC
102
{ACAD_XDICTIONARY
360
5CCB
102
}
102
{ACAD_REACTORS
330
51D
102
}
330
51D
100
AcDbMaterial
  1
ByLayer
 73
     1
 78
     1
172
     1
176
     1
270
     1
274
     1
  0
MATERIAL
  5
5AE
102
{ACAD_XDICTIONARY
360
5CCF
102
}
102
{ACAD_REACTORS
330
51D
102
}
330
51D
100
AcDbMaterial
  1
Global
 73
     1
 78
     1
172
     1
176
     1
270
     1
274
     1
  0
MLEADERSTYLE
  5
606
102
{ACAD_REACTORS
330
605
102
}
330
605
100
AcDbMLeaderStyle
170
     2
171
     1
172
     0
 90
        2
 40
0.0
 41
0.0
173
     1
 91
-1056964608
340
14
 92
       -2
290
     1
 42
2.0
291
     1
 43
0.36
  3
Standard
 44
4.0
300

342
11
174
     1
178
     6
175
     1
176
     0
 93
-1056964608
 45
4.0
292
     0
297
     0
 46
4.0
 94
-1056964608
 47
1.0
 49
1.0
140
1.0
293
     1
141
0.0
294
     1
177
     0
142
1.0
295
     0
296
     0
143
0.125
1001
ACAD_MLEADERVER
1070
     2
  0
MLEADERSTYLE
  5
719
102
{ACAD_REACTORS
330
605
102
}
330
605
100
AcDbMLeaderStyle
170
     2
171
     1
172
     0
 90
        2
 40
0.0
 41
0.0
173
     1
 91
-1056964608
340
14
 92
        9
290
     1
 42
2.0
291
     1
 43
-5.0
  3
Standard
341
159
 44
3.5
300

342
146
174
     5
178
     5
175
     1
176
     0
 93
-1023410174
 45
3.5
292
     0
297
     0
 46
4.0
 94
-1056964608
 47
1.0
 49
1.0
140
1.0
293
     1
141
0.0
294
     1
177
     0
142
1.0
295
     0
296
     0
143
0.0
1001
ACAD_MLEADERVER
1070
     2
  0
MLINESTYLE
  5
18
102
{ACAD_REACTORS
330
17
102
}
330
17
100
AcDbMlineStyle
  2
STANDARD
 70
     0
  3

 62
   256
 51
90.0
 52
90.0
 71
     2
 49
0.5
 62
   256
  6
BYLAYER
 49
-0.5
 62
   256
  6
BYLAYER
  0
ACDBPLACEHOLDER
  5
F
102
{ACAD_REACTORS
330
E
102
}
330
E
  0
SCALE
  5
5E4
102
{ACAD_REACTORS
330
5E3
102
}
330
5E3
100
AcDbScale
 70
     0
300
1:1
140
1.0
141
1.0
290
     1
  0
SCALE
  5
5E5
102
{ACAD_REACTORS
330
5E3
102
}
330
5E3
100
AcDbScale
 70
     0
300
1:2
140
1.0
141
2.0
290
     0
  0
SCALE
  5
5E6
102
{ACAD_REACTORS
330
5E3
102
}
330
5E3
100
AcDbScale
 70
     0
300
1:4
140
1.0
141
4.0
290
     0
  0
SCALE
  5
5E7
102
{ACAD_REACTORS
330
5E3
102
}
330
5E3
100
AcDbScale
 70
     0
300
1:5
140
1.0
141
5.0
290
     0
  0
SCALE
  5
5E8
102
{ACAD_REACTORS
330
5E3
102
}
330
5E3
100
AcDbScale
 70
     0
300
1:8
140
1.0
141
8.0
290
     0
  0
SCALE
  5
5E9
102
{ACAD_REACTORS
330
5E3
102
}
330
5E3
100
AcDbScale
 70
     0
300
1:10
140
1.0
141
10.0
290
     0
  0
SCALE
  5
5EA
102
{ACAD_REACTORS
330
5E3
102
}
330
5E3
100
AcDbScale
 70
     0
300
1:16
140
1.0
141
16.0
290
     0
  0
SCALE
  5
5EB
102
{ACAD_REACTORS
330
5E3
102
}
330
5E3
100
AcDbScale
 70
     0
300
1:20
140
1.0
141
20.0
290
     0
  0
SCALE
  5
5EC
102
{ACAD_REACTORS
330
5E3
102
}
330
5E3
100
AcDbScale
 70
     0
300
1:30
140
1.0
141
30.0
290
     0
  0
SCALE
  5
5ED
102
{ACAD_REACTORS
330
5E3
102
}
330
5E3
100
AcDbScale
 70
     0
300
1:40
140
1.0
141
40.0
290
     0
  0
SCALE
  5
5EE
102
{ACAD_REACTORS
330
5E3
102
}
330
5E3
100
AcDbScale
 70
     0
300
1:50
140
1.0
141
50.0
290
     0
  0
SCALE
  5
5EF
102
{ACAD_REACTORS
330
5E3
102
}
330
5E3
100
AcDbScale
 70
     0
300
1:100
140
1.0
141
100.0
290
     0
  0
SCALE
  5
5F0
102
{ACAD_REACTORS
330
5E3
102
}
330
5E3
100
AcDbScale
 70
     0
300
2:1
140
2.0
141
1.0
290
     0
  0
SCALE
  5
5F1
102
{ACAD_REACTORS
330
5E3
102
}
330
5E3
100
AcDbScale
 70
     0
300
4:1
140
4.0
141
1.0
290
     0
  0
SCALE
  5
5F2
102
{ACAD_REACTORS
330
5E3
102
}
330
5E3
100
AcDbScale
 70
     0
300
8:1
140
8.0
141
1.0
290
     0
  0
SCALE
  5
5F3
102
{ACAD_REACTORS
330
5E3
102
}
330
5E3
100
AcDbScale
 70
     0
300
10:1
140
10.0
141
1.0
290
     0
  0
SCALE
  5
5F4
102
{ACAD_REACTORS
330
5E3
102
}
330
5E3
100
AcDbScale
 70
     0
300
100:1
140
100.0
141
1.0
290
     0
  0
SCALE
  5
5F5
102
{ACAD_REACTORS
330
5E3
102
}
330
5E3
100
AcDbScale
 70
     0
300
1/128" = 1'-0"
140
0.0078125
141
12.0
290
     0
  0
SCALE
  5
5F6
102
{ACAD_REACTORS
330
5E3
102
}
330
5E3
100
AcDbScale
 70
     0
300
1/64" = 1'-0"
140
0.015625
141
12.0
290
     0
  0
SCALE
  5
5F7
102
{ACAD_REACTORS
330
5E3
102
}
330
5E3
100
AcDbScale
 70
     0
300
1/32" = 1'-0"
140
0.03125
141
12.0
290
     0
  0
SCALE
  5
5F8
102
{ACAD_REACTORS
330
5E3
102
}
330
5E3
100
AcDbScale
 70
     0
300
1/16" = 1'-0"
140
0.0625
141
12.0
290
     0
  0
SCALE
  5
5F9
102
{ACAD_REACTORS
330
5E3
102
}
330
5E3
100
AcDbScale
 70
     0
300
3/32" = 1'-0"
140
0.09375
141
12.0
290
     0
  0
SCALE
  5
5FA
102
{ACAD_REACTORS
330
5E3
102
}
330
5E3
100
AcDbScale
 70
     0
300
1/8" = 1'-0"
140
0.125
141
12.0
290
     0
  0
SCALE
  5
5FB
102
{ACAD_REACTORS
330
5E3
102
}
330
5E3
100
AcDbScale
 70
     0
300
3/16" = 1'-0"
140
0.1875
141
12.0
290
     0
  0
SCALE
  5
5FC
102
{ACAD_REACTORS
330
5E3
102
}
330
5E3
100
AcDbScale
 70
     0
300
1/4" = 1'-0"
140
0.25
141
12.0
290
     0
  0
SCALE
  5
5FD
102
{ACAD_REACTORS
330
5E3
102
}
330
5E3
100
AcDbScale
 70
     0
300
3/8" = 1'-0"
140
0.375
141
12.0
290
     0
  0
SCALE
  5
5FE
102
{ACAD_REACTORS
330
5E3
102
}
330
5E3
100
AcDbScale
 70
     0
300
1/2" = 1'-0"
140
0.5
141
12.0
290
     0
  0
SCALE
  5
5FF
102
{ACAD_REACTORS
330
5E3
102
}
330
5E3
100
AcDbScale
 70
     0
300
3/4" = 1'-0"
140
0.75
141
12.0
290
     0
  0
SCALE
  5
600
102
{ACAD_REACTORS
330
5E3
102
}
330
5E3
100
AcDbScale
 70
     0
300
1" = 1'-0"
140
1.0
141
12.0
290
     0
  0
SCALE
  5
601
102
{ACAD_REACTORS
330
5E3
102
}
330
5E3
100
AcDbScale
 70
     0
300
1-1/2" = 1'-0"
140
1.5
141
12.0
290
     0
  0
SCALE
  5
602
102
{ACAD_REACTORS
330
5E3
102
}
330
5E3
100
AcDbScale
 70
     0
300
3" = 1'-0"
140
3.0
141
12.0
290
     0
  0
SCALE
  5
603
102
{ACAD_REACTORS
330
5E3
102
}
330
5E3
100
AcDbScale
 70
     0
300
6" = 1'-0"
140
6.0
141
12.0
290
     0
  0
SCALE
  5
604
102
{ACAD_REACTORS
330
5E3
102
}
330
5E3
100
AcDbScale
 70
     0
300
1'-0" = 1'-0"
140
12.0
141
12.0
290
     0
  0
TABLESTYLE
  5
520
102
{ACAD_XDICTIONARY
360
624
102
}
102
{ACAD_REACTORS
330
51F
102
}
330
51F
100
AcDbTableStyle
  3
Standard
 70
     0
 71
     0
 40
1.5
 41
1.5
280
     0
281
     0
  7
STANDARD
140
4.5
170
     2
 62
     0
 63
     7
283
     0
274
    -2
284
     1
 64
     0
275
    -2
285
     1
 65
     0
276
    -2
286
     1
 66
     0
277
    -2
287
     1
 67
     0
278
    -2
288
     1
 68
     0
279
    -2
289
     1
 69
     0
  7
STANDARD
140
6.0
170
     5
 62
     0
 63
     7
283
     0
274
    -2
284
     1
 64
     0
275
    -2
285
     1
 65
     0
276
    -2
286
     1
 66
     0
277
    -2
287
     1
 67
     0
278
    -2
288
     1
 68
     0
279
    -2
289
     1
 69
     0
  7
STANDARD
140
4.5
170
     5
 62
     0
 63
     7
283
     0
274
    -2
284
     1
 64
     0
275
    -2
285
     1
 65
     0
276
    -2
286
     1
 66
     0
277
    -2
287
     1
 67
     0
278
    -2
288
     1
 68
     0
279
    -2
289
     1
 69
     0
  0
VISUALSTYLE
  5
5B5
102
{ACAD_XDICTIONARY
360
5CDB
102
}
102
{ACAD_REACTORS
330
5AF
102
}
330
5AF
100
AcDbVisualStyle
  2
2dWireframe
 70
     4
 71
     0
 72
     2
 73
     0
 90
        0
 40
-0.6
 41
-30.0
 62
     5
 63
     7
 74
     1
 91
        4
 64
     7
 65
   257
 75
     1
175
     1
 42
1.0
 92
        0
 66
   257
 43
1.0
 76
     1
 77
     6
 78
     2
 67
     7
 79
     5
170
     0
171
     0
290
     0
174
     0
 93
        1
 44
0.0
173
     0
291
     0
 45
0.0
1001
ACAD
1000
AcDbSavedByObjectVersion
1070
     0
  0
VISUALSTYLE
  5
5B7
102
{ACAD_XDICTIONARY
360
5CDF
102
}
102
{ACAD_REACTORS
330
5AF
102
}
330
5AF
100
AcDbVisualStyle
  2
3D Hidden
 70
     6
 71
     1
 72
     2
 73
     2
 90
        0
 40
-0.6
 41
-30.0
 62
     5
 63
     7
 74
     2
 91
        2
 64
     7
 65
   257
 75
     2
175
     1
 42
40.0
 92
        0
 66
   257
 43
1.0
 76
     1
 77
     6
 78
     2
 67
     7
 79
     3
170
     0
171
     0
290
     0
174
     0
 93
        1
 44
0.0
173
     0
291
     0
 45
0.0
1001
ACAD
1000
AcDbSavedByObjectVersion
1070
     0
  0
VISUALSTYLE
  5
5B6
102
{ACAD_XDICTIONARY
360
5CDD
102
}
102
{ACAD_REACTORS
330
5AF
102
}
330
5AF
100
AcDbVisualStyle
  2
3dWireframe
 70
     5
 71
     0
 72
     2
 73
     0
 90
        0
 40
-0.6
 41
-30.0
 62
     5
 63
     7
 74
     1
 91
        4
 64
     7
 65
   257
 75
     1
175
     1
 42
1.0
 92
        0
 66
   257
 43
1.0
 76
     1
 77
     6
 78
     2
 67
     7
 79
     5
170
     0
171
     0
290
     0
174
     0
 93
        1
 44
0.0
173
     0
291
     0
 45
0.0
1001
ACAD
1000
AcDbSavedByObjectVersion
1070
     0
  0
VISUALSTYLE
  5
5B4
102
{ACAD_XDICTIONARY
360
5CD9
102
}
102
{ACAD_REACTORS
330
5AF
102
}
330
5AF
100
AcDbVisualStyle
  2
Basic
 70
     7
 71
     1
 72
     0
 73
     1
 90
        0
 40
-0.6
 41
-30.0
 62
     5
 63
     7
 74
     0
 91
        4
 64
     7
 65
   257
 75
     1
175
     1
 42
1.0
 92
        8
 66
     7
 43
1.0
 76
     1
 77
     6
 78
     2
 67
     7
 79
     5
170
     0
171
     0
290
     0
174
     0
 93
        1
 44
0.0
173
     0
291
     1
 45
0.0
1001
ACAD
1000
AcDbSavedByObjectVersion
1070
     0
  0
VISUALSTYLE
  5
5BB
102
{ACAD_XDICTIONARY
360
5CE7
102
}
102
{ACAD_REACTORS
330
5AF
102
}
330
5AF
100
AcDbVisualStyle
  2
Brighten
 70
    12
 71
     2
 72
     2
 73
     0
 90
        0
 40
-0.6
 41
-30.0
 62
     5
 63
     7
 74
     1
 91
        4
 64
     7
 65
   257
 75
     1
175
     1
 42
1.0
 92
        8
 66
     7
 43
1.0
 76
     1
 77
     6
 78
     2
 67
     7
 79
     5
170
     0
171
     0
290
     0
174
     0
 93
        1
 44
50.0
173
     0
291
     1
 45
0.0
1001
ACAD
1000
AcDbSavedByObjectVersion
1070
     0
  0
VISUALSTYLE
  5
5BF
102
{ACAD_XDICTIONARY
360
5CEF
102
}
102
{ACAD_REACTORS
330
5AF
102
}
330
5AF
100
AcDbVisualStyle
  2
ColorChange
 70
    16
 71
     2
 72
     2
 73
     3
 90
        0
 40
-0.6
 41
-30.0
 62
     5
 63
     8
 74
     1
 91
        4
 64
     7
 65
   257
 75
     1
175
     1
 42
1.0
 92
        8
 66
     8
 43
1.0
 76
     1
 77
     6
 78
     2
 67
     7
 79
     5
170
     0
171
     0
290
     0
174
     0
 93
        1
 44
0.0
173
     0
291
     1
 45
0.0
1001
ACAD
1000
AcDbSavedByObjectVersion
1070
     0
  0
VISUALSTYLE
  5
5B8
102
{ACAD_XDICTIONARY
360
5CE1
102
}
102
{ACAD_REACTORS
330
5AF
102
}
330
5AF
100
AcDbVisualStyle
  2
Conceptual
 70
     9
 71
     3
 72
     2
 73
     0
 90
        0
 40
-0.6
 41
-30.0
 62
     5
 63
     7
 74
     2
 91
        2
 64
     7
 65
   257
 75
     1
175
     1
 42
40.0
 92
        8
 66
     7
 43
1.0
 76
     1
 77
     6
 78
     2
 67
     7
 79
     3
170
     0
171
     0
290
     0
174
     0
 93
        1
 44
0.0
173
     0
291
     0
 45
0.0
1001
ACAD
1000
AcDbSavedByObjectVersion
1070
     0
  0
VISUALSTYLE
  5
5BA
102
{ACAD_XDICTIONARY
360
5CE5
102
}
102
{ACAD_REACTORS
330
5AF
102
}
330
5AF
100
AcDbVisualStyle
  2
Dim
 70
    11
 71
     2
 72
     2
 73
     0
 90
        0
 40
-0.6
 41
-30.0
 62
     5
 63
     7
 74
     1
 91
        4
 64
     7
 65
   257
 75
     1
175
     1
 42
1.0
 92
        8
 66
     7
 43
1.0
 76
     1
 77
     6
 78
     2
 67
     7
 79
     5
170
     0
171
     0
290
     0
174
     0
 93
        1
 44
-50.0
173
     0
291
     1
 45
0.0
1001
ACAD
1000
AcDbSavedByObjectVersion
1070
     0
  0
VISUALSTYLE
  5
58F4
102
{ACAD_XDICTIONARY
360
5D03
102
}
102
{ACAD_REACTORS
330
5AF
102
}
330
5AF
100
AcDbVisualStyle
  2
EdgeColorOff
 70
    22
 71
     2
 72
     2
 73
     0
 90
        0
 40
-0.6
 41
-30.0
 62
     5
 63
     7
421
 16777215
 74
     1
 91
        4
 64
     7
 65
   257
 75
     1
175
     1
 42
1.0
 92
        8
 66
     7
 43
1.0
 76
     1
 77
     6
 78
     2
 67
     7
 79
     5
170
     0
171
     0
290
     0
174
     0
 93
        1
 44
0.0
173
     0
291
     1
 45
0.0
1001
ACAD
1000
AcDbSavedByObjectVersion
1070
     0
  0
VISUALSTYLE
  5
5BE
102
{ACAD_XDICTIONARY
360
5CED
102
}
102
{ACAD_REACTORS
330
5AF
102
}
330
5AF
100
AcDbVisualStyle
  2
Facepattern
 70
    15
 71
     2
 72
     2
 73
     0
 90
        0
 40
-0.6
 41
-30.0
 62
     5
 63
     7
 74
     1
 91
        4
 64
     7
 65
   257
 75
     1
175
     1
 42
1.0
 92
        8
 66
     7
 43
1.0
 76
     1
 77
     6
 78
     2
 67
     7
 79
     5
170
     0
171
     0
290
     0
174
     0
 93
        1
 44
0.0
173
     0
291
     1
 45
0.0
1001
ACAD
1000
AcDbSavedByObjectVersion
1070
     0
  0
VISUALSTYLE
  5
5B0
102
{ACAD_XDICTIONARY
360
5CD1
102
}
102
{ACAD_REACTORS
330
5AF
102
}
330
5AF
100
AcDbVisualStyle
  2
Flat
 70
     0
 71
     2
 72
     1
 73
     1
 90
        2
 40
-0.6
 41
30.0
 62
     5
 63
     7
 74
     0
 91
        4
 64
     7
 65
   257
 75
     1
175
     1
 42
1.0
 92
        8
 66
     7
 43
1.0
 76
     1
 77
     6
 78
     2
 67
     7
 79
     5
170
     0
171
     0
290
     0
174
     0
 93
       13
 44
0.0
173
     0
291
     1
 45
0.0
1001
ACAD
1000
AcDbSavedByObjectVersion
1070
     0
  0
VISUALSTYLE
  5
5B1
102
{ACAD_XDICTIONARY
360
5CD3
102
}
102
{ACAD_REACTORS
330
5AF
102
}
330
5AF
100
AcDbVisualStyle
  2
FlatWithEdges
 70
     1
 71
     2
 72
     1
 73
     1
 90
        2
 40
-0.6
 41
30.0
 62
     5
 63
     7
 74
     1
 91
        4
 64
     7
 65
   257
 75
     1
175
     1
 42
1.0
 92
        0
 66
   257
 43
1.0
 76
     1
 77
     6
 78
     2
 67
     7
 79
     5
170
     0
171
     0
290
     0
174
     0
 93
       13
 44
0.0
173
     0
291
     1
 45
0.0
1001
ACAD
1000
AcDbSavedByObjectVersion
1070
     0
  0
VISUALSTYLE
  5
5B2
102
{ACAD_XDICTIONARY
360
5CD5
102
}
102
{ACAD_REACTORS
330
5AF
102
}
330
5AF
100
AcDbVisualStyle
  2
Gouraud
 70
     2
 71
     2
 72
     2
 73
     1
 90
        2
 40
-0.6
 41
30.0
 62
     5
 63
     7
 74
     0
 91
        4
 64
     7
 65
   257
 75
     1
175
     1
 42
1.0
 92
        0
 66
     7
 43
1.0
 76
     1
 77
     6
 78
     2
 67
     7
 79
     5
170
     0
171
     0
290
     0
174
     0
 93
       13
 44
0.0
173
     0
291
     1
 45
0.0
1001
ACAD
1000
AcDbSavedByObjectVersion
1070
     0
  0
VISUALSTYLE
  5
5B3
102
{ACAD_XDICTIONARY
360
5CD7
102
}
102
{ACAD_REACTORS
330
5AF
102
}
330
5AF
100
AcDbVisualStyle
  2
GouraudWithEdges
 70
     3
 71
     2
 72
     2
 73
     1
 90
        2
 40
-0.6
 41
30.0
 62
     5
 63
     7
 74
     1
 91
        4
 64
     7
 65
   257
 75
     1
175
     1
 42
1.0
 92
        0
 66
   257
 43
1.0
 76
     1
 77
     6
 78
     2
 67
     7
 79
     5
170
     0
171
     0
290
     0
174
     0
 93
       13
 44
0.0
173
     0
291
     1
 45
0.0
1001
ACAD
1000
AcDbSavedByObjectVersion
1070
     0
  0
VISUALSTYLE
  5
58EC
102
{ACAD_XDICTIONARY
360
5CF3
102
}
102
{ACAD_REACTORS
330
5AF
102
}
330
5AF
100
AcDbVisualStyle
  2
Hidden
 70
     6
 71
     1
 72
     2
 73
     2
 90
        0
 40
-0.6
 41
-30.0
 62
     5
 63
     7
421
 16777215
 74
     2
 91
        2
 64
     7
 65
   257
 75
     2
175
     1
 42
40.0
 92
        0
 66
   257
 43
1.0
 76
     1
 77
     6
 78
     2
 67
     7
 79
     3
170
     0
171
     0
290
     0
174
     0
 93
        1
 44
0.0
173
     0
291
     0
 45
0.0
1001
ACAD
1000
AcDbSavedByObjectVersion
1070
     0
  0
VISUALSTYLE
  5
58F2
102
{ACAD_XDICTIONARY
360
5CFF
102
}
102
{ACAD_REACTORS
330
5AF
102
}
330
5AF
100
AcDbVisualStyle
  2
JitterOff
 70
    20
 71
     2
 72
     2
 73
     0
 90
        0
 40
-0.6
 41
-30.0
 62
     5
 63
     7
421
 16777215
 74
     1
 91
        4
 64
     7
 65
   257
 75
     1
175
     1
 42
1.0
 92
       10
 66
     7
 43
1.0
 76
     1
 77
     6
 78
     2
 67
     7
 79
     5
170
     0
171
     0
290
     0
174
     0
 93
        1
 44
0.0
173
     0
291
     1
 45
0.0
1001
ACAD
1000
AcDbSavedByObjectVersion
1070
     0
  0
VISUALSTYLE
  5
5BD
102
{ACAD_XDICTIONARY
360
5CEB
102
}
102
{ACAD_REACTORS
330
5AF
102
}
330
5AF
100
AcDbVisualStyle
  2
Linepattern
 70
    14
 71
     2
 72
     2
 73
     0
 90
        0
 40
-0.6
 41
-30.0
 62
     5
 63
     7
 74
     1
 91
        4
 64
     7
 65
   257
 75
     7
175
     7
 42
1.0
 92
        8
 66
     7
 43
1.0
 76
     1
 77
     6
 78
     2
 67
     7
 79
     5
170
     0
171
     0
290
     0
174
     0
 93
        1
 44
0.0
173
     0
291
     1
 45
0.0
1001
ACAD
1000
AcDbSavedByObjectVersion
1070
     0
  0
VISUALSTYLE
  5
58F3
102
{ACAD_XDICTIONARY
360
5D01
102
}
102
{ACAD_REACTORS
330
5AF
102
}
330
5AF
100
AcDbVisualStyle
  2
OverhangOff
 70
    21
 71
     2
 72
     2
 73
     0
 90
        0
 40
-0.6
 41
-30.0
 62
     5
 63
     7
421
 16777215
 74
     1
 91
        4
 64
     7
 65
   257
 75
     1
175
     1
 42
1.0
 92
        9
 66
     7
 43
1.0
 76
     1
 77
     6
 78
     2
 67
     7
 79
     5
170
     0
171
     0
290
     0
174
     0
 93
        1
 44
0.0
173
     0
291
     1
 45
0.0
1001
ACAD
1000
AcDbSavedByObjectVersion
1070
     0
  0
VISUALSTYLE
  5
5B9
102
{ACAD_XDICTIONARY
360
5CE3
102
}
102
{ACAD_REACTORS
330
5AF
102
}
330
5AF
100
AcDbVisualStyle
  2
Realistic
 70
     8
 71
     2
 72
     2
 73
     0
 90
        0
 40
-0.6
 41
-30.0
 62
     5
 63
     7
 74
     1
 91
        0
 64
     7
 65
   257
 75
     1
175
     1
 42
1.0
 92
        8
 66
     8
 43
1.0
 76
     1
 77
     6
 78
     2
 67
     7
 79
     5
170
     0
171
     0
290
     0
174
     0
 93
       13
 44
0.0
173
     0
291
     0
 45
0.0
1001
ACAD
1000
AcDbSavedByObjectVersion
1070
     0
  0
VISUALSTYLE
  5
58F1
102
{ACAD_XDICTIONARY
360
5CFD
102
}
102
{ACAD_REACTORS
330
5AF
102
}
330
5AF
100
AcDbVisualStyle
  2
Shaded
 70
    27
 71
     2
 72
     2
 73
     1
 90
        2
 40
-0.6
 41
30.0
 62
     5
 63
     7
421
 16777215
 74
     0
 91
        4
 64
     7
 65
   257
 75
     1
175
     1
 42
1.0
 92
        8
 66
   257
 43
1.0
 76
     1
 77
     6
 78
     2
 67
     8
425
  7895160
 79
     3
170
     0
171
     0
290
     0
174
     0
 93
        5
 44
0.0
173
     0
291
     0
 45
0.0
1001
ACAD
1000
AcDbSavedByObjectVersion
1070
     0
  0
VISUALSTYLE
  5
58F0
102
{ACAD_XDICTIONARY
360
5CFB
102
}
102
{ACAD_REACTORS
330
5AF
102
}
330
5AF
100
AcDbVisualStyle
  2
Shaded with edges
 70
    26
 71
     2
 72
     2
 73
     1
 90
        2
 40
-0.6
 41
30.0
 62
     5
 63
     7
421
 16777215
 74
     1
 91
       10
 64
     7
 65
   257
 75
     2
175
     1
 42
1.0
 92
        8
 66
   257
 43
1.0
 76
     1
 77
     6
 78
     2
 67
     7
 79
     3
170
     0
171
     0
290
     0
174
     0
 93
        5
 44
0.0
173
     0
291
     0
 45
0.0
1001
ACAD
1000
AcDbSavedByObjectVersion
1070
     0
  0
VISUALSTYLE
  5
58ED
102
{ACAD_XDICTIONARY
360
5CF5
102
}
102
{ACAD_REACTORS
330
5AF
102
}
330
5AF
100
AcDbVisualStyle
  2
Shades of Gray
 70
    23
 71
     2
 72
     2
 73
     3
 90
        0
 40
-0.6
 41
-30.0
 62
     5
 63
     7
421
 16777215
 74
     2
 91
        2
 64
     7
 65
     7
 75
     1
175
     1
 42
40.0
 92
        8
 66
     7
 43
1.0
 76
     1
 77
     6
 78
     2
 67
     7
 79
     3
170
     0
171
     0
290
     0
174
     0
 93
        1
 44
0.0
173
     0
291
     0
 45
0.0
1001
ACAD
1000
AcDbSavedByObjectVersion
1070
     0
  0
VISUALSTYLE
  5
58EE
102
{ACAD_XDICTIONARY
360
5CF7
102
}
102
{ACAD_REACTORS
330
5AF
102
}
330
5AF
100
AcDbVisualStyle
  2
Sketchy
 70
    24
 71
     1
 72
     2
 73
     2
 90
        0
 40
-0.6
 41
-30.0
 62
     5
 63
     7
421
 16777215
 74
     2
 91
        2
 64
     7
 65
     7
 75
     1
175
     1
 42
40.0
 92
       11
 66
     7
 43
1.0
 76
     1
 77
     6
 78
     2
 67
     7
 79
     6
170
     0
171
     0
290
     0
174
     0
 93
        1
 44
0.0
173
     0
291
     0
 45
0.0
1001
ACAD
1000
AcDbSavedByObjectVersion
1070
     0
  0
VISUALSTYLE
  5
5BC
102
{ACAD_XDICTIONARY
360
5CE9
102
}
102
{ACAD_REACTORS
330
5AF
102
}
330
5AF
100
AcDbVisualStyle
  2
Thicken
 70
    13
 71
     2
 72
     2
 73
     0
 90
        0
 40
-0.6
 41
-30.0
 62
     5
 63
     7
 74
     1
 91
        4
 64
     7
 65
   257
 75
     1
175
     1
 42
1.0
 92
       12
 66
     7
 43
1.0
 76
     1
 77
     6
 78
     2
 67
     7
 79
     5
170
     0
171
     0
290
     0
174
     0
 93
        1
 44
0.0
173
     0
291
     1
 45
0.0
1001
ACAD
1000
AcDbSavedByObjectVersion
1070
     0
  0
VISUALSTYLE
  5
58EB
102
{ACAD_XDICTIONARY
360
5CF1
102
}
102
{ACAD_REACTORS
330
5AF
102
}
330
5AF
100
AcDbVisualStyle
  2
Wireframe
 70
     5
 71
     0
 72
     2
 73
     0
 90
        0
 40
-0.6
 41
-30.0
 62
     5
 63
     7
421
 16777215
 74
     1
 91
        4
 64
     7
 65
   257
 75
     1
175
     1
 42
1.0
 92
        0
 66
   257
 43
1.0
 76
     1
 77
     6
 78
     2
 67
     7
 79
     3
170
     0
171
     0
290
     0
174
     0
 93
        1
 44
0.0
173
     0
291
     0
 45
0.0
1001
ACAD
1000
AcDbSavedByObjectVersion
1070
     0
  0
VISUALSTYLE
  5
58EF
102
{ACAD_XDICTIONARY
360
5CF9
102
}
102
{ACAD_REACTORS
330
5AF
102
}
330
5AF
100
AcDbVisualStyle
  2
X-Ray
 70
    25
 71
     2
 72
     2
 73
     1
 90
        1
 40
0.5
 41
-30.0
 62
     5
 63
     7
421
 16777215
 74
     1
 91
        0
 64
     7
 65
   257
 75
     1
175
     1
 42
1.0
 92
        8
 66
     7
 43
1.0
 76
     1
 77
     6
 78
     2
 67
     7
 79
     3
170
     0
171
     0
290
     0
174
     0
 93
       13
 44
0.0
173
     0
291
     0
 45
0.0
1001
ACAD
1000
AcDbSavedByObjectVersion
1070
     0
  0
XRECORD
  5
58BA
102
{ACAD_REACTORS
330
58B0
102
}
330
58B0
100
AcDbXrecord
280
     1
 90
        0
  0
XRECORD
  5
58BE
102
{ACAD_REACTORS
330
58B0
102
}
330
58B0
100
AcDbXrecord
280
     1
1000
DSTYLE
1002
{
1070
    79
 70
     2
1070
   341
340
159
1070
   342
340
159
1070
   371
 70
     9
1070
   372
 70
     9
1002
}
  0
XRECORD
  5
58BB
102
{ACAD_REACTORS
330
58B0
102
}
330
58B0
100
AcDbXrecord
280
     1
  1
{E2EE2984-40DB-4795-A236-B944694F9C34}
  0
XRECORD
  5
58B3
102
{ACAD_REACTORS
330
58B0
102
}
330
58B0
100
AcDbXrecord
280
     1
  1

  0
XRECORD
  5
58B9
102
{ACAD_REACTORS
330
58B0
102
}
330
58B0
100
AcDbXrecord
280
     1
 90
        4
  0
XRECORD
  5
58B5
102
{ACAD_REACTORS
330
58B0
102
}
330
58B0
100
AcDbXrecord
280
     1
340
1A
  0
XRECORD
  5
58B8
102
{ACAD_REACTORS
330
58B0
102
}
330
58B0
100
AcDbXrecord
280
     1
 90
    10781
  0
XRECORD
  5
58B6
102
{ACAD_REACTORS
330
58B0
102
}
330
58B0
100
AcDbXrecord
280
     1
340
19
  0
XRECORD
  5
58B7
102
{ACAD_REACTORS
330
58B0
102
}
330
58B0
100
AcDbXrecord
280
     1
340
E
  0
XRECORD
  5
58BD
102
{ACAD_REACTORS
330
58B0
102
}
330
58B0
100
AcDbXrecord
280
     1
 40
0.0
  0
XRECORD
  5
58C1
102
{ACAD_REACTORS
330
58B0
102
}
330
58B0
100
AcDbXrecord
280
     1
340
0
  0
XRECORD
  5
58C7
102
{ACAD_REACTORS
330
58B0
102
}
330
58B0
100
AcDbXrecord
280
     1
 10
0.0
 20
0.0
 30
0.0
  0
XRECORD
  5
58C3
102
{ACAD_REACTORS
330
58B0
102
}
330
58B0
100
AcDbXrecord
280
     1
 10
0.0
 20
0.0
 30
0.0
  0
XRECORD
  5
58C6
102
{ACAD_REACTORS
330
58B0
102
}
330
58B0
100
AcDbXrecord
280
     1
 10
0.0
 20
0.0
 30
0.0
  0
XRECORD
  5
58C4
102
{ACAD_REACTORS
330
58B0
102
}
330
58B0
100
AcDbXrecord
280
     1
 10
0.0
 20
0.0
 30
0.0
  0
XRECORD
  5
58C5
102
{ACAD_REACTORS
330
58B0
102
}
330
58B0
100
AcDbXrecord
280
     1
 10
0.0
 20
0.0
 30
0.0
  0
XRECORD
  5
58C2
102
{ACAD_REACTORS
330
58B0
102
}
330
58B0
100
AcDbXrecord
280
     1
 10
0.0
 20
0.0
 30
0.0
  0
XRECORD
  5
58BF
102
{ACAD_REACTORS
330
58B0
102
}
330
58B0
100
AcDbXrecord
280
     1
340
0
  0
XRECORD
  5
58C0
102
{ACAD_REACTORS
330
58B0
102
}
330
58B0
100
AcDbXrecord
280
     1
 70
     0
  0
XRECORD
  5
58B4
102
{ACAD_REACTORS
330
58B0
102
}
330
58B0
100
AcDbXrecord
280
     1
  1
MPP.ctb
  0
XRECORD
  5
58B1
102
{ACAD_REACTORS
330
58B0
102
}
330
58B0
100
AcDbXrecord
280
     1
 90
        1
  0
XRECORD
  5
58B2
102
{ACAD_REACTORS
330
58B0
102
}
330
58B0
100
AcDbXrecord
280
     1
 90
       70
  0
XRECORD
  5
58CA
102
{ACAD_REACTORS
330
58B0
102
}
330
58B0
100
AcDbXrecord
280
     1
340
0
  0
XRECORD
  5
58D0
102
{ACAD_REACTORS
330
58B0
102
}
330
58B0
100
AcDbXrecord
280
     1
 10
0.0
 20
0.0
 30
0.0
  0
XRECORD
  5
58CC
102
{ACAD_REACTORS
330
58B0
102
}
330
58B0
100
AcDbXrecord
280
     1
 10
0.0
 20
0.0
 30
0.0
  0
XRECORD
  5
58CF
102
{ACAD_REACTORS
330
58B0
102
}
330
58B0
100
AcDbXrecord
280
     1
 10
0.0
 20
0.0
 30
0.0
  0
XRECORD
  5
58CD
102
{ACAD_REACTORS
330
58B0
102
}
330
58B0
100
AcDbXrecord
280
     1
 10
0.0
 20
0.0
 30
0.0
  0
XRECORD
  5
58CE
102
{ACAD_REACTORS
330
58B0
102
}
330
58B0
100
AcDbXrecord
280
     1
 10
0.0
 20
0.0
 30
0.0
  0
XRECORD
  5
58CB
102
{ACAD_REACTORS
330
58B0
102
}
330
58B0
100
AcDbXrecord
280
     1
 10
0.0
 20
0.0
 30
0.0
  0
XRECORD
  5
58C8
102
{ACAD_REACTORS
330
58B0
102
}
330
58B0
100
AcDbXrecord
280
     1
340
0
  0
XRECORD
  5
58C9
102
{ACAD_REACTORS
330
58B0
102
}
330
58B0
100
AcDbXrecord
280
     1
 70
     0
  0
XRECORD
  5
58BC
102
{ACAD_REACTORS
330
58B0
102
}
330
58B0
100
AcDbXrecord
280
     1
  1
{EDE70415-3D52-43A0-A8FD-898B5C8D8C0E}
  0
DICTIONARYVAR
  5
629
102
{ACAD_REACTORS
330
34
102
}
330
34
100
DictionaryVariables
280
     0
  1
1:1
  0
DICTIONARYVAR
  5
627
102
{ACAD_REACTORS
330
34
102
}
330
34
100
DictionaryVariables
280
     0
  1
TSKE
  0
DICTIONARYVAR
  5
5AA
102
{ACAD_REACTORS
330
34
102
}
330
34
100
DictionaryVariables
280
     0
  1
STANDARD
  0
DICTIONARYVAR
  5
AC
102
{ACAD_REACTORS
330
34
102
}
330
34
100
DictionaryVariables
280
     0
  1
2
  0
DICTIONARYVAR
  5
35
102
{ACAD_REACTORS
330
34
102
}
330
34
100
DictionaryVariables
280
     0
  1
0
  0
DICTIONARYVAR
  5
6C0
102
{ACAD_REACTORS
330
34
102
}
330
34
100
DictionaryVariables
280
     0
  1
1
  0
DICTIONARYVAR
  5
6C1
102
{ACAD_REACTORS
330
34
102
}
330
34
100
DictionaryVariables
280
     0
  1
15
  0
DICTIONARYVAR
  5
62A
102
{ACAD_REACTORS
330
34
102
}
330
34
100
DictionaryVariables
280
     0
  1
0
  0
DICTIONARYVAR
  5
628
102
{ACAD_REACTORS
330
34
102
}
330
34
100
DictionaryVariables
280
     0
  1
0
  0
DICTIONARYVAR
  5
5326
102
{ACAD_REACTORS
330
34
102
}
330
34
100
DictionaryVariables
280
     0
  1
127
  0
DICTIONARYVAR
  5
5CC2
102
{ACAD_REACTORS
330
34
102
}
330
34
100
DictionaryVariables
280
     0
  1
2
  0
DICTIONARY
  5
4A
102
{ACAD_REACTORS
330
49
102
}
330
49
100
AcDbDictionary
281
     1
  0
XRECORD
  5
56E
102
{ACAD_REACTORS
330
49
102
}
330
49
100
AcDbXrecord
280
     1
 90
-1023410169
  0
XRECORD
  5
2E9
102
{ACAD_REACTORS
330
2E7
102
}
330
2E7
100
AcDbXrecord
280
     1
330
0
330
0
330
0
330
0
  0
DICTIONARY
  5
5C68
330
22
100
AcDbDictionary
280
     1
281
     1
  3
ADSK_XREC_LAYOUTTHUMBNAIL
360
5C69
  0
DICTIONARY
  5
5CCD
330
5AD
100
AcDbDictionary
280
     1
281
     1
  3
ACAD_XREC_ROUNDTRIP
360
5CCE
  0
DICTIONARY
  5
5CCB
330
5AC
100
AcDbDictionary
280
     1
281
     1
  3
ACAD_XREC_ROUNDTRIP
360
5CCC
  0
DICTIONARY
  5
5CCF
330
5AE
100
AcDbDictionary
280
     1
281
     1
  3
ACAD_XREC_ROUNDTRIP
360
5CD0
  0
DICTIONARY
  5
624
330
520
100
AcDbDictionary
280
     1
281
     1
  3
ACAD_ROUNDTRIP_2008_TABLESTYLE_CELLSTYLEMAP
360
5CC3
  3
ACAD_XREC_ROUNDTRIP
360
5CCA
  0
DICTIONARY
  5
5CDB
330
5B5
100
AcDbDictionary
280
     1
281
     1
  3
ACAD_XREC_ROUNDTRIP
360
5CDC
  0
DICTIONARY
  5
5CDF
330
5B7
100
AcDbDictionary
280
     1
281
     1
  3
ACAD_XREC_ROUNDTRIP
360
5CE0
  0
DICTIONARY
  5
5CDD
330
5B6
100
AcDbDictionary
280
     1
281
     1
  3
ACAD_XREC_ROUNDTRIP
360
5CDE
  0
DICTIONARY
  5
5CD9
330
5B4
100
AcDbDictionary
280
     1
281
     1
  3
ACAD_XREC_ROUNDTRIP
360
5CDA
  0
DICTIONARY
  5
5CE7
330
5BB
100
AcDbDictionary
280
     1
281
     1
  3
ACAD_XREC_ROUNDTRIP
360
5CE8
  0
DICTIONARY
  5
5CEF
330
5BF
100
AcDbDictionary
280
     1
281
     1
  3
ACAD_XREC_ROUNDTRIP
360
5CF0
  0
DICTIONARY
  5
5CE1
330
5B8
100
AcDbDictionary
280
     1
281
     1
  3
ACAD_XREC_ROUNDTRIP
360
5CE2
  0
DICTIONARY
  5
5CE5
330
5BA
100
AcDbDictionary
280
     1
281
     1
  3
ACAD_XREC_ROUNDTRIP
360
5CE6
  0
DICTIONARY
  5
5D03
330
58F4
100
AcDbDictionary
280
     1
281
     1
  3
ACAD_XREC_ROUNDTRIP
360
5D04
  0
DICTIONARY
  5
5CED
330
5BE
100
AcDbDictionary
280
     1
281
     1
  3
ACAD_XREC_ROUNDTRIP
360
5CEE
  0
DICTIONARY
  5
5CD1
330
5B0
100
AcDbDictionary
280
     1
281
     1
  3
ACAD_XREC_ROUNDTRIP
360
5CD2
  0
DICTIONARY
  5
5CD3
330
5B1
100
AcDbDictionary
280
     1
281
     1
  3
ACAD_XREC_ROUNDTRIP
360
5CD4
  0
DICTIONARY
  5
5CD5
330
5B2
100
AcDbDictionary
280
     1
281
     1
  3
ACAD_XREC_ROUNDTRIP
360
5CD6
  0
DICTIONARY
  5
5CD7
330
5B3
100
AcDbDictionary
280
     1
281
     1
  3
ACAD_XREC_ROUNDTRIP
360
5CD8
  0
DICTIONARY
  5
5CF3
330
58EC
100
AcDbDictionary
280
     1
281
     1
  3
ACAD_XREC_ROUNDTRIP
360
5CF4
  0
DICTIONARY
  5
5CFF
330
58F2
100
AcDbDictionary
280
     1
281
     1
  3
ACAD_XREC_ROUNDTRIP
360
5D00
  0
DICTIONARY
  5
5CEB
330
5BD
100
AcDbDictionary
280
     1
281
     1
  3
ACAD_XREC_ROUNDTRIP
360
5CEC
  0
DICTIONARY
  5
5D01
330
58F3
100
AcDbDictionary
280
     1
281
     1
  3
ACAD_XREC_ROUNDTRIP
360
5D02
  0
DICTIONARY
  5
5CE3
330
5B9
100
AcDbDictionary
280
     1
281
     1
  3
ACAD_XREC_ROUNDTRIP
360
5CE4
  0
DICTIONARY
  5
5CFD
330
58F1
100
AcDbDictionary
280
     1
281
     1
  3
ACAD_XREC_ROUNDTRIP
360
5CFE
  0
DICTIONARY
  5
5CFB
330
58F0
100
AcDbDictionary
280
     1
281
     1
  3
ACAD_XREC_ROUNDTRIP
360
5CFC
  0
DICTIONARY
  5
5CF5
330
58ED
100
AcDbDictionary
280
     1
281
     1
  3
ACAD_XREC_ROUNDTRIP
360
5CF6
  0
DICTIONARY
  5
5CF7
330
58EE
100
AcDbDictionary
280
     1
281
     1
  3
ACAD_XREC_ROUNDTRIP
360
5CF8
  0
DICTIONARY
  5
5CE9
330
5BC
100
AcDbDictionary
280
     1
281
     1
  3
ACAD_XREC_ROUNDTRIP
360
5CEA
  0
DICTIONARY
  5
5CF1
330
58EB
100
AcDbDictionary
280
     1
281
     1
  3
ACAD_XREC_ROUNDTRIP
360
5CF2
  0
DICTIONARY
  5
5CF9
330
58EF
100
AcDbDictionary
280
     1
281
     1
  3
ACAD_XREC_ROUNDTRIP
360
5CFA
  0
XRECORD
  5
5C69
102
{ACAD_REACTORS
330
5C68
102
}
330
5C68
100
AcDbXrecord
280
     1
310
280000000001000071000000010008000000000000710000000000000000000000010000000000003028210000000000FFFFFF000000000000000000000000000000000000000000000000000000000000000000330000006600000099000000CC000000FF00000000330000333300006633000099330000CC330000FF3300
310
0000660000336600006666000099660000CC660000FF66000000990000339900006699000099990000CC990000FF99000000CC000033CC000066CC000099CC0000CCCC0000FFCC000000FF000033FF000066FF000099FF0000CCFF0000FFFF000000003300330033006600330099003300CC003300FF003300003333003333
310
33006633330099333300CC333300FF33330000663300336633006666330099663300CC663300FF66330000993300339933006699330099993300CC993300FF99330000CC330033CC330066CC330099CC3300CCCC3300FFCC330000FF330033FF330066FF330099FF3300CCFF3300FFFF330000006600330066006600660099
310
006600CC006600FF00660000336600333366006633660099336600CC336600FF33660000666600336666006666660099666600CC666600FF66660000996600339966006699660099996600CC996600FF99660000CC660033CC660066CC660099CC6600CCCC6600FFCC660000FF660033FF660066FF660099FF6600CCFF6600
310
FFFF660000009900330099006600990099009900CC009900FF00990000339900333399006633990099339900CC339900FF33990000669900336699006666990099669900CC669900FF66990000999900339999006699990099999900CC999900FF99990000CC990033CC990066CC990099CC9900CCCC9900FFCC990000FF99
310
0033FF990066FF990099FF9900CCFF9900FFFF99000000CC003300CC006600CC009900CC00CC00CC00FF00CC000033CC003333CC006633CC009933CC00CC33CC00FF33CC000066CC003366CC006666CC009966CC00CC66CC00FF66CC000099CC003399CC006699CC009999CC00CC99CC00FF99CC0000CCCC0033CCCC0066CC
310
CC0099CCCC00CCCCCC00FFCCCC0000FFCC0033FFCC0066FFCC0099FFCC00CCFFCC00FFFFCC000000FF003300FF006600FF009900FF00CC00FF00FF00FF000033FF003333FF006633FF009933FF00CC33FF00FF33FF000066FF003366FF006666FF009966FF00CC66FF00FF66FF000099FF003399FF006699FF009999FF00CC
310
99FF00FF99FF0000CCFF0033CCFF0066CCFF0099CCFF00CCCCFF00FFCCFF0000FFFF0033FFFF0066FFFF0099FFFF00CCFFFF00FFFFFF00000000000D0D0D001A1A1A00282828003535350043434300505050005D5D5D006B6B6B00787878008686860093939300A1A1A100AEAEAE00BBBBBB00C9C9C900D6D6D600E4E4E400
310
F1F1F100FFFFFF000000000000000000000000000000000000000000000000000000000000000000000000000000000000000000000000000000000000000000000000000000000000000000000000000000000000000000000000000000000000000000000000000000000000000000000000000000000000000000000000
310
00000000000000000000000000000000000000000000000000000000000000000000000000000000000000000000000000000000000000000000000000000000000000000000000000000000000000000000000000000000000000000000000000000000000000000000000000000000000000000000000000000000000000
310
00000000000000000000000000000000000000000000000000000000000000000000000000000000000000000000000000000000000000000000000000000000000000000000000000000000000000000000000000000000000000000000000000000000000000000000000000000000000000000000000000000000000000
310
00000000000000000000000000000000000000000000000000000000000000000000000000000000000000000000000000000000000000000000000000000000000000000000000000000000000000000000000000000000000000000000000000000000000000000000000000000000000000000000000000000000000000
310
00000000000000000000000000000000000000000000000000000000000000000000000000000000000000000000000000000000000000000000000000000000000000000000000000000000000000000000000000000000000000000000000000000000000000000000000000000000000000000000000000000000000000
310
00000000000000000000000000000000000000000000000000000000000000000000000000000000000000000000000000000000000000000000000000000000000000000000000000000000000000000000000000000000000000000000000000000000000000000000000000000000000000000000000000000000000000
310
00000000000000000000000000000000000000000000000000000000000000000000000000000000000000000000000000000000000000000000000000000000000000000000000000000000000000000000000000000000000000000000000000000000000000000000000000000000000000000000000000000000000000
310
00000000000000000000000000000000000000000000000000000000000000000000000000000000000000000000000000000000000000000000000000000000000000000000000000000000000000000000000000000000000000000000000000000000000000000000000000000000000000000000000000000000000000
310
00000000000000000000000000000000000000000000000000000000000000000000000000000000000000000000000000000000000000000000000000000000000000000000000000000000000000000000000000000000000000000000000000000000000000000000000000000000000000000000000000000000000000
310
00000000000000000000000000000000000000000000000000000000000000000000000000000000000000000000000000000000000000000000000000000000000000000000000000000000000000000000000000000000000000000000000000000000000000000000000000000000000000000000000000000000000000
310
00000000000000000000000000000000000000000000000000000000000000000000000000000000000000000000000000000000000000000000000000000000000000000000000000000000000000000000000000000000000000000000000000000000000000000000000000000000000000000000000000000000000000
310
00000000000000000000000000000000000000000000000000000000000000000000000000000000000000000000000000000000000000000000000000000000000000000000000000000000000000000000000000000000000000000000000000000000000000000000000000000000000000000000000000000000000000
310
00000000000000000000000000000000000000000000000000000000000000000000000000000000000000000000000000000000000000000000000000000000000000000000000000000000000000000000000000000000000000000000000000000000000000000000000000000000000000000000000000000000000000
310
00000000000000000000000000000000000000000000000000000000000000000000000000000000000000000000000000000000000000000000000000000000000000000000000000000000000000000000000000000000000000000000000000000000000000000000000000000000000000000000000000000000000000
310
00000000000000000000000000000000000000000000000000000000000000000000000000000000000000000000000000000000000000000000000000000000000000000000000000000000000000000000000000000000000000000000000000000000000000000000000000000000000000000000000000000000000000
310
00000000000000000000000000000000000000000000000000000000000000000000000000000000000000000000000000000000000000000000000000000000000000000000000000000000000000000000000000000000000000000000000000000000000000000000000000000000000000000000000000000000000000
310
00000000000000000000000000000000000000000000000000000000000000000000000000000000000000000000000000000000000000000000000000000000000000000000000000000000000000000000000000000000000000000000000000000000000000000000000000000000000000000000000000000000000000
310
00000000000000000000000000000000000000000000000000000000000000000000000000000000000000000000000000000000000000000000000000000000000000000000000000000000000000000000000000000000000000000000000000000000000000000000000000000000000000000000000000000000000000
310
00000000000000000000000000000000000000000000000000000000000000000000000000000000000000000000000000000000000000000000000000000000000000000000000000000000000000000000000000000000000000000000000000000000000000000000000000000000000000000000000000000000000000
310
00000000000000000000000000000000000000000000000000000000000000000000000000000000000000000000000000000000000000000000000000000000000000000000000000000000000000000000000000000000000000000000000000000000000000000000000000000000000000000000000000000000000000
310
00000000000000000000000000000000000000000000000000000000000000000000000000000000000000000000000000000000000000000000000000000000000000000000000000000000000000000000000000000000000000000000000000000000000000000000000000000000000000000000000000000000000000
310
00000000000000000000000000000000000000000000000000000000000000000000000000000000000000000000000000000000000000000000000000000000000000000000000000000000000000000000000000000000000000000000000000000000000000000000000000000000000000000000000000000000000000
310
00000000000000000000000000000000000000000000000000000000000000000000000000000000000000000000000000000000000000000000000000000000000000000000000000000000000000000000000000000000000000000000000000000000000000000000000000000000000000000000000000000000000000
310
00000000000000000000000000000000000000000000000000000000000000000000000000000000000000000000000000000000000000000000000000000000000000000000000000000000000000000000000000000000000000000000000000000000000000000000000000000000000000000000000000000000000000
310
00000000000000000000000000000000000000000000000000000000000000000000000000000000000000000000000000000000000000000000000000000000000000000000000000000000000000000000000000000000000000000000000000000000000000000000000000000000000000000000000000000000000000
310
0000000000000000000000000000000000F500000000000000000000000000000000000000000000000000000000000000000000000000000000000000000000000000000000000000000000000000000000000000000000000000000000000000000000000000000000000000000000000000000000000000000000000000
310
0000000000000000000000000000000000000000000000000000000000000000000000000000000000000000000000000000000000000000000000000000000000000000000000000000000000000000000000000000000000000000000000000000000000F5F5F5F5F5F5F5F5F5F5F5F5F500000000000000000000000000
310
00000000000000000000000000F5F5F5F5F5F5F5F5F5F5F5F5F50000000000000000000000000000000000000000000000000000000000000000000000000000000000000000000000000000000000000000000000000000000000000000000000000000000000000000000000000000000000000000000000000000000000
310
00000000000000000000000000000000000000000000000000000000000000000000000000000000000000000000000000000000000000000000000000000000000000000000000000000000000000000000000000000000000000000000000000000000000000F5F5F5F5F5F5F5F5F5F5F5F5F50000000000000000000000
310
000000000000000000000000000000F5F5F5F5F5F5F5F5F5F5F5F5F5000000000000000000000000000000000000000000000000000000000000000000000000000000000000000000000000000000000000000000000000000000000000000000000000000000000000000000000000000000000000000000000000000000
310
00000000000000000000000000000000000000000000000000000000000000000000000000000000000000000000000000000000000000000000000000000000000000000000000000000000000000000000000000000000000000000000000000000000000000000000F500F50000F500F500F50000000000000000000000
310
000000000000000000000000000000000000F500F50000F500F500F5000000000000000000000000000000000000000000000000000000000000000000000000000000000000000000000000000000000000000000000000000000000000000000000000000000000000000000000000000000000000000000000000000000
310
0000000000000000000000000000000000000000000000000000000000000000000000000000000000000000000000000000000000000000000000000000000000000000000000000000000000000000000000000000000000000000000000000000000000000000000000000000F50000F500F50000000000000000000000
310
00000000000000000000000000000000000000000000F50000F500F5000000000000000000000000000000000000000000000000000000000000000000000000000000000000000000000000000000000000000000000000000000000000000000000000000000000000000000000000000000000000000000000000000000
310
00000000000000000000000000000000000000000000000000000000000000000000000000000000000000000000000000000000000000000000000000000000000000000000000000000000000000000000000000000000000000000000000000000000000000000000000000000000F5F5F5F5F5F5000000000000000000
310
0000000000000000000000000000F5F5F5F5000000000000F50000F500F500000000000000000000000000000000000000000000000000000000000000000000000000000000000000000000000000000000000000000000000000000000000000000000000000000000000000000000000000000000000000000000000000
310
000000000000000000000000000000000000000000000000000000000000000000000000000000000000F5F5F5F500000000000000000000000000000000000000000000000000000000000000000000000000000000000000000000000000000000000000000000000000000000000000F5F5F5F5F5F5F5F5F50000000000
310
00000000000000000000000000000000F5F5F5F5F50000000000F50000F500F50000000000000000000000000000000000000000000000000000000000000000000000000000000000000000000000000000000000000000000000000000000000000000000000000000000000000000000000000000000000000000000000
310
0000000000000000000000000000000000000000000000000000000000000000000000000000000000000000F5F5F5F5000000000000000000000000000000000000000000000000000000000000000000000000000000000000000000000000000000000000000000000000000000000000F5F5F5F500F5F5F5F5F5F50000
310
00000000000000000000000000000000F500F5F5F5F5F5F5F5F5F5F5F50000F500F5F5F5F5F5F5F5F5F5F5F5F5F5F5F5F5F5F5F5F5F5F5F5F5F5F5F5F5F5F5F5F5F5F5F5F5F5F5F5F5F5F5F5F5F5F5F5F5F5F5F5F5F5F5F5F5F5F5F5F5F5F5F5F5F5F5F5F5F5F5F5F5F5F5F5F5F5F5F5F5F5F5F5F5F5F5F5F5F5F5F5F5F5F5
310
F5F5F5F5F5F5F5F5F5F5F5F5F5F5F5F5F5F5F5F5F5F5F5F5F5F5F5F5F5F5F5F5F5F5F5F5F5F5F5F5F5F5F5F5F5F5F500F5F50000000000000000000000000000000000000000000000000000000000000000000000000000000000000000000000000000000000000000000000000000000000F5F5F5F5F5F5F5F5F500F5F5
310
F50000000000000000000000000000000000F5F5F5F5F5F500000000000000F5F5F5F5F5000000000000000000000000000000000000000000000000000000000000000000000000000000000000000000000000000000000000000000000000F5F5F5F5F5F5F5000000000000000000000000000000000000000000000000
310
000000000000000000000000000000000000000000000000000000000000000000000000000000000000000000000000F500F5F5F5000000000000000000000000000000000000000000000000000000000000000000000000000000000000000000000000000000000000000000000000000000F5F5F5F5F5F500F500F5F5
310
F5F5F50000000000000000000000000000000000F5F5F5F5F5F5000000000000000000F50000000000000000000000000000000000000000000000000000000000000000000000000000000000000000000000000000000000000000000000000000F5F5F5F5F5F5F500000000000000000000000000000000000000000000
310
0000000000000000000000000000000000000000000000000000000000000000000000000000000000000000000000000000F500F5F5F5000000000000000000000000000000000000000000000000000000000000000000000000000000000000000000000000000000000000000000000000000000F5F5F500F50000F500
310
00F5F500F5F500000000000000000000000000000000F5F5F5F5F5F5000000000000000000F50000000000000000000000000000000000000000000000000000000000000000000000000000000000000000000000000000000000000000000000000000F5F5F5F5F5F5F50000000000000000000000000000000000000000
310
00000000000000000000000000000000000000000000000000000000000000000000000000000000000000000000000000000000F500F5F5F5000000000000000000000000000000000000000000000000000000000000000000000000000000000000000000000000000000000000000000000000000000F5F5F5F5F5F5F5
310
F5F5F5F5F5F5F5F5000000000000000000000000000000F5F5F5F5F5F5F5000000000000000000F50000000000000000000000000000000000000000000000000000000000000000000000000000000000000000000000000000000000000000000000000000F5F5F5F5F5F5F5000000000000000000000000000000000000
310
000000000000000000000000000000000000000000000000000000000000000000000000000000000000000000000000000000000000F500F5F5F5F5F500000000000000000000000000000000000000000000000000000000000000000000000000000000000000000000000000000000000000000000000000F5F5F500F5
310
0000F50000F500F5F5F500000000000000000000000000000000F5F5F5F5F5F5000000000000000000F50000000000000000000000000000000000000000000000000000000000000000000000000000000000000000000000000000000000000000000000000000F5F5F5F5F5F5F500000000000000000000000000000000
310
0000000000000000000000000000000000000000000000000000000000000000000000000000000000000000000000000000000000000000F500F5F5F5F5F50000000000000000000000000000000000000000000000000000000000000000000000000000000000000000000000000000000000000000000000F5F5F5F5F5
310
F5F5F5F5F5F5F5F5F5F5F5F5F5F50000000000000000000000000000F5F5F5F5F5F5F5F5F5F5F5F5F5F5F5F5F5F5F5F5F5F5F5F5F5F5F5F5F5F5F5F5F5F5F5F5F5F5F5F5F5F5F5F5F5F5F5F5F5F5F5F5F5F5F5F5F5F5F5F5F5F5F5F5F5F5F5F5F5F5F5F5F5F5F5F5F5F5F5F5F5F5F5F5F5F5F5F5F5F5F5F5F5F5F5F5F5F5F5
310
F5F5F5F5F5F5F5F5F5F5F5F5F5F5F5F5F5F5F5F5F5F5F5F5F5F5F5F5F5F5F5F5F5F5F5F5F5F5F5F5F5F5F5F5F5F5F5F5F5F5F5F5F5F5F5F5F5F5F5F5F5F5F5F5F500000000000000000000000000000000000000000000000000000000000000000000000000000000000000000000000000000000000000000000000000F5
310
F5F50000F5F5F5F5000000F5F5F500000000000000000000000000000000F5F5F5F5F5F5000000000000000000000000000000000000000000000000000000000000000000000000000000000000000000000000000000000000000000000000000000000000000000000000F5F5F5F5F5F5F5000000000000000000000000
310
0000000000000000000000000000000000000000000000000000000000000000000000000000000000000000000000000000F5000000000000000000F500F5F5F5F5F5000000000000000000000000000000000000000000000000000000000000000000000000000000000000000000000000000000000000000000000000
310
00F5F5F500000000F5000000F500F5F50000000000000000000000000000000000F5F5F5F5F5000000000000000000000000000000000000000000000000000000000000000000000000000000000000000000000000000000000000000000000000000000000000000000000000F5F5F5F5F5F5F500000000000000000000
310
00000000000000000000000000000000000000000000000000000000000000000000000000000000000000000000000000000000F5000000000000000000F500F5F5F5F5F500000000000000000000000000000000000000000000000000000000000000000000000000000000000000000000000000000000000000000000
310
000000F5F5F5F5000000F50000F5F5F5F5000000000000000000000000000000000000F5F5F5F5F5000000000000000000000000000000000000000000000000000000000000000000000000000000000000000000000000000000000000000000000000000000000000000000000000F5F5F5F5F5F5F50000000000000000
310
000000000000000000000000000000000000000000000000000000000000000000000000000000000000000000000000000000000000F5000000000000000000F500F5F5F5F5F50000000000000000000000000000000000000000000000000000000000000000000000000000000000000000000000000000000000000000
310
000000000000F5F500F5F500F500F500F5F5F5000000000000000000000000000000000000F5F5F5F5F5000000000000000000000000000000000000000000000000000000000000000000000000000000000000000000000000000000000000000000000000000000000000000000000000F5F5F5F5F5F5F5000000000000
310
00000000000000000000000000000000000000000000000000000000000000000000000000000000000000000000000000000000000000F5F5F5F500000000000000F500F5F5F5F5F5000000000000000000000000000000000000000000000000000000000000000000000000000000000000000000000000000000000000
310
000000000000000000F5F5F5F5F5F5F5F5F5F5F500000000000000000000000000000000000000F5F5F5F5F5F5F5F5F5F5F5F5F5F5F5F5F5F5F5F5F5F5F5F5F5F5F5F5F5F5F5F5F5F5F5F5F5F5F5F5F5F5F5F5F5F5F5F5F5F5F5F5F5F5F5F5F5F5F5F5F5F5F5F5F5F5F5F5F5F5F5F5F5F5F5F5F5F5F5F5F5F5F5F5F5F5F5F5
310
F5F5F5F5F5F5F5F5F5F5F5F5F5F5F5F5F5F5F5F5F5F5F5F5F5F5F5F5F5F5F5F5F5F5F5F5F5F5F5F5F5F5F5F5F5F5F5F5F5F5F5F5F5F5F5F5F5F5F500F5F5F5F5F5F5F5F5F500F5F5F5F5F500000000000000000000000000000000000000000000000000000000000000000000000000000000000000000000000000000000
310
000000000000000000000000F5F5F5F5F5F5F5F5F5000000000000000000000000000000000000000000F5F5F5F5F5000000000000000000000000000000000000000000000000000000000000000000000000000000000000000000000000000000000000000000000000000000000000000000000000F5F5F5F5F5F50000
310
00000000000000000000000000000000000000000000000000000000000000000000000000000000000000000000000000000000000000000000F500F50000F5000000000000F5F5F5F50000000000000000000000000000000000000000000000000000000000000000000000000000000000000000000000000000000000
310
000000000000000000000000000000F5F5F5F5F5F5F500000000000000000000000000000000000000000000F5F5F5F500000000000000000000000000000000000000000000000000000000000000000000000000000000000000000000000000000000000000000000000000000000000000000000000000000000000000
310
000000000000000000000000000000000000000000000000000000000000000000000000000000000000000000000000000000000000000000000000F500F50000F5000000000000F5F5F5F5000000000000000000000000000000000000000000000000000000000000000000000000000000000000000000000000000000
310
0000000000000000000000000000000000F50000F500F50000000000000000000000000000000000000000000000000000000000000000000000000000000000000000000000000000000000000000000000000000000000000000000000000000000000000000000000000000000000000000000000000000000000000000
310
0000000000000000000000000000000000000000000000000000000000000000000000000000000000000000000000000000000000000000000000000000F500F50000F50000000000000000000000000000000000000000000000000000000000000000000000000000000000000000000000000000000000000000000000
310
0000000000000000000000000000000000F500F50000F500F500F500000000000000000000000000000000000000000000000000000000000000000000000000000000000000000000000000000000000000000000000000000000000000000000000000000000000000000000000000000000000000000000000000000000
310
0000000000000000000000000000000000000000000000000000000000000000000000000000000000000000000000000000000000000000000000000000F500F500F50000F500F500000000000000000000000000000000000000000000000000000000000000000000000000000000000000000000000000000000000000
310
000000000000000000000000000000000000F5F5F5F5F5F5F5F5F5F5F5F5F5000000000000000000000000000000000000000000000000000000000000000000000000000000000000000000000000000000000000000000000000000000000000000000000000000000000000000000000000000000000000000000000000
310
0000000000000000000000000000000000000000000000000000000000000000000000000000000000000000000000000000000000000000000000000000F5F5F5F5F5F5F5F5F5F5F5F5F500000000000000000000000000000000000000000000000000000000000000000000000000000000000000000000000000000000
310
0000000000000000000000000000000000000000F5F5F5F5F5F5F5F5F5F5F5F5F500000000000000000000000000000000000000000000000000000000000000000000000000000000000000000000000000000000000000000000000000000000000000000000000000000000000000000000000000000000000000000000
310
00000000000000000000000000000000000000000000000000000000000000000000000000000000000000000000000000000000000000000000000000000000F5F5F5F5F5F5F5F5F5F5F5F5F50000000000000000000000000000000000000000000000000000000000000000000000000000000000000000000000000000
310
0000000000000000000000000000000000000000000000F500000000F5000000F500000000000000000000000000000000000000000000000000000000000000000000000000000000000000000000000000000000000000000000000000000000000000000000000000000000000000000000000000000000000000000000
310
0000000000000000000000000000000000000000000000000000000000000000000000000000000000000000000000000000000000000000000000000000000000000000F5000000F500000000F500000000000000000000000000000000000000000000000000000000000000000000000000000000000000000000000000
310
00000000000000000000000000000000000000000000000000000000000000000000000000000000000000000000000000000000000000000000000000000000000000000000000000000000000000000000000000000000000000000000000000000000000000000000000000000000000000000000000000000000000000
310
00000000000000000000000000000000000000000000000000000000000000000000000000000000000000000000000000000000000000000000000000000000000000000000000000000000000000000000000000000000000000000000000000000000000000000000000000000000000000000000000000000000000000
310
00000000000000000000000000000000000000000000000000000000000000000000000000000000000000000000000000000000000000000000000000000000000000000000000000000000000000000000000000000000000000000000000000000000000000000000000000000000000000000000000000000000000000
310
00000000000000000000000000000000000000000000000000000000000000000000000000000000000000000000000000000000000000000000000000000000000000000000000000000000000000000000000000000000000000000000000000000000000000000000000000000000000000000000000000000000000000
310
00000000000000000000000000000000000000000000000000000000000000000000000000000000000000000000000000000000000000000000000000000000000000000000000000000000000000000000000000000000000000000000000000000000000000000000000000000000000000000000000000000000000000
310
00000000000000000000000000000000000000000000000000000000000000000000000000000000000000000000000000000000000000000000000000000000000000000000000000000000000000000000000000000000000000000000000000000000000000000000000000000000000000000000000000000000000000
310
00000000000000000000000000000000000000000000000000000000000000000000000000000000000000000000000000000000000000000000000000000000000000000000000000000000000000000000000000000000000000000000000000000000000000000000000000000000000000000000000000000000000000
310
00000000000000000000000000000000000000000000000000000000000000000000000000000000000000000000000000000000000000000000000000000000000000000000000000000000000000000000000000000000000000000000000000000000000000000000000000000000000000000000000000000000000000
310
00000000000000000000000000000000000000000000000000000000000000000000000000000000000000000000000000000000000000000000000000000000000000000000000000000000000000000000000000000000000000000000000000000000000000000000000000000000000000000000000000000000000000
310
00000000000000000000000000000000000000000000000000000000000000000000000000000000000000000000000000000000000000000000000000000000000000000000000000000000000000000000000000000000000000000000000000000000000000000000000000000000000000000000000000000000000000
310
00000000000000000000000000000000000000000000000000000000000000000000000000000000000000000000000000000000000000000000000000000000000000000000000000000000000000000000000000000000000000000000000000000000000000000000000000000000000000000000000000000000000000
310
00000000000000000000000000000000000000000000000000000000000000000000000000000000000000000000000000000000000000000000000000000000000000000000000000000000000000000000000000000000000000000000000000000000000000000000000000000000000000000000000000000000000000
310
00000000000000000000000000000000000000000000000000000000000000000000000000000000000000000000000000000000000000000000000000000000000000000000000000000000000000000000000000000000000000000000000000000000000000000000000000000000000000000000000000000000000000
310
00000000000000000000000000000000000000000000000000000000000000000000000000000000000000000000000000000000000000000000000000000000000000000000000000000000000000000000000000000000000000000000000000000000000000000000000000000000000000000000000000000000000000
310
00000000000000000000000000000000000000000000000000000000000000000000000000000000000000000000000000000000000000000000000000000000000000000000000000000000000000000000000000000000000000000000000000000000000000000000000000000000000000000000000000000000000000
310
00000000000000000000000000000000000000000000000000000000000000000000000000000000000000000000000000000000000000000000000000000000000000000000000000000000000000000000000000000000000000000000000000000000000000000000000000000000000000000000000000000000000000
310
00000000000000000000000000000000000000000000000000000000000000000000000000000000000000000000000000000000000000000000000000000000000000000000000000000000000000000000000000000000000000000000000000000000000000000000000000000000000000000000000000000000000000
310
00000000000000000000000000000000000000000000000000000000000000000000000000000000000000000000000000000000000000000000000000000000000000000000000000000000000000000000000000000000000000000000000000000000000000000000000000000000000000000000000000000000000000
310
00000000000000000000000000000000000000000000000000000000000000000000000000000000000000000000000000000000000000000000000000000000000000000000000000000000000000000000000000000000000000000000000000000000000000000000000000000000000000000000000000000000000000
310
00000000000000000000000000000000000000000000000000000000000000000000000000000000000000000000000000000000000000000000000000000000000000000000000000000000000000000000000000000000000000000000000000000000000000000000000000000000000000000000000000000000000000
310
00000000000000000000000000000000000000000000000000000000000000000000000000000000000000000000000000000000000000000000000000000000000000000000000000000000000000000000000000000000000000000000000000000000000000000000000000000000000000000000000000000000000000
310
00000000000000000000000000000000000000000000000000000000000000000000000000000000000000000000000000000000000000000000000000000000000000000000000000000000000000000000000000000000000000000000000000000000000000000000000000000000000000000000000000000000000000
310
00000000000000000000000000000000000000000000000000000000000000000000000000000000000000000000000000000000000000000000000000000000000000000000000000000000000000000000000000000000000000000000000000000000000000000000000000000000000000000000000000000000000000
310
00000000000000000000000000000000000000000000000000000000000000000000000000000000000000000000000000000000000000000000000000000000000000000000000000000000000000000000000000000000000000000000000000000000000000000000000000000000000000000000000000000000000000
310
00000000000000000000000000000000000000000000000000000000000000000000000000000000000000000000000000000000000000000000000000000000000000000000000000000000000000000000000000000000000000000000000000000000000000000000000000000000000000000000000000000000000000
310
00000000000000000000000000000000000000000000000000000000000000000000000000000000000000000000000000000000000000000000000000000000000000000000000000000000000000000000000000000000000000000000000000000000000000000000000000000000000000000000000000000000000000
310
00000000000000000000000000000000000000000000000000000000000000000000000000000000000000000000000000000000000000000000000000000000000000000000000000000000000000000000000000000000000000000000000000000000000000000000000000000000000000000000000000000000000000
310
00000000000000000000000000000000000000000000000000000000000000000000000000000000000000000000000000000000000000000000000000000000000000000000000000000000000000000000000000000000000000000000000000000000000000000000000000000000000000000000000000000000000000
310
00000000000000000000000000000000000000000000000000000000000000000000000000000000000000000000000000000000000000000000000000000000000000000000000000000000000000000000000000000000000000000000000000000000000000000000000000000000000000000000000000000000000000
310
00000000000000000000000000000000000000000000000000000000000000000000000000000000000000000000000000000000000000000000000000000000000000000000000000000000000000000000000000000000000000000000000000000000000000000000000000000000000000000000000000000000000000
310
00000000000000000000000000000000000000000000000000000000000000000000000000000000000000000000000000000000000000000000000000000000000000000000000000000000000000000000000000000000000000000000000000000000000000000000000000000000000000000000000000000000000000
310
00000000000000000000000000000000000000000000000000000000000000000000000000000000000000000000000000000000000000000000000000000000000000000000000000000000000000000000000000000000000000000000000000000000000000000000000000000000000000000000000000000000000000
310
00000000000000000000000000000000000000000000000000000000000000000000000000000000000000000000000000000000000000000000000000000000000000000000000000000000000000000000000000000000000000000000000000000000000000000000000000000000000000000000000000000000000000
310
00000000000000000000000000000000000000000000000000000000000000000000000000000000000000000000000000000000000000000000000000000000000000000000000000000000000000000000000000000000000000000000000000000000000000000000000000000000000000000000000000000000000000
310
00000000000000000000000000000000000000000000000000000000000000000000000000000000000000000000000000000000000000000000000000000000000000000000000000000000000000000000000000000000000000000000000000000000000000000000000000000000000000000000000000000000000000
310
00000000000000000000000000000000000000000000000000000000000000000000000000000000000000000000000000000000000000000000000000000000000000000000000000000000000000000000000000000000000000000000000000000000000000000000000000000000000000000000000000000000000000
310
00000000000000000000000000000000000000000000000000000000000000000000000000000000000000000000000000000000000000000000000000000000000000000000000000000000000000000000000000000000000000000000000000000000000000000000000000000000000000000000000000000000000000
310
00000000000000000000000000000000000000000000000000000000000000000000000000000000000000000000000000000000000000000000000000000000000000000000000000000000000000000000000000000000000000000000000000000000000000000000000000000000000000000000000000000000000000
310
00000000000000000000000000000000000000000000000000000000000000000000000000000000000000000000000000000000000000000000000000000000000000000000000000000000000000000000000000000000000000000000000000000000000000000000000000000000000000000000000000000000000000
310
00000000000000000000000000000000000000000000000000000000000000000000000000000000000000000000000000000000000000000000000000000000000000000000000000000000000000000000000000000000000000000000000000000000000000000000000000000000000000000000000000000000000000
310
00000000000000000000000000000000000000000000000000000000000000000000000000000000000000000000000000000000000000000000000000000000000000000000000000000000000000000000000000000000000000000000000000000000000000000000000000000000000000000000000000000000000000
310
00000000000000000000000000000000000000000000000000000000000000000000000000000000000000000000000000000000000000000000000000000000000000000000000000000000000000000000000000000000000000000000000000000000000000000000000000000000000000000000000000000000000000
310
00000000000000000000000000000000000000000000000000000000000000000000000000000000000000000000000000000000000000000000000000000000000000000000000000000000000000000000000000000000000000000000000000000000000000000000000000000000000000000000000000000000000000
310
00000000000000000000000000000000000000000000000000000000000000000000000000000000000000000000000000000000000000000000000000000000000000000000000000000000000000000000000000000000000000000000000000000000000000000000000000000000000000000000000000000000000000
310
00000000000000000000000000000000000000000000000000000000000000000000000000000000000000000000000000000000000000000000000000000000000000000000000000000000000000000000000000000000000000000000000000000000000000000000000000000000000000000000000000000000000000
310
00000000000000000000000000000000000000000000000000000000000000000000000000000000000000000000000000000000000000000000000000000000000000000000000000000000000000000000000000000000000000000000000000000000000000000000000000000000000000000000000000000000000000
310
00000000000000000000000000000000000000000000000000000000000000000000000000000000000000000000000000000000000000000000000000000000000000000000000000000000000000000000000000000000000000000000000000000000000000000000000000000000000000000000000000000000000000
310
00000000000000000000000000000000000000000000000000000000000000000000000000000000000000000000000000000000000000000000000000000000000000000000000000000000000000000000000000000000000000000000000000000000000000000000000000000000000000000000000000000000000000
310
00000000000000000000000000000000000000000000000000000000000000000000000000000000000000000000000000000000000000000000000000000000000000000000000000000000000000000000000000000000000000000000000000000000000000000000000000000000000000000000000000000000000000
310
00000000000000000000000000000000000000000000000000000000000000000000000000000000000000000000000000000000000000000000000000000000000000000000000000000000000000000000000000000000000000000000000000000000000000000000000000000000000000000000000000000000000000
310
00000000000000000000000000000000000000000000000000000000000000000000000000000000000000000000000000000000000000000000000000000000000000000000000000000000000000000000000000000000000000000000000000000000000000000000000000000000000000000000000000000000000000
310
00000000000000000000000000000000000000000000000000000000000000000000000000000000000000000000000000000000000000000000000000000000000000000000000000000000000000000000000000000000000000000000000000000000000000000000000000000000000000000000000000000000000000
310
00000000000000000000000000000000000000000000000000000000000000000000000000000000000000000000000000000000000000000000000000000000000000000000000000000000000000000000000000000000000000000000000000000000000000000000000000000000000000000000000000000000000000
310
00000000000000000000000000000000000000000000000000000000000000000000000000000000000000000000000000000000000000000000000000000000000000000000000000000000000000000000000000000000000000000000000000000000000000000000000000000000000000000000000000000000000000
310
00000000000000000000000000000000000000000000000000000000000000000000000000000000000000000000000000000000000000000000000000000000000000000000000000000000000000000000000000000000000000000000000000000000000000000000000000000000000000000000000000000000000000
310
00000000000000000000000000000000000000000000000000000000000000000000000000000000000000000000000000000000000000000000000000000000000000000000000000000000000000000000000000000000000000000000000000000000000000000000000000000000000000000000000000000000000000
310
00000000000000000000000000000000000000000000000000000000000000000000000000000000000000000000000000000000000000000000000000000000000000000000000000000000000000000000000000000000000000000000000000000000000000000000000000000000000000000000000000000000000000
310
00000000000000000000000000000000000000000000000000000000000000000000000000000000000000000000000000000000000000000000000000000000000000000000000000000000000000000000000000000000000000000000000000000000000000000000000000000000000000000000000000000000000000
310
00000000000000000000000000000000000000000000000000000000000000000000000000000000000000000000000000000000000000000000000000000000000000000000000000000000000000000000000000000000000000000000000000000000000000000000000000000000000000000000000000000000000000
310
00000000000000000000000000000000000000000000000000000000000000000000000000000000000000000000000000000000000000000000000000000000000000000000000000000000000000000000000000000000000000000000000000000000000000000000000000000000000000000000000000000000000000
310
00000000000000000000000000000000000000000000000000000000000000000000000000000000000000000000000000000000000000000000000000000000000000000000000000000000000000000000000000000000000000000000000000000000000000000000000000000000000000000000000000000000000000
310
00000000000000000000000000000000000000000000000000000000000000000000000000000000000000000000000000000000000000000000000000000000000000000000000000000000000000000000000000000000000000000000000000000000000000000000000000000000000000000000000000000000000000
310
00000000000000000000000000000000000000000000000000000000000000000000000000000000000000000000000000000000000000000000000000000000000000000000000000000000000000000000000000000000000000000000000000000000000000000000000000000000000000000000000000000000000000
310
00000000000000000000000000000000000000000000000000000000000000000000000000000000000000000000000000000000000000000000000000000000000000000000000000000000000000000000000000000000000000000000000000000000000000000000000000000000000000000000000000000000000000
310
00000000000000000000000000000000000000000000000000000000000000000000000000000000000000000000000000000000000000000000000000000000000000000000000000000000000000000000000000000000000000000000000000000000000000000000000000000000000000000000000000000000000000
310
00000000000000000000000000000000000000000000000000000000000000000000000000000000000000000000000000000000000000000000000000000000000000000000000000000000000000000000000000000000000000000000000000000000000000000000000000000000000000000000000000000000000000
310
00000000000000000000000000000000000000000000000000000000000000000000000000000000000000000000000000000000000000000000000000000000000000000000000000000000000000000000000000000000000000000000000000000000000000000000000000000000000000000000000000000000000000
310
00000000000000000000000000000000000000000000000000000000000000000000000000000000000000000000000000000000000000000000000000000000000000000000000000000000000000000000000000000000000000000000000000000000000000000000000000000000000000000000000000000000000000
310
00000000000000000000000000000000000000000000000000000000000000000000000000000000000000000000000000000000000000000000000000000000000000000000000000000000000000000000000000000000000000000000000000000000000000000000000000000000000000000000000000000000000000
310
00000000000000000000000000000000000000000000000000000000000000000000000000000000000000000000000000000000000000000000000000000000000000000000000000000000000000000000000000000000000000000000000000000000000000000000000000000000000000000000000000000000000000
310
00000000000000000000000000000000000000000000000000000000000000000000000000000000000000000000000000000000000000000000000000000000000000000000000000000000000000000000000000000000000000000000000000000000000000000000000000000000000000000000000000000000000000
310
00000000000000000000000000000000000000000000000000000000000000000000000000000000000000000000000000000000000000000000000000000000000000000000000000000000000000000000000000000000000000000000000000000000000000000000000000000000000000000000000000000000000000
310
00000000000000000000000000000000000000000000000000000000000000000000000000000000000000000000000000000000000000000000000000000000000000000000000000000000000000000000000000000000000000000000000000000000000000000000000000000000000000000000000000000000000000
310
00000000000000000000000000000000000000000000000000000000000000000000000000000000000000000000000000000000000000000000000000000000000000000000000000000000000000000000000000000000000000000000000000000000000000000000000000000000000000000000000000000000000000
310
00000000000000000000000000000000000000000000000000000000000000000000000000000000000000000000000000000000000000000000000000000000000000000000000000000000000000000000000000000000000000000000000000000000000000000000000000000000000000000000000000000000000000
310
000000F5F5F5F5000000000000000000000000000000000000000000000000000000000000000000000000000000000000000000000000000000000000000000000000000000000000000000000000000000000000000000000000000000000000000000000000000000000000000000000000000000000000000000000000
310
00000000000000000000000000000000000000000000000000000000000000F5F5F5F50000000000000000000000000000000000000000000000000000000000000000000000000000000000000000000000000000000000000000000000000000000000000000000000000000000000000000000000000000000000000000
310
0000000000F5F5F5F5F5000000000000000000000000000000000000000000000000000000000000000000000000000000000000000000000000000000000000000000000000000000000000000000000000000000000000000000000000000000000000000000000000000000000000000000000000000000000000000000
310
000000000000000000000000000000000000000000000000000000000000000000F5F5F5F5000000000000000000000000000000000000000000000000000000000000000000000000000000000000000000000000000000000000000000000000000000000000000000000000000000000000000000000000000000000000
310
00000000000000F5F5F5F5F5F5F5F5F5F5F5F5F5F5F5F5F5F5F5F5F5F5F5F5F5F5F5F5F5F5F5F5F5F5F5F5F5F5F5F5F5F5F5F5F5F5F5F5F5F5F5F5F5F5F5F5F5F5F5F5F5F5F5F5F5F5F5F5F5F5F5F5F5F5F5F5F5F5F5F5F5F5F5F5F5F5F5F5F5F5F5F5F5F5F5F5F5F5F5F5F5F5F5F5F5F5F5F5F5F5F5F5F5F5F5F5F5F5F5F5
310
F5F5F5F5F5F5F5F5F5F5F5F5F5F5F5F5F5F5F5F5F5F5F5F5F5F5F5F5F5F5F5F5F5F5F5F500F5F500000000000000000000000000000000000000000000000000000000000000000000000000000000000000000000000000000000000000000000000000000000000000000000000000000000000000000000000000000000
310
0000000000000000F5F5F5F5F5000000000000000000F50000000000000000000000000000000000000000000000000000000000000000000000000000000000000000000000000000000000000000000000000000F5F5F5F5F5F5F50000000000000000000000000000000000000000000000000000000000000000000000
310
0000000000000000000000000000000000000000000000F5F5F5F5F5F5F500F5F500000000F500F5F5F500000000000000000000000000000000000000000000000000000000000000000000000000000000000000000000000000000000000000000000000000000000000000000000000000000000000000000000000000
310
000000000000000000F5F5F5F5F5F5000000000000000000F50000000000000000000000000000000000000000000000000000000000000000000000000000000000000000000000000000000000000000000000000000F5F5F5F5F5F5F5000000000000000000000000000000000000000000000000000000000000000000
310
000000000000000000000000000000000000000000000000F5F5F5F500F50000F5F5F5F5000000F500F5F5F5F5F5000000000000000000000000000000000000000000000000000000000000000000000000000000000000000000000000000000000000000000000000000000000000000000000000000000000000000000
310
0000000000000000000000F5F5F5F5F5F5000000000000000000F50000000000000000000000000000000000000000000000000000000000000000000000000000000000000000000000000000000000000000000000000000F5F5F5F5F5F5F500000000000000000000000000000000000000000000000000000000000000
310
0000000000000000000000000000000000000000000000000000F5F5F5F500F5F500F5F5F5F5000000F500F5F5F5F5F500000000000000000000000000000000000000000000000000000000000000000000000000000000000000000000000000000000000000000000000000000000000000000000000000000000000000
310
00000000000000000000000000F5F5F5F5F5F5000000000000000000F50000000000000000000000000000000000000000000000000000000000000000000000000000000000000000000000000000000000000000000000000000F5F5F5F5F5F5F50000000000000000000000000000000000000000000000000000000000
310
00000000000000000000000000000000000000000000000000000000F5F50000F5F5F5F50000F5F5000000F500F5F5F5F5F50000000000000000000000000000000000000000000000000000000000000000000000000000000000000000000000000000000000000000000000000000000000000000000000000000000000
310
000000000000000000000000000000F5F5F5F5F5F5000000000000000000F50000000000000000000000000000000000000000000000000000000000000000000000000000000000000000000000000000000000000000000000000000F5F5F5F5F5F5F5000000000000000000000000000000000000000000000000000000
310
000000000000000000000000000000000000000000000000000000000000F5F500F500F50000F500F5F5000000F500F5F5F5F5F5000000000000000000000000000000000000000000000000000000000000000000000000000000000000000000000000000000000000000000000000000000000000000000000000000000
310
00000000000000000000000000000000F5F5F5F5F5F5F5F5F5F5F5F5F5F5F5F5F5F5F5F5F5F5F5F5F5F5F5F5F5F5F5F5F5F5F5F5F5F5F5F5F5F5F5F5F5F5F5F5F5F5F5F5F5F5F5F5F5F5F5F5F5F5F5F5F5F5F5F5F5F5F5F5F5F5F5F5F5F5F5F5F5F5F5F5F5F5F5F5F5F5F5F5F5F5F5F5F5F5F5F5F5F5F5F5F5F5F5F5F5F5F5
310
F5F5F5F5F5F5F5F5F5F5F5F5F5F5F5F5F5F5F5F5F5F5F5F5F5F5F5F5F5F5F5F5F5F5F5F5F5F5F5F5F5F5F5F5F5F5F5F5F5F5F5F5F5F500000000000000000000000000000000000000000000000000000000000000000000000000000000000000000000000000000000000000000000000000000000000000000000000000
310
00000000000000000000000000000000000000F5F5F5F5F5F5000000000000000000F50000000000000000000000000000000000000000000000000000000000000000000000000000000000000000000000000000000000000000000000000000F5F5F5F5F5F5F50000000000000000000000000000000000000000000000
310
00000000000000000000000000000000000000000000000000000000000000000000F5F500F5F5F500F5F500F5F5000000F500F5F5F5F5F50000000000000000000000000000000000000000000000000000000000000000000000000000000000000000000000000000000000000000000000000000000000000000000000
310
000000000000000000000000000000000000000000F5F5F5F5F5F5000000000000000000F50000000000000000000000000000000000000000000000000000000000000000000000000000000000000000000000000000000000000000000000000000F5F5F5F5F5F5F5000000000000000000000000000000000000000000
310
000000000000000000000000000000000000000000000000000000000000000000000000F5F5F5F5F5F5F5F5F5F5F5F5000000F500F5F5F5F5F5000000000000000000000000000000000000000000000000000000000000000000000000000000000000000000000000000000000000000000000000000000000000000000
310
0000000000000000000000000000000000000000000000F5F5F5F5F5F5000000000000000000F50000000000000000000000000000000000000000000000000000000000000000000000000000000000000000000000000000000000000000000000000000F5F5F5F5F5F5F500000000000000000000000000000000000000
310
0000000000000000000000000000000000000000000000000000000000000000000000000000F5F5F5F500F50000F5F5F5F5000000F500F5F5F5F5F500000000000000000000000000000000000000000000000000000000000000000000000000000000000000000000000000000000000000000000000000000000000000
310
0000000000000000000000000000000000000000000000000000F5F5F5F5F5000000000000000000F50000000000000000000000000000000000000000000000000000000000000000000000000000000000000000000000000000000000000000000000000000F5F5F5F5F5F5F50000000000000000000000000000000000
310
0000000000000000000000000000000000000000000000000000000000000000000000000000000000F5F5F5F5F5F5F5F5F5F500000000F500F5F5F500000000000000000000000000000000000000000000000000000000000000000000000000000000000000000000000000000000000000000000000000000000000000
310
00000000000000000000000000000000000000000000000000000000F5F5F5F5F5F5F5F5F5F5F5F5F5F5F5F5F5F5F5F5F5F5F5F5F5F5F5F5F5F5F5F5F5F5F5F5F5F5F5F5F5F5F5F5F5F5F5F5F5F5F5F5F5F5F5F5F5F5F5F5F5F5F5F5F5F5F5F5F5F5F5F5F5F5F5F5F5F5F5F5F5F5F5F5F5F5F5F5F5F5F5F5F5F5F5F5F5F5F5
310
F5F5F5F5F5F5F5F5F5F5F5F5F5F5F5F5F5F5F5F5F5F5F5F5F5F5F5F5F5F5F5F5F5F5F5F5F5F5F5F5F5F5F5F5F5F5F5F500F5F5F5F5F5F5F5F5F500F5F5F50000000000000000000000000000000000000000000000000000000000000000000000000000000000000000000000000000000000000000000000000000000000
310
00000000000000000000000000000000000000000000000000000000000000F5F5F5F5F500000000000000F5F5000000000000000000000000000000000000000000000000000000000000000000000000000000000000000000000000000000000000000000000000000000F5F5F5F5F5F500000000000000000000000000
310
00000000000000000000000000000000000000000000000000000000000000000000000000000000000000000000000000F5F50000000000000000F5F5F5F500000000000000000000000000000000000000000000000000000000000000000000000000000000000000000000000000000000000000000000000000000000
310
000000000000000000000000000000000000000000000000000000000000000000F5F5F5F5000000000000000000000000000000000000000000000000000000000000000000000000000000000000000000000000000000000000000000000000000000000000000000000000000000000000000000000000000000000000
310
00000000000000000000000000000000000000000000000000000000000000000000000000000000000000000000000000000000000000000000000000F5F5F5F50000000000000000000000000000000000000000000000000000000000000000000000000000000000000000000000000000000000000000000000000000
310
00000000000000000000000000000000000000000000000000000000000000000000000000000000000000000000000000000000000000000000000000000000000000000000000000000000000000000000000000000000000000000000000000000000000000000000000000000000000000000000000000000000000000
310
00000000000000000000000000000000000000000000000000000000000000000000000000000000000000000000000000000000000000000000000000000000000000000000000000000000000000000000000000000000000000000000000000000000000000000000000000000000000000000000000000000000000000
310
00000000000000000000000000000000000000000000000000000000000000000000000000000000000000000000000000000000000000000000000000000000000000000000000000000000000000000000000000000000000000000000000000000000000000000000000000000000000000000000000000000000000000
310
00000000000000000000000000000000000000000000000000000000000000000000000000000000000000000000000000000000000000000000000000000000000000000000000000000000000000000000000000000000000000000000000000000000000000000000000000000000000000000000000000000000000000
310
00000000000000000000000000000000000000000000000000000000000000000000000000000000000000000000000000000000000000000000000000000000000000000000000000000000000000000000000000000000000000000000000000000000000000000000000000000000000000000000000000000000000000
310
00000000000000000000000000000000000000000000000000000000000000000000000000000000000000000000000000000000000000000000000000000000000000000000000000000000000000000000000000000000000000000000000000000000000000000000000000000000000000000000000000000000000000
310
00000000000000000000000000000000000000000000000000000000000000000000000000000000000000000000000000000000000000000000000000000000000000000000000000000000000000000000000000000000000000000000000000000000000000000000000000000000000000000000000000000000000000
310
00000000000000000000000000000000000000000000000000000000000000000000000000000000000000000000000000000000000000000000000000000000000000000000000000000000000000000000000000000000000000000000000000000000000000000000000000000000000000000000000000000000000000
310
000000000000000000000000000000000000000000000000000000000000000000000000000000000000000000000000000000000000000000000000000000000000000000000000000000000000000000000000000000000000000000F500F5F5F5F500F500F50000F5F500F5F5F5F5F500F5000000F50000F5F500F5F5F5
310
000000000000F5000000F500F50000F5F500F500F5F50000F5F50000000000000000000000000000000000000000000000000000000000000000000000000000000000000000000000000000000000000000000000000000000000000000000000000000000000000000000000000000000000000000000000000000000000
310
0000000000000000000000000000000000000000000000000000000000000000000000000000000000000000000000000000000000000000000000000000000000000000000000000000000000000000000000000000000000000000000000F50000F50000F500F5F50000F500F5F500F50000F500F500F500F5F5F5F5F5F5
310
00000000000000F500F500F500F5F50000F500F5F5F5F5F5F5F500F5000000000000000000000000000000000000000000000000000000000000000000000000000000000000000000000000000000000000000000000000000000000000000000000000000000000000000000000000000000000000000000000000000000
310
00000000000000000000000000000000000000000000000000000000000000000000000000000000000000000000000000000000000000000000000000000000000000000000000000000000000000000000000000000000000000000000000000F5000000F5000000F5F5F5F50000F5000000F500F50000F5F500F5F50000
310
F5F50000F5F5F5F5F50000F500F500F5F5F5F50000F500000000F50000F500000000000000000000000000000000000000000000000000000000000000000000000000000000000000000000000000000000000000000000000000000000000000000000000000000000000000000000000000000000000000000000000000
310
000000000000000000000000000000000000000000000000000000000000000000000000000000000000000000000000000000000000000000000000000000000000000000000000000000000000000000000000000000000000000000000000000000F500F500F500F5F5F500F5F50000F5F5F500F5F5F50000F5F500F5F5
310
0000F5F500000000000000F5F5F500F500F500F5F50000F5F500F5F500F5F5000000000000000000000000000000000000000000000000000000000000000000000000000000000000000000000000000000000000000000000000000000000000000000000000000000000000000000000000000000000000000000000000
310
00000000000000000000000000000000000000000000000000000000000000000000000000000000000000000000000000000000000000000000000000000000000000000000000000000000000000000000000000000000000000000000000000000000F5F500F5F5F500F5F5F500F50000F500F5F5F5F5F5F5F5F500F5F5
310
F5F5F5F5F5F500000000000000F5F5F500F5F5F500F50000F500F500F5F5F5F5F5F5000000000000000000000000000000000000000000000000000000000000000000000000000000000000000000000000000000000000000000000000000000000000000000000000000000000000000000000000000000000000000000
310
00000000000000000000000000000000000000000000000000000000000000000000000000000000000000000000000000000000000000000000000000000000000000000000000000000000000000000000000000000000000000000000000000000000000000000000000000000000000000000000000000000000000000
310
00000000000000000000000000000000000000000000000000000000000000000000000000000000000000000000000000000000000000000000000000000000000000000000000000000000000000000000000000000000000000000000000000000000000000000000000000000000000000000000000000000000000000
310
00000000000000000000000000000000000000000000000000000000000000000000000000000000000000000000000000000000000000000000000000000000000000000000000000000000000000000000000000000000000000000000000000000000000000000000000000000000000000000000000000000000000000
310
00000000000000000000000000000000000000000000000000000000000000000000000000000000000000000000000000000000000000000000000000000000000000000000000000000000000000000000000000000000000000000000000000000000000000000000000000000000000000000000000000000000000000
310
00000000000000000000000000000000000000000000000000000000000000000000000000000000000000000000000000000000000000000000000000000000000000000000000000000000000000000000000000000000000000000000000000000000000000000000000000000000000000000000000000000000000000
310
00000000000000000000000000000000000000000000000000000000000000000000000000000000000000000000000000000000000000000000000000000000000000000000000000000000000000000000000000000000000000000000000000000000000000000000000000000000000000000000000000000000000000
310
00000000000000000000000000000000000000000000000000000000000000000000000000000000000000000000000000000000000000000000000000000000000000000000000000000000000000000000000000000000000000000000000000000000000000000000000000000000000000000000000000000000000000
310
00000000000000000000000000000000000000000000000000000000000000000000000000000000000000000000000000000000000000000000000000000000000000000000000000000000000000000000000000000000000000000000000000000000000000000000000000000000000000000000000000000000000000
310
00000000000000000000000000000000000000000000000000000000000000000000000000000000000000000000000000000000000000000000000000000000000000000000000000000000000000000000000000000000000000000000000000000000000000000000000000000000000000000000000000000000000000
310
00000000000000000000000000000000000000000000000000000000000000000000000000000000000000000000000000000000000000000000000000000000000000000000000000000000000000000000000000000000000000000000000000000000000000000000000000000000000000000000000000000000000000
310
00000000000000000000000000000000000000000000000000000000000000000000000000000000000000000000000000000000000000000000000000000000000000000000000000000000000000000000000000000000000000000000000000000000000000000000000000000000000000000000000000000000000000
310
00000000000000000000000000000000000000000000000000000000000000000000000000000000000000000000000000000000000000000000000000000000000000000000000000000000000000000000000000000000000000000000000000000000000000000000000000000000000000000000000000000000000000
310
00000000000000000000000000000000000000000000000000000000000000000000000000000000000000000000000000000000000000000000000000000000000000000000000000000000000000000000000000000000000000000000000000000000000000000000000000000000000000000000000000000000000000
310
00000000000000000000000000000000000000000000000000000000000000000000000000000000000000000000000000000000000000000000000000000000000000000000000000000000000000000000000000000000000000000000000000000000000000000000000000000000000000000000000000000000000000
310
00000000000000000000000000000000000000000000000000000000000000000000000000000000000000000000000000000000000000000000000000000000000000000000000000000000000000000000000000000000000000000000000000000000000000000000000000000000000000000000000000000000000000
310
00000000000000000000000000000000000000000000000000000000000000000000000000000000000000000000000000000000000000000000000000000000000000000000000000000000000000000000000000000000000000000000000000000000000000000000000000000000000000000000000000000000000000
310
00000000000000000000000000000000000000000000000000000000000000000000000000000000000000000000000000000000000000000000000000000000000000000000000000000000000000000000000000000000000000000000000000000000000000000000000000000000000000000000000000000000000000
310
00000000000000000000000000000000000000000000000000000000000000000000000000000000000000000000000000000000000000000000000000000000000000000000000000000000000000000000000000000000000000000000000000000000000000000000000000000000000000000000000000000000000000
310
00000000000000000000000000000000000000000000000000000000000000000000000000000000000000000000000000000000000000000000000000000000000000000000000000000000000000000000000000000000000000000000000000000000000000000000000000000000000000000000000000000000000000
310
00000000000000000000000000000000000000000000000000000000000000000000000000000000000000000000000000000000000000000000000000000000000000000000000000000000000000000000000000000000000000000000000000000000000000000000000000000000000000000000000000000000000000
310
00000000000000000000000000000000000000000000000000000000000000000000000000000000000000000000000000000000000000000000000000000000000000000000000000000000000000000000000000000000000000000000000000000000000000000000000000000000000000000000000000000000000000
310
00000000000000000000000000000000000000000000000000000000000000000000000000000000000000000000000000000000000000000000000000000000000000000000000000000000000000000000000000000000000000000000000000000000000000000000000000000000000000000000000000000000000000
310
00000000000000000000000000000000000000000000000000000000000000000000000000000000000000000000000000000000000000000000000000000000000000000000000000000000000000000000000000000000000000000000000000000000000000000000000000000000000000000000000000000000000000
310
00000000000000000000000000000000000000000000000000000000000000000000000000000000000000000000000000000000000000000000000000000000000000000000000000000000000000000000000000000000000000000000000000000000000000000000000000000000000000000000000000000000000000
310
00000000000000000000000000000000000000000000000000000000000000000000000000000000000000000000000000000000000000000000000000000000000000000000000000000000000000000000000000000000000000000000000000000000000000000000000000000000000000000000000000000000000000
310
00000000000000000000000000000000000000000000000000000000000000000000000000000000000000000000000000000000000000000000000000000000000000000000000000000000000000000000000000000000000000000000000000000000000000000000000000000000000000000000000000000000000000
310
0000000000000000000000000000000000000000
  0
XRECORD
  5
5CCE
102
{ACAD_REACTORS
330
5CCD
102
}
330
5CCD
100
AcDbXrecord
280
     1
102
MATERIAL
148
0.0
149
0.0
149
0.0
 93
        0
 94
       63
282
     0
 72
     1
 77
     1
171
     1
175
     1
179
     1
273
     0
  0
XRECORD
  5
5CCC
102
{ACAD_REACTORS
330
5CCB
102
}
330
5CCB
100
AcDbXrecord
280
     1
102
MATERIAL
148
0.0
149
0.0
149
0.0
 93
        0
 94
       63
282
     0
 72
     1
 77
     1
171
     1
175
     1
179
     1
273
     0
  0
XRECORD
  5
5CD0
102
{ACAD_REACTORS
330
5CCF
102
}
330
5CCF
100
AcDbXrecord
280
     1
102
MATERIAL
148
0.0
149
0.0
149
0.0
 93
        0
 94
       63
282
     0
 72
     1
 77
     1
171
     1
175
     1
179
     1
273
     0
  0
CELLSTYLEMAP
  5
5CC3
102
{ACAD_REACTORS
330
624
102
}
330
624
100
AcDbCellStyleMap
 90
        3
300
CELLSTYLE
  1
TABLEFORMAT_BEGIN
 90
        5
170
     1
 91
        0
 92
    32768
 62
   257
 93
        1
300
CONTENTFORMAT
  1
CONTENTFORMAT_BEGIN
 90
        0
 91
        0
 92
        4
 93
        0
300

 40
0.0
140
1.0
 94
        5
 62
     0
340
11
144
6.0
309
CONTENTFORMAT_END
171
     1
301
MARGIN
  1
CELLMARGIN_BEGIN
 40
1.5
 40
1.5
 40
1.5
 40
1.5
 40
0.18
 40
0.18
309
CELLMARGIN_END
 94
        6
 95
        1
302
GRIDFORMAT
  1
GRIDFORMAT_BEGIN
 90
        0
 91
        1
 62
     0
 92
       -2
340
0
 93
        0
 40
0.045
309
GRIDFORMAT_END
 95
        2
302
GRIDFORMAT
  1
GRIDFORMAT_BEGIN
 90
        0
 91
        1
 62
     0
 92
       -2
340
0
 93
        0
 40
0.045
309
GRIDFORMAT_END
 95
        4
302
GRIDFORMAT
  1
GRIDFORMAT_BEGIN
 90
        0
 91
        1
 62
     0
 92
       -2
340
0
 93
        0
 40
0.045
309
GRIDFORMAT_END
 95
        8
302
GRIDFORMAT
  1
GRIDFORMAT_BEGIN
 90
        0
 91
        1
 62
     0
 92
       -2
340
0
 93
        0
 40
0.045
309
GRIDFORMAT_END
 95
       16
302
GRIDFORMAT
  1
GRIDFORMAT_BEGIN
 90
        0
 91
        1
 62
     0
 92
       -2
340
0
 93
        0
 40
0.045
309
GRIDFORMAT_END
 95
       32
302
GRIDFORMAT
  1
GRIDFORMAT_BEGIN
 90
        0
 91
        1
 62
     0
 92
       -2
340
0
 93
        0
 40
0.045
309
GRIDFORMAT_END
309
TABLEFORMAT_END
  1
CELLSTYLE_BEGIN
 90
        1
 91
        1
300
_TITLE
309
CELLSTYLE_END
300
CELLSTYLE
  1
TABLEFORMAT_BEGIN
 90
        5
170
     1
 91
        0
 92
        0
 62
   257
 93
        1
300
CONTENTFORMAT
  1
CONTENTFORMAT_BEGIN
 90
        0
 91
        0
 92
        4
 93
        0
300

 40
0.0
140
1.0
 94
        5
 62
     0
340
11
144
4.5
309
CONTENTFORMAT_END
171
     1
301
MARGIN
  1
CELLMARGIN_BEGIN
 40
1.5
 40
1.5
 40
1.5
 40
1.5
 40
0.18
 40
0.18
309
CELLMARGIN_END
 94
        6
 95
        1
302
GRIDFORMAT
  1
GRIDFORMAT_BEGIN
 90
        0
 91
        1
 62
     0
 92
       -2
340
0
 93
        0
 40
0.045
309
GRIDFORMAT_END
 95
        2
302
GRIDFORMAT
  1
GRIDFORMAT_BEGIN
 90
        0
 91
        1
 62
     0
 92
       -2
340
0
 93
        0
 40
0.045
309
GRIDFORMAT_END
 95
        4
302
GRIDFORMAT
  1
GRIDFORMAT_BEGIN
 90
        0
 91
        1
 62
     0
 92
       -2
340
0
 93
        0
 40
0.045
309
GRIDFORMAT_END
 95
        8
302
GRIDFORMAT
  1
GRIDFORMAT_BEGIN
 90
        0
 91
        1
 62
     0
 92
       -2
340
0
 93
        0
 40
0.045
309
GRIDFORMAT_END
 95
       16
302
GRIDFORMAT
  1
GRIDFORMAT_BEGIN
 90
        0
 91
        1
 62
     0
 92
       -2
340
0
 93
        0
 40
0.045
309
GRIDFORMAT_END
 95
       32
302
GRIDFORMAT
  1
GRIDFORMAT_BEGIN
 90
        0
 91
        1
 62
     0
 92
       -2
340
0
 93
        0
 40
0.045
309
GRIDFORMAT_END
309
TABLEFORMAT_END
  1
CELLSTYLE_BEGIN
 90
        2
 91
        1
300
_HEADER
309
CELLSTYLE_END
300
CELLSTYLE
  1
TABLEFORMAT_BEGIN
 90
        5
170
     1
 91
        0
 92
        0
 62
   257
 93
        1
300
CONTENTFORMAT
  1
CONTENTFORMAT_BEGIN
 90
        0
 91
        0
 92
        4
 93
        0
300

 40
0.0
140
1.0
 94
        2
 62
     0
340
11
144
4.5
309
CONTENTFORMAT_END
171
     1
301
MARGIN
  1
CELLMARGIN_BEGIN
 40
1.5
 40
1.5
 40
1.5
 40
1.5
 40
0.18
 40
0.18
309
CELLMARGIN_END
 94
        6
 95
        1
302
GRIDFORMAT
  1
GRIDFORMAT_BEGIN
 90
        0
 91
        1
 62
     0
 92
       -2
340
0
 93
        0
 40
0.045
309
GRIDFORMAT_END
 95
        2
302
GRIDFORMAT
  1
GRIDFORMAT_BEGIN
 90
        0
 91
        1
 62
     0
 92
       -2
340
0
 93
        0
 40
0.045
309
GRIDFORMAT_END
 95
        4
302
GRIDFORMAT
  1
GRIDFORMAT_BEGIN
 90
        0
 91
        1
 62
     0
 92
       -2
340
0
 93
        0
 40
0.045
309
GRIDFORMAT_END
 95
        8
302
GRIDFORMAT
  1
GRIDFORMAT_BEGIN
 90
        0
 91
        1
 62
     0
 92
       -2
340
0
 93
        0
 40
0.045
309
GRIDFORMAT_END
 95
       16
302
GRIDFORMAT
  1
GRIDFORMAT_BEGIN
 90
        0
 91
        1
 62
     0
 92
       -2
340
0
 93
        0
 40
0.045
309
GRIDFORMAT_END
 95
       32
302
GRIDFORMAT
  1
GRIDFORMAT_BEGIN
 90
        0
 91
        1
 62
     0
 92
       -2
340
0
 93
        0
 40
0.045
309
GRIDFORMAT_END
309
TABLEFORMAT_END
  1
CELLSTYLE_BEGIN
 90
        3
 91
        2
300
_DATA
309
CELLSTYLE_END
  0
XRECORD
  5
5CCA
102
{ACAD_REACTORS
330
624
102
}
330
624
100
AcDbXrecord
280
     1
102
ACAD_ROUNDTRIP_PRE2007_TABLESTYLE
 90
        4
 91
        0
  1

 92
        4
 93
        0
  2

 94
        4
 95
        0
  3

  0
XRECORD
  5
5CDC
102
{ACAD_REACTORS
330
5CDB
102
}
330
5CDB
100
AcDbXrecord
280
     1
102
RTVSPropertyOp0
 70
     1
102
RTVSPropertyOp1
 70
     1
102
RTVSPropertyOp2
 70
     1
102
RTVSPropertyOp3
 70
     1
102
RTVSPropertyOp4
 70
     1
102
RTVSPropertyOp5
 70
     1
102
RTVSPropertyOp6
 70
     1
102
RTVSPropertyOp7
 70
     1
102
RTVSPropertyOp8
 70
     1
102
RTVSPropertyOp9
 70
     1
102
RTVSPropertyOp10
 70
     1
102
RTVSPropertyOp11
 70
     1
102
RTVSPropertyOp12
 70
     1
102
RTVSPropertyOp13
 70
     1
102
RTVSPropertyOp14
 70
     1
102
RTVSPropertyOp15
 70
     1
102
RTVSPropertyOp16
 70
     1
102
RTVSPropertyOp17
 70
     1
102
RTVSPropertyOp18
 70
     1
102
RTVSPropertyOp19
 70
     1
102
RTVSPropertyOp20
 70
     1
102
RTVSPropertyOp21
 70
     1
102
RTVSPropertyOp22
 70
     1
102
RTVSPropertyOp23
 70
     1
102
RTVSPropertyOp24
 70
     1
102
RTVSPropertyOp25
 70
     1
102
RTVSPropertyOp26
 70
     1
102
RTVSPropertyOp27
 70
     1
102
RTVSPropertyOp28
 70
     1
102
RTVSPropertyOp29
 70
     1
102
RTVSPropertyOp30
 70
     1
102
RTVSPropertyOp31
 70
     1
102
RTVSPropertyOp32
 70
     1
  0
XRECORD
  5
5CE0
102
{ACAD_REACTORS
330
5CDF
102
}
330
5CDF
100
AcDbXrecord
280
     1
102
RTVSPropertyOp0
 70
     1
102
RTVSPropertyOp1
 70
     1
102
RTVSPropertyOp2
 70
     1
102
RTVSPropertyOp3
 70
     1
102
RTVSPropertyOp4
 70
     1
102
RTVSPropertyOp5
 70
     1
102
RTVSPropertyOp6
 70
     1
102
RTVSPropertyOp7
 70
     1
102
RTVSPropertyOp8
 70
     1
102
RTVSPropertyOp9
 70
     1
102
RTVSPropertyOp10
 70
     1
102
RTVSPropertyOp11
 70
     1
102
RTVSPropertyOp12
 70
     1
102
RTVSPropertyOp13
 70
     1
102
RTVSPropertyOp14
 70
     1
102
RTVSPropertyOp15
 70
     1
102
RTVSPropertyOp16
 70
     1
102
RTVSPropertyOp17
 70
     1
102
RTVSPropertyOp18
 70
     1
102
RTVSPropertyOp19
 70
     1
102
RTVSPropertyOp20
 70
     1
102
RTVSPropertyOp21
 70
     1
102
RTVSPropertyOp22
 70
     1
102
RTVSPropertyOp23
 70
     1
102
RTVSPropertyOp24
 70
     1
102
RTVSPropertyOp25
 70
     1
102
RTVSPropertyOp26
 70
     1
102
RTVSPropertyOp27
 70
     1
102
RTVSPropertyOp28
 70
     1
102
RTVSPropertyOp29
 70
     1
102
RTVSPropertyOp30
 70
     1
102
RTVSPropertyOp31
 70
     1
102
RTVSPropertyOp32
 70
     1
  0
XRECORD
  5
5CDE
102
{ACAD_REACTORS
330
5CDD
102
}
330
5CDD
100
AcDbXrecord
280
     1
102
RTVSPropertyOp0
 70
     1
102
RTVSPropertyOp1
 70
     1
102
RTVSPropertyOp2
 70
     1
102
RTVSPropertyOp3
 70
     1
102
RTVSPropertyOp4
 70
     1
102
RTVSPropertyOp5
 70
     1
102
RTVSPropertyOp6
 70
     1
102
RTVSPropertyOp7
 70
     1
102
RTVSPropertyOp8
 70
     1
102
RTVSPropertyOp9
 70
     1
102
RTVSPropertyOp10
 70
     1
102
RTVSPropertyOp11
 70
     1
102
RTVSPropertyOp12
 70
     1
102
RTVSPropertyOp13
 70
     1
102
RTVSPropertyOp14
 70
     1
102
RTVSPropertyOp15
 70
     1
102
RTVSPropertyOp16
 70
     1
102
RTVSPropertyOp17
 70
     1
102
RTVSPropertyOp18
 70
     1
102
RTVSPropertyOp19
 70
     1
102
RTVSPropertyOp20
 70
     1
102
RTVSPropertyOp21
 70
     1
102
RTVSPropertyOp22
 70
     1
102
RTVSPropertyOp23
 70
     1
102
RTVSPropertyOp24
 70
     1
102
RTVSPropertyOp25
 70
     1
102
RTVSPropertyOp26
 70
     1
102
RTVSPropertyOp27
 70
     1
102
RTVSPropertyOp28
 70
     1
102
RTVSPropertyOp29
 70
     1
102
RTVSPropertyOp30
 70
     1
102
RTVSPropertyOp31
 70
     1
102
RTVSPropertyOp32
 70
     1
  0
XRECORD
  5
5CDA
102
{ACAD_REACTORS
330
5CD9
102
}
330
5CD9
100
AcDbXrecord
280
     1
102
RTVSPropertyOp0
 70
     1
102
RTVSPropertyOp1
 70
     1
102
RTVSPropertyOp2
 70
     1
102
RTVSPropertyOp3
 70
     1
102
RTVSPropertyOp4
 70
     1
102
RTVSPropertyOp5
 70
     1
102
RTVSPropertyOp6
 70
     1
102
RTVSPropertyOp7
 70
     1
102
RTVSPropertyOp8
 70
     1
102
RTVSPropertyOp9
 70
     1
102
RTVSPropertyOp10
 70
     1
102
RTVSPropertyOp11
 70
     1
102
RTVSPropertyOp12
 70
     1
102
RTVSPropertyOp13
 70
     1
102
RTVSPropertyOp14
 70
     1
102
RTVSPropertyOp15
 70
     1
102
RTVSPropertyOp16
 70
     1
102
RTVSPropertyOp17
 70
     1
102
RTVSPropertyOp18
 70
     1
102
RTVSPropertyOp19
 70
     1
102
RTVSPropertyOp20
 70
     1
102
RTVSPropertyOp21
 70
     1
102
RTVSPropertyOp22
 70
     1
102
RTVSPropertyOp23
 70
     1
102
RTVSPropertyOp24
 70
     1
102
RTVSPropertyOp25
 70
     1
102
RTVSPropertyOp26
 70
     1
102
RTVSPropertyOp27
 70
     1
102
RTVSPropertyOp28
 70
     1
102
RTVSPropertyOp29
 70
     1
102
RTVSPropertyOp30
 70
     1
102
RTVSPropertyOp31
 70
     1
102
RTVSPropertyOp32
 70
     1
  0
XRECORD
  5
5CE8
102
{ACAD_REACTORS
330
5CE7
102
}
330
5CE7
100
AcDbXrecord
280
     1
102
RTVSPropertyOp0
 70
     1
102
RTVSPropertyOp1
 70
     1
102
RTVSPropertyOp2
 70
     1
102
RTVSPropertyOp3
 70
     1
102
RTVSPropertyOp4
 70
     1
102
RTVSPropertyOp5
 70
     1
102
RTVSPropertyOp6
 70
     1
102
RTVSPropertyOp7
 70
     1
102
RTVSPropertyOp8
 70
     1
102
RTVSPropertyOp9
 70
     1
102
RTVSPropertyOp10
 70
     1
102
RTVSPropertyOp11
 70
     1
102
RTVSPropertyOp12
 70
     1
102
RTVSPropertyOp13
 70
     1
102
RTVSPropertyOp14
 70
     1
102
RTVSPropertyOp15
 70
     1
102
RTVSPropertyOp16
 70
     1
102
RTVSPropertyOp17
 70
     1
102
RTVSPropertyOp18
 70
     1
102
RTVSPropertyOp19
 70
     1
102
RTVSPropertyOp20
 70
     1
102
RTVSPropertyOp21
 70
     1
102
RTVSPropertyOp22
 70
     1
102
RTVSPropertyOp23
 70
     1
102
RTVSPropertyOp24
 70
     1
102
RTVSPropertyOp25
 70
     1
102
RTVSPropertyOp26
 70
     1
102
RTVSPropertyOp27
 70
     1
102
RTVSPropertyOp28
 70
     1
102
RTVSPropertyOp29
 70
     1
102
RTVSPropertyOp30
 70
     1
102
RTVSPropertyOp31
 70
     1
102
RTVSPropertyOp32
 70
     1
  0
XRECORD
  5
5CF0
102
{ACAD_REACTORS
330
5CEF
102
}
330
5CEF
100
AcDbXrecord
280
     1
102
RTVSPropertyOp0
 70
     1
102
RTVSPropertyOp1
 70
     1
102
RTVSPropertyOp2
 70
     1
102
RTVSPropertyOp3
 70
     1
102
RTVSPropertyOp4
 70
     1
102
RTVSPropertyOp5
 70
     1
102
RTVSPropertyOp6
 70
     1
102
RTVSPropertyOp7
 70
     1
102
RTVSPropertyOp8
 70
     1
102
RTVSPropertyOp9
 70
     1
102
RTVSPropertyOp10
 70
     1
102
RTVSPropertyOp11
 70
     1
102
RTVSPropertyOp12
 70
     1
102
RTVSPropertyOp13
 70
     1
102
RTVSPropertyOp14
 70
     1
102
RTVSPropertyOp15
 70
     1
102
RTVSPropertyOp16
 70
     1
102
RTVSPropertyOp17
 70
     1
102
RTVSPropertyOp18
 70
     1
102
RTVSPropertyOp19
 70
     1
102
RTVSPropertyOp20
 70
     1
102
RTVSPropertyOp21
 70
     1
102
RTVSPropertyOp22
 70
     1
102
RTVSPropertyOp23
 70
     1
102
RTVSPropertyOp24
 70
     1
102
RTVSPropertyOp25
 70
     1
102
RTVSPropertyOp26
 70
     1
102
RTVSPropertyOp27
 70
     1
102
RTVSPropertyOp28
 70
     1
102
RTVSPropertyOp29
 70
     1
102
RTVSPropertyOp30
 70
     1
102
RTVSPropertyOp31
 70
     1
102
RTVSPropertyOp32
 70
     1
  0
XRECORD
  5
5CE2
102
{ACAD_REACTORS
330
5CE1
102
}
330
5CE1
100
AcDbXrecord
280
     1
102
RTVSPropertyOp0
 70
     1
102
RTVSPropertyOp1
 70
     1
102
RTVSPropertyOp2
 70
     1
102
RTVSPropertyOp3
 70
     1
102
RTVSPropertyOp4
 70
     1
102
RTVSPropertyOp5
 70
     1
102
RTVSPropertyOp6
 70
     1
102
RTVSPropertyOp7
 70
     1
102
RTVSPropertyOp8
 70
     1
102
RTVSPropertyOp9
 70
     1
102
RTVSPropertyOp10
 70
     1
102
RTVSPropertyOp11
 70
     1
102
RTVSPropertyOp12
 70
     1
102
RTVSPropertyOp13
 70
     1
102
RTVSPropertyOp14
 70
     1
102
RTVSPropertyOp15
 70
     1
102
RTVSPropertyOp16
 70
     1
102
RTVSPropertyOp17
 70
     1
102
RTVSPropertyOp18
 70
     1
102
RTVSPropertyOp19
 70
     1
102
RTVSPropertyOp20
 70
     1
102
RTVSPropertyOp21
 70
     1
102
RTVSPropertyOp22
 70
     1
102
RTVSPropertyOp23
 70
     1
102
RTVSPropertyOp24
 70
     1
102
RTVSPropertyOp25
 70
     1
102
RTVSPropertyOp26
 70
     1
102
RTVSPropertyOp27
 70
     1
102
RTVSPropertyOp28
 70
     1
102
RTVSPropertyOp29
 70
     1
102
RTVSPropertyOp30
 70
     1
102
RTVSPropertyOp31
 70
     1
102
RTVSPropertyOp32
 70
     1
  0
XRECORD
  5
5CE6
102
{ACAD_REACTORS
330
5CE5
102
}
330
5CE5
100
AcDbXrecord
280
     1
102
RTVSPropertyOp0
 70
     1
102
RTVSPropertyOp1
 70
     1
102
RTVSPropertyOp2
 70
     1
102
RTVSPropertyOp3
 70
     1
102
RTVSPropertyOp4
 70
     1
102
RTVSPropertyOp5
 70
     1
102
RTVSPropertyOp6
 70
     1
102
RTVSPropertyOp7
 70
     1
102
RTVSPropertyOp8
 70
     1
102
RTVSPropertyOp9
 70
     1
102
RTVSPropertyOp10
 70
     1
102
RTVSPropertyOp11
 70
     1
102
RTVSPropertyOp12
 70
     1
102
RTVSPropertyOp13
 70
     1
102
RTVSPropertyOp14
 70
     1
102
RTVSPropertyOp15
 70
     1
102
RTVSPropertyOp16
 70
     1
102
RTVSPropertyOp17
 70
     1
102
RTVSPropertyOp18
 70
     1
102
RTVSPropertyOp19
 70
     1
102
RTVSPropertyOp20
 70
     1
102
RTVSPropertyOp21
 70
     1
102
RTVSPropertyOp22
 70
     1
102
RTVSPropertyOp23
 70
     1
102
RTVSPropertyOp24
 70
     1
102
RTVSPropertyOp25
 70
     1
102
RTVSPropertyOp26
 70
     1
102
RTVSPropertyOp27
 70
     1
102
RTVSPropertyOp28
 70
     1
102
RTVSPropertyOp29
 70
     1
102
RTVSPropertyOp30
 70
     1
102
RTVSPropertyOp31
 70
     1
102
RTVSPropertyOp32
 70
     1
  0
XRECORD
  5
5D04
102
{ACAD_REACTORS
330
5D03
102
}
330
5D03
100
AcDbXrecord
280
     1
102
RTVSPropertyOp0
 70
     0
102
RTVSPropertyOp1
 70
     0
102
RTVSPropertyOp2
 70
     0
102
RTVSPropertyOp3
 70
     0
102
RTVSPropertyOp4
 70
     0
102
RTVSPropertyOp5
 70
     0
102
RTVSPropertyOp6
 70
     0
102
RTVSPropertyOp7
 70
     0
102
RTVSPropertyOp8
 70
     0
102
RTVSPropertyOp9
 70
     0
102
RTVSPropertyOp10
 70
     0
102
RTVSPropertyOp11
 70
     0
102
RTVSPropertyOp12
 70
     0
102
RTVSPropertyOp13
 70
     0
102
RTVSPropertyOp14
 70
     2
102
RTVSPropertyOp15
 70
     0
102
RTVSPropertyOp16
 70
     0
102
RTVSPropertyOp17
 70
     0
102
RTVSPropertyOp18
 70
     0
102
RTVSPropertyOp19
 70
     0
102
RTVSPropertyOp20
 70
     0
102
RTVSPropertyOp21
 70
     0
102
RTVSPropertyOp22
 70
     0
102
RTVSPropertyOp23
 70
     0
102
RTVSPropertyOp24
 70
     0
102
RTVSPropertyOp25
 70
     0
102
RTVSPropertyOp26
 70
     0
102
RTVSPropertyOp27
 70
     0
102
RTVSPropertyOp28
 70
     1
102
RTVSPropertyOp29
 70
     1
102
RTVSPropertyOp30
 70
     1
102
RTVSPropertyOp31
 70
     1
102
RTVSPropertyOp32
 70
     1
  0
XRECORD
  5
5CEE
102
{ACAD_REACTORS
330
5CED
102
}
330
5CED
100
AcDbXrecord
280
     1
102
RTVSPropertyOp0
 70
     1
102
RTVSPropertyOp1
 70
     1
102
RTVSPropertyOp2
 70
     1
102
RTVSPropertyOp3
 70
     1
102
RTVSPropertyOp4
 70
     1
102
RTVSPropertyOp5
 70
     1
102
RTVSPropertyOp6
 70
     1
102
RTVSPropertyOp7
 70
     1
102
RTVSPropertyOp8
 70
     1
102
RTVSPropertyOp9
 70
     1
102
RTVSPropertyOp10
 70
     1
102
RTVSPropertyOp11
 70
     1
102
RTVSPropertyOp12
 70
     1
102
RTVSPropertyOp13
 70
     1
102
RTVSPropertyOp14
 70
     1
102
RTVSPropertyOp15
 70
     1
102
RTVSPropertyOp16
 70
     1
102
RTVSPropertyOp17
 70
     1
102
RTVSPropertyOp18
 70
     1
102
RTVSPropertyOp19
 70
     1
102
RTVSPropertyOp20
 70
     1
102
RTVSPropertyOp21
 70
     1
102
RTVSPropertyOp22
 70
     1
102
RTVSPropertyOp23
 70
     1
102
RTVSPropertyOp24
 70
     1
102
RTVSPropertyOp25
 70
     1
102
RTVSPropertyOp26
 70
     1
102
RTVSPropertyOp27
 70
     1
102
RTVSPropertyOp28
 70
     1
102
RTVSPropertyOp29
 70
     1
102
RTVSPropertyOp30
 70
     1
102
RTVSPropertyOp31
 70
     1
102
RTVSPropertyOp32
 70
     1
  0
XRECORD
  5
5CD2
102
{ACAD_REACTORS
330
5CD1
102
}
330
5CD1
100
AcDbXrecord
280
     1
102
RTVSPropertyOp0
 70
     1
102
RTVSPropertyOp1
 70
     1
102
RTVSPropertyOp2
 70
     1
102
RTVSPropertyOp3
 70
     1
102
RTVSPropertyOp4
 70
     1
102
RTVSPropertyOp5
 70
     1
102
RTVSPropertyOp6
 70
     1
102
RTVSPropertyOp7
 70
     1
102
RTVSPropertyOp8
 70
     1
102
RTVSPropertyOp9
 70
     1
102
RTVSPropertyOp10
 70
     1
102
RTVSPropertyOp11
 70
     1
102
RTVSPropertyOp12
 70
     1
102
RTVSPropertyOp13
 70
     1
102
RTVSPropertyOp14
 70
     1
102
RTVSPropertyOp15
 70
     1
102
RTVSPropertyOp16
 70
     1
102
RTVSPropertyOp17
 70
     1
102
RTVSPropertyOp18
 70
     1
102
RTVSPropertyOp19
 70
     1
102
RTVSPropertyOp20
 70
     1
102
RTVSPropertyOp21
 70
     1
102
RTVSPropertyOp22
 70
     1
102
RTVSPropertyOp23
 70
     1
102
RTVSPropertyOp24
 70
     1
102
RTVSPropertyOp25
 70
     1
102
RTVSPropertyOp26
 70
     1
102
RTVSPropertyOp27
 70
     1
102
RTVSPropertyOp28
 70
     1
102
RTVSPropertyOp29
 70
     1
102
RTVSPropertyOp30
 70
     1
102
RTVSPropertyOp31
 70
     1
102
RTVSPropertyOp32
 70
     1
  0
XRECORD
  5
5CD4
102
{ACAD_REACTORS
330
5CD3
102
}
330
5CD3
100
AcDbXrecord
280
     1
102
RTVSPropertyOp0
 70
     1
102
RTVSPropertyOp1
 70
     1
102
RTVSPropertyOp2
 70
     1
102
RTVSPropertyOp3
 70
     1
102
RTVSPropertyOp4
 70
     1
102
RTVSPropertyOp5
 70
     1
102
RTVSPropertyOp6
 70
     1
102
RTVSPropertyOp7
 70
     1
102
RTVSPropertyOp8
 70
     1
102
RTVSPropertyOp9
 70
     1
102
RTVSPropertyOp10
 70
     1
102
RTVSPropertyOp11
 70
     1
102
RTVSPropertyOp12
 70
     1
102
RTVSPropertyOp13
 70
     1
102
RTVSPropertyOp14
 70
     1
102
RTVSPropertyOp15
 70
     1
102
RTVSPropertyOp16
 70
     1
102
RTVSPropertyOp17
 70
     1
102
RTVSPropertyOp18
 70
     1
102
RTVSPropertyOp19
 70
     1
102
RTVSPropertyOp20
 70
     1
102
RTVSPropertyOp21
 70
     1
102
RTVSPropertyOp22
 70
     1
102
RTVSPropertyOp23
 70
     1
102
RTVSPropertyOp24
 70
     1
102
RTVSPropertyOp25
 70
     1
102
RTVSPropertyOp26
 70
     1
102
RTVSPropertyOp27
 70
     1
102
RTVSPropertyOp28
 70
     1
102
RTVSPropertyOp29
 70
     1
102
RTVSPropertyOp30
 70
     1
102
RTVSPropertyOp31
 70
     1
102
RTVSPropertyOp32
 70
     1
  0
XRECORD
  5
5CD6
102
{ACAD_REACTORS
330
5CD5
102
}
330
5CD5
100
AcDbXrecord
280
     1
102
RTVSPropertyOp0
 70
     1
102
RTVSPropertyOp1
 70
     1
102
RTVSPropertyOp2
 70
     1
102
RTVSPropertyOp3
 70
     1
102
RTVSPropertyOp4
 70
     1
102
RTVSPropertyOp5
 70
     1
102
RTVSPropertyOp6
 70
     1
102
RTVSPropertyOp7
 70
     1
102
RTVSPropertyOp8
 70
     1
102
RTVSPropertyOp9
 70
     1
102
RTVSPropertyOp10
 70
     1
102
RTVSPropertyOp11
 70
     1
102
RTVSPropertyOp12
 70
     1
102
RTVSPropertyOp13
 70
     1
102
RTVSPropertyOp14
 70
     1
102
RTVSPropertyOp15
 70
     1
102
RTVSPropertyOp16
 70
     1
102
RTVSPropertyOp17
 70
     1
102
RTVSPropertyOp18
 70
     1
102
RTVSPropertyOp19
 70
     1
102
RTVSPropertyOp20
 70
     1
102
RTVSPropertyOp21
 70
     1
102
RTVSPropertyOp22
 70
     1
102
RTVSPropertyOp23
 70
     1
102
RTVSPropertyOp24
 70
     1
102
RTVSPropertyOp25
 70
     1
102
RTVSPropertyOp26
 70
     1
102
RTVSPropertyOp27
 70
     1
102
RTVSPropertyOp28
 70
     1
102
RTVSPropertyOp29
 70
     1
102
RTVSPropertyOp30
 70
     1
102
RTVSPropertyOp31
 70
     1
102
RTVSPropertyOp32
 70
     1
  0
XRECORD
  5
5CD8
102
{ACAD_REACTORS
330
5CD7
102
}
330
5CD7
100
AcDbXrecord
280
     1
102
RTVSPropertyOp0
 70
     1
102
RTVSPropertyOp1
 70
     1
102
RTVSPropertyOp2
 70
     1
102
RTVSPropertyOp3
 70
     1
102
RTVSPropertyOp4
 70
     1
102
RTVSPropertyOp5
 70
     1
102
RTVSPropertyOp6
 70
     1
102
RTVSPropertyOp7
 70
     1
102
RTVSPropertyOp8
 70
     1
102
RTVSPropertyOp9
 70
     1
102
RTVSPropertyOp10
 70
     1
102
RTVSPropertyOp11
 70
     1
102
RTVSPropertyOp12
 70
     1
102
RTVSPropertyOp13
 70
     1
102
RTVSPropertyOp14
 70
     1
102
RTVSPropertyOp15
 70
     1
102
RTVSPropertyOp16
 70
     1
102
RTVSPropertyOp17
 70
     1
102
RTVSPropertyOp18
 70
     1
102
RTVSPropertyOp19
 70
     1
102
RTVSPropertyOp20
 70
     1
102
RTVSPropertyOp21
 70
     1
102
RTVSPropertyOp22
 70
     1
102
RTVSPropertyOp23
 70
     1
102
RTVSPropertyOp24
 70
     1
102
RTVSPropertyOp25
 70
     1
102
RTVSPropertyOp26
 70
     1
102
RTVSPropertyOp27
 70
     1
102
RTVSPropertyOp28
 70
     1
102
RTVSPropertyOp29
 70
     1
102
RTVSPropertyOp30
 70
     1
102
RTVSPropertyOp31
 70
     1
102
RTVSPropertyOp32
 70
     1
  0
XRECORD
  5
5CF4
102
{ACAD_REACTORS
330
5CF3
102
}
330
5CF3
100
AcDbXrecord
280
     1
102
RTVSPropertyOp0
 70
     1
102
RTVSPropertyOp1
 70
     1
102
RTVSPropertyOp2
 70
     1
102
RTVSPropertyOp3
 70
     1
102
RTVSPropertyOp4
 70
     1
102
RTVSPropertyOp5
 70
     1
102
RTVSPropertyOp6
 70
     1
102
RTVSPropertyOp7
 70
     1
102
RTVSPropertyOp8
 70
     1
102
RTVSPropertyOp9
 70
     1
102
RTVSPropertyOp10
 70
     1
102
RTVSPropertyOp11
 70
     1
102
RTVSPropertyOp12
 70
     1
102
RTVSPropertyOp13
 70
     1
102
RTVSPropertyOp14
 70
     1
102
RTVSPropertyOp15
 70
     1
102
RTVSPropertyOp16
 70
     1
102
RTVSPropertyOp17
 70
     1
102
RTVSPropertyOp18
 70
     1
102
RTVSPropertyOp19
 70
     1
102
RTVSPropertyOp20
 70
     1
102
RTVSPropertyOp21
 70
     1
102
RTVSPropertyOp22
 70
     1
102
RTVSPropertyOp23
 70
     1
102
RTVSPropertyOp24
 70
     1
102
RTVSPropertyOp25
 70
     1
102
RTVSPropertyOp26
 70
     1
102
RTVSPropertyOp27
 70
     1
102
RTVSPropertyOp28
 70
     1
102
RTVSPropertyOp29
 70
     1
102
RTVSPropertyOp30
 70
     1
102
RTVSPropertyOp31
 70
     1
102
RTVSPropertyOp32
 70
     1
  0
XRECORD
  5
5D00
102
{ACAD_REACTORS
330
5CFF
102
}
330
5CFF
100
AcDbXrecord
280
     1
102
RTVSPropertyOp0
 70
     0
102
RTVSPropertyOp1
 70
     0
102
RTVSPropertyOp2
 70
     0
102
RTVSPropertyOp3
 70
     0
102
RTVSPropertyOp4
 70
     0
102
RTVSPropertyOp5
 70
     0
102
RTVSPropertyOp6
 70
     0
102
RTVSPropertyOp7
 70
     0
102
RTVSPropertyOp8
 70
     0
102
RTVSPropertyOp9
 70
     0
102
RTVSPropertyOp10
 70
     0
102
RTVSPropertyOp11
 70
     0
102
RTVSPropertyOp12
 70
     0
102
RTVSPropertyOp13
 70
     0
102
RTVSPropertyOp14
 70
     2
102
RTVSPropertyOp15
 70
     0
102
RTVSPropertyOp16
 70
     0
102
RTVSPropertyOp17
 70
     0
102
RTVSPropertyOp18
 70
     0
102
RTVSPropertyOp19
 70
     0
102
RTVSPropertyOp20
 70
     0
102
RTVSPropertyOp21
 70
     0
102
RTVSPropertyOp22
 70
     0
102
RTVSPropertyOp23
 70
     0
102
RTVSPropertyOp24
 70
     0
102
RTVSPropertyOp25
 70
     0
102
RTVSPropertyOp26
 70
     0
102
RTVSPropertyOp27
 70
     0
102
RTVSPropertyOp28
 70
     1
102
RTVSPropertyOp29
 70
     1
102
RTVSPropertyOp30
 70
     1
102
RTVSPropertyOp31
 70
     1
102
RTVSPropertyOp32
 70
     1
  0
XRECORD
  5
5CEC
102
{ACAD_REACTORS
330
5CEB
102
}
330
5CEB
100
AcDbXrecord
280
     1
102
RTVSPropertyOp0
 70
     1
102
RTVSPropertyOp1
 70
     1
102
RTVSPropertyOp2
 70
     1
102
RTVSPropertyOp3
 70
     1
102
RTVSPropertyOp4
 70
     1
102
RTVSPropertyOp5
 70
     1
102
RTVSPropertyOp6
 70
     1
102
RTVSPropertyOp7
 70
     1
102
RTVSPropertyOp8
 70
     1
102
RTVSPropertyOp9
 70
     1
102
RTVSPropertyOp10
 70
     1
102
RTVSPropertyOp11
 70
     1
102
RTVSPropertyOp12
 70
     1
102
RTVSPropertyOp13
 70
     1
102
RTVSPropertyOp14
 70
     1
102
RTVSPropertyOp15
 70
     1
102
RTVSPropertyOp16
 70
     1
102
RTVSPropertyOp17
 70
     1
102
RTVSPropertyOp18
 70
     1
102
RTVSPropertyOp19
 70
     1
102
RTVSPropertyOp20
 70
     1
102
RTVSPropertyOp21
 70
     1
102
RTVSPropertyOp22
 70
     1
102
RTVSPropertyOp23
 70
     1
102
RTVSPropertyOp24
 70
     1
102
RTVSPropertyOp25
 70
     1
102
RTVSPropertyOp26
 70
     1
102
RTVSPropertyOp27
 70
     1
102
RTVSPropertyOp28
 70
     1
102
RTVSPropertyOp29
 70
     1
102
RTVSPropertyOp30
 70
     1
102
RTVSPropertyOp31
 70
     1
102
RTVSPropertyOp32
 70
     1
  0
XRECORD
  5
5D02
102
{ACAD_REACTORS
330
5D01
102
}
330
5D01
100
AcDbXrecord
280
     1
102
RTVSPropertyOp0
 70
     0
102
RTVSPropertyOp1
 70
     0
102
RTVSPropertyOp2
 70
     0
102
RTVSPropertyOp3
 70
     0
102
RTVSPropertyOp4
 70
     0
102
RTVSPropertyOp5
 70
     0
102
RTVSPropertyOp6
 70
     0
102
RTVSPropertyOp7
 70
     0
102
RTVSPropertyOp8
 70
     0
102
RTVSPropertyOp9
 70
     0
102
RTVSPropertyOp10
 70
     0
102
RTVSPropertyOp11
 70
     0
102
RTVSPropertyOp12
 70
     0
102
RTVSPropertyOp13
 70
     0
102
RTVSPropertyOp14
 70
     2
102
RTVSPropertyOp15
 70
     0
102
RTVSPropertyOp16
 70
     0
102
RTVSPropertyOp17
 70
     0
102
RTVSPropertyOp18
 70
     0
102
RTVSPropertyOp19
 70
     0
102
RTVSPropertyOp20
 70
     0
102
RTVSPropertyOp21
 70
     0
102
RTVSPropertyOp22
 70
     0
102
RTVSPropertyOp23
 70
     0
102
RTVSPropertyOp24
 70
     0
102
RTVSPropertyOp25
 70
     0
102
RTVSPropertyOp26
 70
     0
102
RTVSPropertyOp27
 70
     0
102
RTVSPropertyOp28
 70
     1
102
RTVSPropertyOp29
 70
     1
102
RTVSPropertyOp30
 70
     1
102
RTVSPropertyOp31
 70
     1
102
RTVSPropertyOp32
 70
     1
  0
XRECORD
  5
5CE4
102
{ACAD_REACTORS
330
5CE3
102
}
330
5CE3
100
AcDbXrecord
280
     1
102
RTVSPropertyOp0
 70
     1
102
RTVSPropertyOp1
 70
     1
102
RTVSPropertyOp2
 70
     1
102
RTVSPropertyOp3
 70
     1
102
RTVSPropertyOp4
 70
     1
102
RTVSPropertyOp5
 70
     1
102
RTVSPropertyOp6
 70
     1
102
RTVSPropertyOp7
 70
     1
102
RTVSPropertyOp8
 70
     1
102
RTVSPropertyOp9
 70
     1
102
RTVSPropertyOp10
 70
     1
102
RTVSPropertyOp11
 70
     1
102
RTVSPropertyOp12
 70
     1
102
RTVSPropertyOp13
 70
     1
102
RTVSPropertyOp14
 70
     1
102
RTVSPropertyOp15
 70
     1
102
RTVSPropertyOp16
 70
     1
102
RTVSPropertyOp17
 70
     1
102
RTVSPropertyOp18
 70
     1
102
RTVSPropertyOp19
 70
     1
102
RTVSPropertyOp20
 70
     1
102
RTVSPropertyOp21
 70
     1
102
RTVSPropertyOp22
 70
     1
102
RTVSPropertyOp23
 70
     1
102
RTVSPropertyOp24
 70
     1
102
RTVSPropertyOp25
 70
     1
102
RTVSPropertyOp26
 70
     1
102
RTVSPropertyOp27
 70
     1
102
RTVSPropertyOp28
 70
     1
102
RTVSPropertyOp29
 70
     1
102
RTVSPropertyOp30
 70
     1
102
RTVSPropertyOp31
 70
     1
102
RTVSPropertyOp32
 70
     1
  0
XRECORD
  5
5CFE
102
{ACAD_REACTORS
330
5CFD
102
}
330
5CFD
100
AcDbXrecord
280
     1
102
RTVSPropertyOp0
 70
     1
102
RTVSPropertyOp1
 70
     1
102
RTVSPropertyOp2
 70
     1
102
RTVSPropertyOp3
 70
     1
102
RTVSPropertyOp4
 70
     1
102
RTVSPropertyOp5
 70
     1
102
RTVSPropertyOp6
 70
     1
102
RTVSPropertyOp7
 70
     1
102
RTVSPropertyOp8
 70
     1
102
RTVSPropertyOp9
 70
     1
102
RTVSPropertyOp10
 70
     1
102
RTVSPropertyOp11
 70
     1
102
RTVSPropertyOp12
 70
     1
102
RTVSPropertyOp13
 70
     1
102
RTVSPropertyOp14
 70
     1
102
RTVSPropertyOp15
 70
     1
102
RTVSPropertyOp16
 70
     1
102
RTVSPropertyOp17
 70
     1
102
RTVSPropertyOp18
 70
     1
102
RTVSPropertyOp19
 70
     1
102
RTVSPropertyOp20
 70
     1
102
RTVSPropertyOp21
 70
     1
102
RTVSPropertyOp22
 70
     1
102
RTVSPropertyOp23
 70
     1
102
RTVSPropertyOp24
 70
     1
102
RTVSPropertyOp25
 70
     1
102
RTVSPropertyOp26
 70
     1
102
RTVSPropertyOp27
 70
     1
102
RTVSPropertyOp28
 70
     1
102
RTVSPropertyOp29
 70
     1
102
RTVSPropertyOp30
 70
     1
102
RTVSPropertyOp31
 70
     1
102
RTVSPropertyOp32
 70
     1
  0
XRECORD
  5
5CFC
102
{ACAD_REACTORS
330
5CFB
102
}
330
5CFB
100
AcDbXrecord
280
     1
102
RTVSPropertyOp0
 70
     1
102
RTVSPropertyOp1
 70
     1
102
RTVSPropertyOp2
 70
     1
102
RTVSPropertyOp3
 70
     1
102
RTVSPropertyOp4
 70
     1
102
RTVSPropertyOp5
 70
     1
102
RTVSPropertyOp6
 70
     1
102
RTVSPropertyOp7
 70
     1
102
RTVSPropertyOp8
 70
     1
102
RTVSPropertyOp9
 70
     1
102
RTVSPropertyOp10
 70
     1
102
RTVSPropertyOp11
 70
     1
102
RTVSPropertyOp12
 70
     1
102
RTVSPropertyOp13
 70
     1
102
RTVSPropertyOp14
 70
     1
102
RTVSPropertyOp15
 70
     1
102
RTVSPropertyOp16
 70
     1
102
RTVSPropertyOp17
 70
     1
102
RTVSPropertyOp18
 70
     1
102
RTVSPropertyOp19
 70
     1
102
RTVSPropertyOp20
 70
     1
102
RTVSPropertyOp21
 70
     1
102
RTVSPropertyOp22
 70
     1
102
RTVSPropertyOp23
 70
     1
102
RTVSPropertyOp24
 70
     1
102
RTVSPropertyOp25
 70
     1
102
RTVSPropertyOp26
 70
     1
102
RTVSPropertyOp27
 70
     1
102
RTVSPropertyOp28
 70
     1
102
RTVSPropertyOp29
 70
     1
102
RTVSPropertyOp30
 70
     1
102
RTVSPropertyOp31
 70
     1
102
RTVSPropertyOp32
 70
     1
  0
XRECORD
  5
5CF6
102
{ACAD_REACTORS
330
5CF5
102
}
330
5CF5
100
AcDbXrecord
280
     1
102
RTVSPropertyOp0
 70
     1
102
RTVSPropertyOp1
 70
     1
102
RTVSPropertyOp2
 70
     1
102
RTVSPropertyOp3
 70
     1
102
RTVSPropertyOp4
 70
     1
102
RTVSPropertyOp5
 70
     1
102
RTVSPropertyOp6
 70
     1
102
RTVSPropertyOp7
 70
     1
102
RTVSPropertyOp8
 70
     1
102
RTVSPropertyOp9
 70
     1
102
RTVSPropertyOp10
 70
     1
102
RTVSPropertyOp11
 70
     1
102
RTVSPropertyOp12
 70
     1
102
RTVSPropertyOp13
 70
     1
102
RTVSPropertyOp14
 70
     1
102
RTVSPropertyOp15
 70
     1
102
RTVSPropertyOp16
 70
     1
102
RTVSPropertyOp17
 70
     1
102
RTVSPropertyOp18
 70
     1
102
RTVSPropertyOp19
 70
     1
102
RTVSPropertyOp20
 70
     1
102
RTVSPropertyOp21
 70
     1
102
RTVSPropertyOp22
 70
     1
102
RTVSPropertyOp23
 70
     1
102
RTVSPropertyOp24
 70
     1
102
RTVSPropertyOp25
 70
     1
102
RTVSPropertyOp26
 70
     1
102
RTVSPropertyOp27
 70
     1
102
RTVSPropertyOp28
 70
     1
102
RTVSPropertyOp29
 70
     1
102
RTVSPropertyOp30
 70
     1
102
RTVSPropertyOp31
 70
     1
102
RTVSPropertyOp32
 70
     1
  0
XRECORD
  5
5CF8
102
{ACAD_REACTORS
330
5CF7
102
}
330
5CF7
100
AcDbXrecord
280
     1
102
RTVSPropertyOp0
 70
     1
102
RTVSPropertyOp1
 70
     1
102
RTVSPropertyOp2
 70
     1
102
RTVSPropertyOp3
 70
     1
102
RTVSPropertyOp4
 70
     1
102
RTVSPropertyOp5
 70
     1
102
RTVSPropertyOp6
 70
     1
102
RTVSPropertyOp7
 70
     1
102
RTVSPropertyOp8
 70
     1
102
RTVSPropertyOp9
 70
     1
102
RTVSPropertyOp10
 70
     1
102
RTVSPropertyOp11
 70
     1
102
RTVSPropertyOp12
 70
     1
102
RTVSPropertyOp13
 70
     1
102
RTVSPropertyOp14
 70
     1
102
RTVSPropertyOp15
 70
     1
102
RTVSPropertyOp16
 70
     1
102
RTVSPropertyOp17
 70
     1
102
RTVSPropertyOp18
 70
     1
102
RTVSPropertyOp19
 70
     1
102
RTVSPropertyOp20
 70
     1
102
RTVSPropertyOp21
 70
     1
102
RTVSPropertyOp22
 70
     1
102
RTVSPropertyOp23
 70
     1
102
RTVSPropertyOp24
 70
     1
102
RTVSPropertyOp25
 70
     1
102
RTVSPropertyOp26
 70
     1
102
RTVSPropertyOp27
 70
     1
102
RTVSPropertyOp28
 70
     1
102
RTVSPropertyOp29
 70
     1
102
RTVSPropertyOp30
 70
     1
102
RTVSPropertyOp31
 70
     1
102
RTVSPropertyOp32
 70
     1
  0
XRECORD
  5
5CEA
102
{ACAD_REACTORS
330
5CE9
102
}
330
5CE9
100
AcDbXrecord
280
     1
102
RTVSPropertyOp0
 70
     1
102
RTVSPropertyOp1
 70
     1
102
RTVSPropertyOp2
 70
     1
102
RTVSPropertyOp3
 70
     1
102
RTVSPropertyOp4
 70
     1
102
RTVSPropertyOp5
 70
     1
102
RTVSPropertyOp6
 70
     1
102
RTVSPropertyOp7
 70
     1
102
RTVSPropertyOp8
 70
     1
102
RTVSPropertyOp9
 70
     1
102
RTVSPropertyOp10
 70
     1
102
RTVSPropertyOp11
 70
     1
102
RTVSPropertyOp12
 70
     1
102
RTVSPropertyOp13
 70
     1
102
RTVSPropertyOp14
 70
     1
102
RTVSPropertyOp15
 70
     1
102
RTVSPropertyOp16
 70
     1
102
RTVSPropertyOp17
 70
     1
102
RTVSPropertyOp18
 70
     1
102
RTVSPropertyOp19
 70
     1
102
RTVSPropertyOp20
 70
     1
102
RTVSPropertyOp21
 70
     1
102
RTVSPropertyOp22
 70
     1
102
RTVSPropertyOp23
 70
     1
102
RTVSPropertyOp24
 70
     1
102
RTVSPropertyOp25
 70
     1
102
RTVSPropertyOp26
 70
     1
102
RTVSPropertyOp27
 70
     1
102
RTVSPropertyOp28
 70
     1
102
RTVSPropertyOp29
 70
     1
102
RTVSPropertyOp30
 70
     1
102
RTVSPropertyOp31
 70
     1
102
RTVSPropertyOp32
 70
     1
  0
XRECORD
  5
5CF2
102
{ACAD_REACTORS
330
5CF1
102
}
330
5CF1
100
AcDbXrecord
280
     1
102
RTVSPropertyOp0
 70
     1
102
RTVSPropertyOp1
 70
     1
102
RTVSPropertyOp2
 70
     1
102
RTVSPropertyOp3
 70
     1
102
RTVSPropertyOp4
 70
     1
102
RTVSPropertyOp5
 70
     1
102
RTVSPropertyOp6
 70
     1
102
RTVSPropertyOp7
 70
     1
102
RTVSPropertyOp8
 70
     1
102
RTVSPropertyOp9
 70
     1
102
RTVSPropertyOp10
 70
     1
102
RTVSPropertyOp11
 70
     1
102
RTVSPropertyOp12
 70
     1
102
RTVSPropertyOp13
 70
     1
102
RTVSPropertyOp14
 70
     1
102
RTVSPropertyOp15
 70
     1
102
RTVSPropertyOp16
 70
     1
102
RTVSPropertyOp17
 70
     1
102
RTVSPropertyOp18
 70
     1
102
RTVSPropertyOp19
 70
     1
102
RTVSPropertyOp20
 70
     1
102
RTVSPropertyOp21
 70
     1
102
RTVSPropertyOp22
 70
     1
102
RTVSPropertyOp23
 70
     1
102
RTVSPropertyOp24
 70
     1
102
RTVSPropertyOp25
 70
     1
102
RTVSPropertyOp26
 70
     1
102
RTVSPropertyOp27
 70
     1
102
RTVSPropertyOp28
 70
     1
102
RTVSPropertyOp29
 70
     1
102
RTVSPropertyOp30
 70
     1
102
RTVSPropertyOp31
 70
     1
102
RTVSPropertyOp32
 70
     1
  0
XRECORD
  5
5CFA
102
{ACAD_REACTORS
330
5CF9
102
}
330
5CF9
100
AcDbXrecord
280
     1
102
RTVSPropertyOp0
 70
     1
102
RTVSPropertyOp1
 70
     1
102
RTVSPropertyOp2
 70
     1
102
RTVSPropertyOp3
 70
     1
102
RTVSPropertyOp4
 70
     1
102
RTVSPropertyOp5
 70
     1
102
RTVSPropertyOp6
 70
     1
102
RTVSPropertyOp7
 70
     1
102
RTVSPropertyOp8
 70
     1
102
RTVSPropertyOp9
 70
     1
102
RTVSPropertyOp10
 70
     1
102
RTVSPropertyOp11
 70
     1
102
RTVSPropertyOp12
 70
     1
102
RTVSPropertyOp13
 70
     1
102
RTVSPropertyOp14
 70
     1
102
RTVSPropertyOp15
 70
     1
102
RTVSPropertyOp16
 70
     1
102
RTVSPropertyOp17
 70
     1
102
RTVSPropertyOp18
 70
     1
102
RTVSPropertyOp19
 70
     1
102
RTVSPropertyOp20
 70
     1
102
RTVSPropertyOp21
 70
     1
102
RTVSPropertyOp22
 70
     1
102
RTVSPropertyOp23
 70
     1
102
RTVSPropertyOp24
 70
     1
102
RTVSPropertyOp25
 70
     1
102
RTVSPropertyOp26
 70
     1
102
RTVSPropertyOp27
 70
     1
102
RTVSPropertyOp28
 70
     1
102
RTVSPropertyOp29
 70
     1
102
RTVSPropertyOp30
 70
     1
102
RTVSPropertyOp31
 70
     1
102
RTVSPropertyOp32
 70
     1
  0
ENDSEC
  0
EOF
